Oops, an error
Loading. Please wait.

Zor Guzel Tab

330 views 1 this week
no commentswrite comment
1 2 3 4 5
excellent!
x 1
add to favorites launch autoscroll
font size
0
reset
Autoscroll
+/-
esc
set tempo
stop
Contributor
WARNING: You are trying to view
                                    content from Ultimate-Guitar.com
                                    in an unauthorized application,
                                    which is prohibited.

                                    Please use an official Ultimate
                                    Guitar Tabs application for iPhone,
                                    iPad or Android to access legitimate
                                    chords, guitar, bass, and drum tabs
                                    from Ultimate-Guitar.com database.

                                    Type "ultimate guitar tabs" in Apple
                                    App Store's or Android Market's
                                    search to find the application.
Gitar 1: (electro clean)
     Am                   Am                   C                  
E||--------------------|--------------------|--------------------|
B||--------------------|--------------------|-----------0--------|
G||-----------5--------|-----------5--------|--------5-----5-----|
D||--------7-----7-----|--------7-----7-----|-----5-----------5--|
A||-----7-----------7--|-----7-----------7--|--3-----------------|
E||--5-----------------|--5-----------------|--------------------|


  C                    G                                   
--------------------|--------------------|---------------||
-----------0--------|--------------------|---------------||
--------5-----5-----|-----------4--------|---------------||
-----5-----------5--|--------5-----5-----|---------------||
--3-----------------|-----5-----------5--|---------------||
--------------------|--3-----------------|--3------------||

Gitar 1: (distortion)
                                  2x                             
E||-------------------------------||----------------0-0-0-0-0-0-|
B||-------------------------------||----------------5-5-5-5-5-5-|
G||*-----------------------------*||----------------------------|
D||*--2---0-5-0-5--x-5-5-x-5-5-0-*||--2---0-5-0-2---------------|
A||---2---0-5-0-5--x-5-5-x-5-5-0--||--2---0-5-0-2---------------|
E||---0---0-3-0-3--x-3-3-x-3-3-0--||--0---0-3-0-0---------------|

                                2x                            
|-------------------------------||--------------------------||
|-------------------------------||--------------------------||
|*-----------------------------*||--------------------------||
|*--2---0-5-0-5--x-5-5-x-5-5-0-*||--2---0-5-0-2-------------||
|---2---0-5-0-5--x-5-5-x-5-5-0--||--2---0-5-0-2-------------||
|---0---0-3-0-3--x-3-3-x-3-3-0--||--0---0-3-0-0-------------||

Gitar 2: (overdrive)
                           2x                       
E||------------------------||----------------------|
B||------------------------||----------------------|
G||*----------------------*||----------------------|
D||*----------------------*||----------------------|
A||------------------------||----------------------|
E||------------------------||----------------------|

                                2x                           
|-------------------------------||-------------------------||
|------------------------8~-----||-------------------------||
|*---------------------------7-*||-------------------------||
|*--2---0-5-0-5-x------5-------*||--2---0-5-0-2------------||
|---2---0-5-0-5-x----5----------||--2---0-5-0-2------------||
|---0---0-3-0-3-x--3------------||--0---0-3-0-0------------||

SÖZ KISMI:

     Am                   Am                   C                  
E||--------------------|--------------------|--------------------|
B||--------------------|--------------------|-----------0--------|
G||-----------5--------|-----------5--------|--------5-----5-----|
D||--------7-----7-----|--------7-----7-----|-----5-----------5--|
A||-----7-----------7--|-----7-----------7--|--3-----------------|
E||--5-----------------|--5-----------------|--------------------|
güzel olan dik dolaşır güzele herşey yaraşır...

  C                    G                                   
--------------------|--------------------|---------------||
-----------0--------|--------------------|---------------||
--------5-----5-----|-----------4--------|---------------||
-----5-----------5--|--------5-----5-----|---------------||
--3-----------------|-----5-----------5--|---------------||
--------------------|--3-----------------|--3------------||
güzele herşey yaraşır...

E||-------------------------------||
B||-------------------------------||
G||*-----------------------------*||
D||*--2---0-5-0-5--x-5-5-x-5-5-0-*||
A||---2---0-5-0-5--x-5-5-x-5-5-0--||
E||---0---0-3-0-3--x-3-3-x-3-3-0--||

--------------------------||
--------------------------||
--------------------------||
--2---0-5-0-2-------------||
--2---0-5-0-2-------------||
--0---0-3-0-0-------------||

     Am                   Am                   C                  
E||--------------------|--------------------|--------------------|
B||--------------------|--------------------|-----------0--------|
G||-----------5--------|-----------5--------|--------5-----5-----|
D||--------7-----7-----|--------7-----7-----|-----5-----------5--|
A||-----7-----------7--|-----7-----------7--|--3-----------------|
E||--5-----------------|--5-----------------|--------------------|
hangisine elim atsam, gönlüme sevda bulaşır...

  C                    G                                   
--------------------|--------------------|---------------||
-----------0--------|--------------------|---------------||
--------5-----5-----|-----------4--------|---------------||
-----5-----------5--|--------5-----5-----|---------------||
--3-----------------|-----5-----------5--|---------------||
--------------------|--3-----------------|--3------------||
gönlüme sevda bulaşır...

E||-------------------------------||
B||-------------------------------||
G||*-----------------------------*||
D||*--2---0-5-0-5--x-5-5-x-5-5-0-*||
A||---2---0-5-0-5--x-5-5-x-5-5-0--||
E||---0---0-3-0-3--x-3-3-x-3-3-0--||

--------------------------||
--------------------------||
--------------------------||
--2---0-5-0-2-------------||
--2---0-5-0-2-------------||
--0---0-3-0-0-------------||

SÖZ KISMI:

     Am                   Am                   C                  
E||--------------------|--------------------|--------------------|
B||--------------------|--------------------|-----------0--------|
G||-----------5--------|-----------5--------|--------5-----5-----|
D||--------7-----7-----|--------7-----7-----|-----5-----------5--|
A||-----7-----------7--|-----7-----------7--|--3-----------------|
E||--5-----------------|--5-----------------|--------------------|
gece olup gün batınca, dilimde ismi dolaşır...

  C                    G                                   
--------------------|--------------------|---------------||
-----------0--------|--------------------|---------------||
--------5-----5-----|-----------4--------|---------------||
-----5-----------5--|--------5-----5-----|---------------||
--3-----------------|-----5-----------5--|---------------||
--------------------|--3-----------------|--3------------||
dilimde ismi dolaşır...

E||-------------------------------||----------------0-0-0-0-0-0-|
B||-------------------------------||----------------5-5-5-5-5-5-|
G||*-----------------------------*||----------------------------|
D||*--2---0-5-0-5--x-5-5-x-5-5-0-*||--2---0-5-0-2---------------|
A||---2---0-5-0-5--x-5-5-x-5-5-0--||--2---0-5-0-2---------------|
E||---0---0-3-0-3--x-3-3-x-3-3-0--||--0---0-3-0-0---------------|

                                2x                            
|-------------------------------||
|-------------------------------||
|*-----------------------------*||
|*--2---0-5-0-5--x-5-5-x-5-5-0-*||
|---2---0-5-0-5--x-5-5-x-5-5-0--||
|---0---0-3-0-3--x-3-3-x-3-3-0--||

                                2x
E||-----------------------------||
B||-----------------------------||
G||*---------------------------*||
D||*--2---0-5-0-5---6---7------*||
A||---2---0-5-0-5---6---7-------||
E||---0---0-3-0-3---4---5-------||

NAKARAT:

     Em                  G                   Am                
E||--7----------------|--3----------------|--0----------------|
B||--8----------------|--3----------------|--1----------------|
G||--9----------------|--4----------------|--2----------------|
D||--9----------------|--5----------------|--2----------------|
A||--7----------------|--5----------------|--0----------------|
E||--0----------------|--3----------------|-------------------|
aldanma o sonsuz aşkına...

  D                  
--5----------------||
--7----------------||
--7----------------||
--7----------------||
--5----------------||
-------------------||

     Em                  G                   Am                
E||--7----------------|--3----------------|--0----------------|
B||--8----------------|--3----------------|--1----------------|
G||--9----------------|--4----------------|--2----------------|
D||--9----------------|--5----------------|--2----------------|
A||--7----------------|--5----------------|--0----------------|
E||--0----------------|--3----------------|-------------------|
çarpınca dönersin şaşkına...

  D                     
--5-------------------||
--7-------------------||
--7------7---8---9----||
--7------7---8---9----||
--5------5---6---7----||
----------------------||

Gitar 1: (distortion)
                                2x                            
|-------------------------------||--------------------------||
|-------------------------------||--------------------------||
|*-----------------------------*||--------------------------||
|*--2---0-5-0-5--x-5-5-x-5-5-0-*||--2---0-5-0-2-------------||
|---2---0-5-0-5--x-5-5-x-5-5-0--||--2---0-5-0-2-------------||
|---0---0-3-0-3--x-3-3-x-3-3-0--||--0---0-3-0-0-------------||

Gitar 2: (overdrive)
                                  3x
E||-------------------------------||
B||----------8/10-8----10---------||
G||*---9---7--------------9---7--*||
D||*-----------------------------*||
A||-------------------------------||
E||-------------------------------||

LAST CHORUS:

Gitar 1: (electro clean)
                         3x                      3x
E||----------------------||----------------------||
B||----------------------||----------------------||
G||*--------------------*||*--------------------*||
D||*--------------------*||*--------------------*||
A||---7p-5h-7h-8p-7p-5---||---7p-5h-7h-8p-7p-5---||
E||---0--0--0--0--0--0---||---0--0--0--0--0--0---||

Gitar 2: (distortion-muted)

                       3x                    3x
E||--------------------||--------------------||
B||--------------------||--------------------||
G||*------------------*||*--0---0---0---0---*||
D||*------------------*||*--4---5---4---5---*||
A||---5---7---5---7----||--------------------||
E||--------------------||--------------------||

Gitar 1: (distortion)

      E5                             G5         A5             3x
E||-------------------------------|----------------------------||
B||-------------------------------|----------------------------||
G||*--9---9--9---9--9---9--9---9--|---------------------------*||
D||*--9---9--9---9--9---9--9---9--|--5----x-x-x-7----x-x-x----*||
A||---7---7--7---7--7---7--7---7--|--5----x-x-x-7----x-x-x-----||
E||-------------------------------|--3----x-x-x-5----x-x-x-----||

   D5        E5   D5        E5       D5       E5 D5       E5  2x
--------------------------------||----------------------------||
--------------------------------||----------------------------||
*--7---7--7--9----7---7--7--9--*||*--7--------9--7--------9--*||
*--7---7--7--9----7---7--7--9--*||*--7--------9--7--------9--*||
---5---5--5--7----5---5--5--7---||---5--------7--5--------7---||
--------------------------------||----------------------------||

  D5       E5   D5   E5     
--------------------------||
--------------------------||
--7--------9----7----9----||
--7--------9----7----9----||
--5--------7----5----7----||
--------------------------||

Gitar 2: (overdrive)
                                                                   3x
E||------------------------------------|----------------17---------||
B||---12-10-12-------------------------|------10-------------------||
G||*-----------9------9------12p11~----|--------------------------*||
D||*---------------12-----12-----------|--------------------------*||
A||------------------------------------|---------------------------||
E||------------------------------------|---------------------------||

                                                                2x
--------------------------------||------------------------------||
--------------------------------||------------------------------||
*--7---7--7--9----7---7--7--9--*||*--7----7----9--7----7----9--*||
*--x---x--x--x----x---x--x--x--*||*--x----x----x--x----x----x--*||
---5---5--5--7----5---5--5--7---||---5----5----7--5----5----7---||
--------------------------------||------------------------------||

------------------------------||
------------------------------||
--7----7----9----7--12--7--9--||
--x----x----x----x--x---x--x--||
--5----5----7----5--10--5--7--||
------------------------------||
comments
We did not receive enough feedback on this tab! Please rate:
1 2 3 4 5
I want to post or [tab]
guest
You may want to rate the tab now too:
select rating
Please do not post tabs as comments. Select "correction" instead!