Oops, an error
Loading. Please wait.

Kutless Tab

6,994 views 12 this week
6 commentsread comments
1 2 3 4 5
excellent!
x 9
add to favorites launch autoscroll
font size
0
reset
Autoscroll
+/-
esc
set tempo
stop
Contributor
WARNING: You are trying to view
                                    content from Ultimate-Guitar.com
                                    in an unauthorized application,
                                    which is prohibited.

                                    Please use an official Ultimate
                                    Guitar Tabs application for iPhone,
                                    iPad or Android to access legitimate
                                    chords, guitar, bass, and drum tabs
                                    from Ultimate-Guitar.com database.

                                    Type "ultimate guitar tabs" in Apple
                                    App Store's or Android Market's
                                    search to find the application.
Tabbed By: Max Andersen
E-mail: deckrider@hotmail.com 
Comments: Here's the entire album. It's taken me a while, but its finally finnished.
Any comments? Questions? Corrections? E-mail me!
Key: | / Slide up
     | \ Slide down 
     | h Hammer-on
     | p Pull off
     | ~ Vibrato
     | <>Harmonic
     | x Mute note
     | . Palm mute
Track List:
01. Your Touch
02. In Me
03. Run
04. Vow
05. Pride Away
06. Down
07. Again
08. Dry
09. Tonight
10. Saved
11. This Time
12. Grace and Love
-----------------------------------------------------------------------------
                            1. Your Touch
-----------------------------------------------------------------------------
Tunning: Drop-D 

riff 1 
e|--------------------------------------------------------------|
B|--------------------------------------------------------------|
G|------------------------------------12------------------10----|
D|-----5-8-5---------8-10-8--------12----12------------10----10-|
A|---5-------5-----8------------10-------------10----8----------|
D|-5-----------5-8-----------10-------------10-----8------------|

riff 2 
e|--------------------------------------------------|
B|--------------------------------------------------|
G|--------------------------------------------------|
D|-1-1/3-3-3/5-5--5-8-7--5\1-1-1/3-3-3/10-----------|
A|-1-1/3-3-3/5-5---------5\1-1-1/3-3-3/10---(etc.)--|
D|-1-1/3-3-3/5-5---------5\1-1-1/3-3-3/10-----------|

riff 3 
e|---------------------------------------------------|
B|---------------------------------------------------|
G|---------------------------------------------------|
D|-5-5-5-5-5-5-5/8-8-8-8-8-0-3-3-3-3-3-3-3-3p0-1-1-1-|
A|-5-5-5-5-5-5-5/8-8-8-8-8-0-3-3-3-3-3-3-3-3p0-1-1-1-|
D|-5-5-5-5-5-5-5/8-8-8-8-8-0-3-3-3-3-3-3-3-3p0-1-1-1-|
                                               . .

riff 4 
e|----------------------------------------------|
B|----------------------------------------------|
G|---------------------------12----------10-----|
D|-5-5-5----8-8-10-8--10-10-----12--8-8-----10--|
A|-5-5---5--8-8-------10-10---------8-8---------|
D|-5-5------8-8-------10-10---------8-8---------|
                                       

riff 5 
e|--------------------------|
B|--------------------------|
G|--------------------------|
D|-5--8--3--5-----5---8--3--|
A|-5--8--3----5---5---8--3--|
D|-5--8--3--------5---8--3--|

riff 6 part 1
e|--------------------------------------------------|
B|--------------------------------------------------|
G|--------------------------------------------------|
D|----0-0---0-3-----0-0-5-3----0-0---0-3----0---5-7-|
A|--------3------------------------3----------------|
D|-0-------------0-----------0------------0---------|

part 2
e|-----------|
B|-----------|
G|-----------|
D|-----------|
A|-3---------|
D|---5-3-5-0-|

riff 7 
e|----------------------------------|
B|----------------------------------|
G|----------------------------------|
D|---------0-0-0-0-0-0-0-----0-0-0--| 
A|-3-------0-0-0-0-0-0-0-----0-0-0--|
D|---5-3-5-0-0-0-0-0-0-0-000-0-0-0--|
             . . . . . . ... . . .

riff 8 
e|--------------------------|
B|--------------------------|
G|--------------------------|
D|---------0----0----0----0-|
A|-3-------0----0----0----0-|
D|---5-3-5-0----0----0----0-|

riff 9 
e|-----------------|
B|-----------------|
G|-----------------|
D|-0-0-3/5-0-0-5\3-| 
A|-0-0-3/5-0-0-5\3-|
D|-0-0-3/5-0-0-5\3-|


riff 10
e|---|
B|---|
G|---|
D|-5-|
A|-5-|
D|-5-|

Thats all!!
=============================================================================
-----------------------------------------------------------------------------
                             2. In Me 
-----------------------------------------------------------------------------
Tunning: Drop-D

riff 1 
e|-----------------|
B|-4h5-4h5-4h5-4h5-|
G|-----------------| 
D|-----------------|
A|-----------------|
D|-----------------|

riff 2 
e|---|------------------------|
B|---|------------------<7>---|
G|---|---------<7>------------|
D|-3-|-3-5-3-3-----3-3--------| 
A|-3-|-3-5-3-3-----3-3--------|
D|-3-|-3-5-3-3-----3-3--------|

 
riff 3 part 1
e|---------------------------|
B|---------------------------|
G|---------------------------| 
D|-3-5-5-5--1-1-1-1--3-3-3-3-|
A|-3-5-5-5--1-1-1-1--3-3-3-3-|
D|-3-5-5-5--1-1-1-1--3-3-3-3-|
   . . . .  . . . .  . . . . 

part 2
e|---------------------------|
B|---------------------------|
G|----------3-3-3-3--1-1-1-1-|
D|----------x-x-x-x--x-x-x-x-|
A|----------1-1-1-1--0-0-0-0-|
D|---------------------------|

riff 4 part 1
e|----------------------------------------------------|
B|----------------------------------------------------|
G|----------------------------------------------------|
D|-5----------5------1--3----5----------5------1--3---|
A|-5----------5------1--3----5----------5------1--3---|
D|-5----------5------1--3----5----------5------1--3---|

riff 4 part 2
e|----------------------------------------------------|
B|----------------------------------------------------|
G|-7/8\7/8\7--7/8\7--3--5-2--7/8\7/8\7--7/8\7--3--5-2-|
D|-x/x\x/x\x--x/x\x--x--x-x--x/x\x/x\x--x/x\x--x--x-x-|
A|-5/6\5/6\5--5/6\5--1--3-0--5/6\5/6\5--5/6\5--1--3-0-|
D|----------------------------------------------------|

riff 5 part 1
e|-------------------------------------------------------|
B|-------------------------------------------------------|
G|-------------------------------------------------------|
D|-5-5-5-5-5/8-8-8-8-8-3-3-3-3-3-3-----3-----3----3----3-|
A|-5-5-5-5-5/8-8-8-8-8-3-3-3-3-3-3-----3-----3----3----3-|
D|-5-5-5-5-5/8-8-8-8-8-3-3-3-3-3-3-----3-----3----3----3-|

part 2
e|-------------------------|
B|-------------------------|
G|-10-10-10\8-8-8-8\7-7-7--|
D|-x--x--x-\x-x-x-x\x-x-x--|
A|-8--8--8-\6-6-6-6\5-5-5--|
D|-------------------------|
 

Riff 6 part 1
e|------------------------------------------------------------|
B|------------------------------------------------------------|
G|------------------------------------------------------------|
D|-5-5-5-5---8-8-8-8--3-3-3-3----3-----3-------3------3-------|
A|-5-5-5-5---8-8-8-8--3-3-3-3----3-----3-------3------3-------|
D|-5-5-5-5---8-8-8-8--3-3-3-3----3-----3-------3------3-------|

part 2
e|------------------------------------------------------------|
B|------------------------------------------------------------|
G|-7-7-7-7---3-3-3-3---5-5-5-5---10-10-10\8-8-8-8\7-7-7-------|
D|-x-x-x-x---x-x-x-x---x-x-x-x---x--x--x-\x-x-x-x\x-x-x-------|
A|-5-5-5-5---1-1-1-1---3-3-3-3---8--8--8-\6-6-6-6\5-5-5-------|
D|------------------------------------------------------------|


Riff 7  
e|----------------------------------|
B|----------------------------------|
G|----------------------------------|
D|-5-5-5-5-5/8-8-8-8-8-3--3x-5--5-3-|
A|-5-5-5-5-5/8-8-8-8-8-3--3x-3--3-3-|
D|-5-5-5-5-5/8-8-8-8-8-3--3x-3--3-3-|

Riff 8
e|--------------|
B|--------------|
G|--------------|
D|-5-5-5--5-5-5-|
A|-5-5-5--5-5-5-|
D|-5-5-5--5-5-5-|

riff 9 part 1
e|--------------------------|
B|--------------------------|
G|----------------5---------|
D|-----7-------------5------| 
A|---5----5-----3-----------|
D|-5--------5-3--------3----|

part 2
e|-------------------------------|
B|-------------------------------|
G|------------5-------------5-5--|
D|-----7-------------7-----------|
A|---5------3------5------3------|
D|-5------3------5------3--------|

Riff 10
e|------------|
B|------------|
G|------------|
D|-3-5-3-3----| 
A|-3-5-3-3----|
D|-3-5-3-3----|

Thats all!!
=============================================================================
-----------------------------------------------------------------------------
                             3. Run
-----------------------------------------------------------------------------
Tunning: drop-D and regular E (there are 2 guitars)

riff 1 
e|-0--2--0-----------------0--2--2--|
B|-1--2--3---------3-------1--2--3--|
G|-0--0--0-----0-----0-----0--0--2--|
D|-2--0--4---4---4-----4---2--0--0--|
A|-3--2--5-----------------3--2--0--|
E|----------------------------------|

riff 2 
e|-------------------------------|
B|-------------------------------|
G|-----0---0-------0---0-------0-|
D|---2---2-------2---2-------4---|
A|-----------0h3---------3/5-----|
E|-0-----------------------------|

ending 1
e|---------------|
B|--------3------|
G|----------0----|
D|--4---4-----4--|
A|5---5----------|
E|---------------|

ending 2 
e|-----|
B|---3-|
G|-----|
D|-4---|
A|-----|
E|-----|

ending 3
e|----------------|
B|----------------|
G|---------0------|
D|---4---4---4----|
A|-5---5-------5--|
E|----------------|

ending 4
e|-----------------|
B|-----------3-----|
G|-----0-------0---|
D|-4-----4-------4-|
A|---5-----5-------|
E|-----------------|

ending 5
e|-----------------|
B|-----3-----------|
G|-------0---0-----|
D|-4-------4---4---|
A|---5-----------5-|
E|-----------------|

riff 3                 first ending
e|---------------------|-----------|
B|---------------------|-----------|
G|---------------------|-----------|
D|-10-10-10-10-5-5-5-5-|-0-0-0-0-0-|
A|-10-10-10-10-5-5-5-5-|-0-0-0-0-0-|
D|-10-10-10-10-5-5-5-5-|-0-0-0-0-0-|

second ending
e|-----------------|
B|-----------------|
G|-----------------|
D|-0-0-0-0-0-0-0-0-|
A|-0-0-0-0-0-0-0-0-|
D|-0-0-0-0-0-0-0-0-|
     . .   . .

third ending
e|---|
B|---|
G|---|
D|-0-|
A|-0-|
D|-0-|
      
riff 4                                              
e|-0---0--0---2---0---0---0-----------------|
B|-1---0--1---2---1---0---3---------3-------|
G|-2---0--0---0---2---0---0-----0-----0-----|
D|-2---2--2---0---2---2---4---4---4-----4---|
A|-0---2--3---2---0---2---5-----------------|
D|------------------------------------------|


riff 5
e|--------------------------------------|
B|------1-------0-----------------------|
G|o-------2-------0-----0---------0-----|
D|o---2-------2-------2---2---------0---|
A|--0---------------3-------3---2-----2-|
D|----------0-----------------3---------|


e|-----------------------------------------|
B|------1---------------------------3------|
G|--------2-----0---0-----0-----------0---o|
D|----2-------2---2-----4-----4---4-----4-o|
A|--0-----------------5-----5---5----------|
D|----------0------------------------------|


Thats all!!
=============================================================================
-----------------------------------------------------------------------------
                             4. Vow
-----------------------------------------------------------------------------
Tunning: Drop-D


Riff 1 
e|-------------------------------------------------------|
B|-------------------------------------------------------|
G|-------------------------------------------------------|
D|----------10----------------6-------------5--------8---|
A|----10-------10----10-----6---6---6---5-----5---5--8---|
D|-10----10-------10----6-6-------6---5---5-----5----8---|

Riff 2 
e|------------------------------------------------------------------|
B|------------------------------------------------------------------|
G|------------------------------------------------------------------|
D|----------10----------------6-------------5--------------8--------|
A|----10-------10----10-----6---6---6---5-----5---5----8-----8---8--|
D|-10----10-------10----6-6-------6---5---5-----5----8---8-----8----|

riff 3
e|--------|
B|--------|
G|--------|
D|-8-8-8--|
A|-8-8-8--|
D|-8-8-8--|
   . . .

Riff 4        
e|-----------------|
B|-----------------|
G|-----------------|
D|-8-5-5-8-5-5-8-5-| 
A|-8-5-5-8-5-5-8-5-|
D|-8-5-5-8-5-5-8-5-|
     . .   . .   .               

riff 5
e|------------------------------------------------------|
B|------------------------------------------------------|
G|------------------------------------------------------|
D|-10-10-10-10-10-10--6-6-6--6-0-1-1-1-1-1-1/8-8-8-8-8--|
A|-10-10-10-10-10-10--6-6-6--6-0-1-1-1-1-1-1/8-8-8-8-8--|
D|-10-10-10-10-10-10--6-6-6--6-0-1-1-1-1-1-1/8-8-8-8-8--|
      .  .                         . .                 

riff 6
e|-----|
B|-----|
G|-----|  end on this chord and let ring
D|-10--|
A|-10--|
D|-10--|

riff 7
e|------------|
B|------------|
G|------------|
D|-8-8-8-8-10-|
A|-8-8-8-8-10-|
D|-8-8-8-8-10-|
   . . . .

Riff 8
e|--------------------------|
B|--------------------------|
G|----------------10-10-----|
D|-10--13--8------------8---|
A|-10--13--8--8-8---------8-|
D|-10--13--8--8-8-----------|                                     
            . .

Riff 9
e|------------------------------------------------|
B|------------------------------------------------|
G|------------------------------------------------|
D|-10-10-10-10-10--6-6-6--0-0-1-1-1-1-1-1/8-8-8-8-|
A|-10-10-10-10-10--6-6-6--0-0-1-1-1-1-1-1/8-8-8-8-|
D|-10-10-10-10-10--6-6-6--0-0-1-1-1-1-1-1/8-8-8-8-|
                          . .   . .


End on
e|-------|
B|-------|
G|-------|
D|--10---|
A|--10---|
D|--10---|

Thats all!!
============================================================================
----------------------------------------------------------------------------
			    5. Pride away
----------------------------------------------------------------------------
Tuning: drop-D

riff 1 
e|-----------------------------|
B|-----------------------------|
G|-----------------------------|
D|-7---5--5---3-0-0-3-0-0-3-0--|
A|-5---3--5---3-0-0-3-0-0-3-0--|
D|-0------5---3-0-0-3-0-0-3-0--|
                . .   . .   .

riff 2 part 1
e|-----------------------------------------------------------------|
B|-----------------------------------------------------------------|
G|-----------------------------------------------------------------|
D|-7-7-7-7-7-7-7-7-3-3-3-3-3-3-3-3-5-5-5-5-5-5-5-5-5-5-5-5-5-5-5-5-|
A|-7-7-7-7-7-7-7-7-3-3-3-3-3-3-3-3-5-5-5-5-5-5-5-5-5-5-5-5-5-5-5-5-|
D|-7-7-7-7-7-7-7-7-3-3-3-3-3-3-3-3-5-5-5-5-5-5-5-5-5-5-5-5-5-5-5-5-|

part 2
e|-----------------------------------------------------------------|
B|-----------------------------------------------------------------|
G|---------7/9-9-9---------7/9-9-9---------7/9-9-9-----------------|
D|---------x/x-x-x---------x/x-x-x---------x/x-x-x-----------------|
A|---------5/7-7-7---------5/7-7-7---------5/7-7-7-----------------|
D|-----------------------------------------------------------------|

cont. part 1
e|-------------------------------------------------|
B|-------------------------------------------------|
G|-------------------------------------------------|
D|-7-7-7-7-7-7-7-7-3-3-3-3-3-3-3-3-5-5-5-5-5-5-5-5-|
A|-7-7-7-7-7-7-7-7-3-3-3-3-3-3-3-3-5-5-5-5-5-5-5-5-|
D|-7-7-7-7-7-7-7-7-3-3-3-3-3-3-3-3-5-5-5-5-5-5-5-5-|

part 2
e|-------------------------------------------------|
B|-------------------------------------------------|
G|---------7/9-9-9---------7/9-9-9-----------------|
D|---------x/x-x-x---------x/x-x-x-----------------|
A|---------5/7-7-7---------5/7-7-7-----------------|
D|-------------------------------------------------|

riff 3 part 1
e|--------------------------------------------|
B|--------------------------------------------|
G|--------------------------------------------|
D|------10-9--5-------------10-9--14-12--10-9-|
A|---0-----------7-8-7---0--------------------|
D|-7-------------------7----------------------|

part 2
e|--------------------------------------------|
B|--------------------------------------------|
G|--------------------------------------------|
D|-7----5-----3--5-----7----5-----3------5----|
A|-7----5-----3--5-----7----5-----3------5----|
D|-7----5-----3--5-----7----5-----3------5----|

riff 4 part 1
e|-----------------------------------|
B|-----------------------------------|
G|-----------------------------------|
D|-14-12-----------------------------|
A|--------7-8-7-5--------------------|
D|-----------------------------------|

part 2
e|-----------------------------------|
B|-----------------------------------|
G|-----------------------------------|
D|-7------5-----5---3-0-0-3-0-0-3-0--|
A|-5------3-----5---3-0-0-3-0-0-3-0--|
D|-0------------5---3-0-0-3-0-0-3-0--|
                      . .   . .   .
riff 5 part 1
e|---------------------------------------------|
B|---------------------------------------------|
G|---------------------------------------------|
D|------10-9--5--------------10-9--14-12--10-9-|
A|---0------------7-8-7---0--------------------|
D|-7--------------------7----------------------|

part 2
e|----------------------------------------------|
B|----------------------------------------------|
G|----------------------------------------------|
D|---7------5---3-----5---7------5---3--------5-|
A|--7-----5----3----5----7-----5----3-------5---|
D|-7----5-----3---5-----7----5-----3------5-----|

riff 6 part 1                                        ending 1
e|-------------------------------------------------|-----------------|
B|-------------------------------------------------|-----------------|
G|-------------------------------------------------|-----------------|
D|---7-----------------5-------------3-------------|-----5-----------|
A|--7----------------5--------------3--------------|---5-------------|
D|-7---------------5---------------3---------------|-5---------------|

part 2                                                
e|-------------------------------------------------|-----------------|
B|-------------------------------------------------|-----------------|
G|-------------------------------------------------|-----------------|
D|-7-7-7-7-7-7-7-7-5-5-5-5-5-5-5-5-3-3-3-3-3-3-3-3-|-5-5-5-5-5-5-5-5-|
A|-7-7-7-7-7-7-7-7-5-5-5-5-5-5-5-5-3-3-3-3-3-3-3-3-|-5-5-5-5-5-5-5-5-|
D|-7-7-7-7-7-7-7-7-5-5-5-5-5-5-5-5-3-3-3-3-3-3-3-3-|-5-5-5-5-5-5-5-5-|
   . . . . . . . . . . . . . . . . . . . . . . . .   . . . . . . . .

ending 2
e|-----------------|
B|-----------------|
G|-----------------|
D|-7-7-5-5-3-3-5-5-|
A|-7-7-5-5-3-3-5-5-|
D|-7-7-5-5-3-3-5-5-|

riff 7 part 1
e|-------------------------------------------------------|
B|-10-10--11-11--10-10--9--9---10-10--11-11--10-10-4-4-4-|
G|-------------------------------------------------------|
D|-------------------------------------------------------|
A|-------------------------------------------------------|
D|-------------------------------------------------------|

part 2
e|-------------------------------------------------------|
B|-------------------------------------------------------|
G|-------------------------------------------------------|
D|-7--7---8--8---7--7---5--5---7--7---8--8---7--7--1-1-1-|
A|-7--7---8--8---7--7---5--5---7--7---8--8---7--7--1-1-1-|
D|-7--7---8--8---7--7---5--5---7--7---8--8---7--7--1-1-1-|
   .  .   .  .   .  .   .  .   .  .   .  .   .  .  

 riff 8
e|-------|
B|-------|
G|-------|
D|-1-1-1-|
A|-1-1-1-|
D|-1-1-1-|

Thats all!!
=============================================================================
-----------------------------------------------------------------------------
                              6. Down
-----------------------------------------------------------------------------
Tuning: Drop-D

Riff 1 
e|----------------------------------------------|
B|----------------------------------------------|
G|----------------------------------------------|
D|-----9--------7----------9-10-9-------7-------|
A|---7---7----5----------7--------7---5----3-2--|
d|-7--------5------\0--7------------5------0-0--|


Riff 2 
e|---------------------------|
B|---------------------------|
G|---------------------------|
D|-7-7-7-7-7---5-5-5-5-5--0--|
A|-7-7-7-7-7---5-5-5-5-5--0--|
d|-7-7-7-7-7---5-5-5-5-5--0--|

Riff 3 
e|------------------------------------|
B|------------------------------------|
G|-(Slowly fade out mute)-------------|
D|-8-8-8-8-8-8-8-8--5-5-5-5-5-5-5-5---|
A|-8-8-8-8-8-8-8-8--5-5-5-5-5-5-5-5---|
d|-8-8-8-8-8-8-8-8--5-5-5-5-5-5-5-5---|
     . . . .             

Riff 4 
e|---------------------------------|
B|---------------------------------|
G|o--------------------------------|
D|o-7-7-7-7-3-3-3-3--5-5-5-7--5-5--|
A|--7-7-7-7-3-3-3-3--5-5-5-5--5-5--|
d|--7-7-7-7-3-3-3-3--5-5-5-5--5-5--|
           .            .            

e|-----------------------------------|
B|-----------------------------------|
G|----------------------------------o|
D|-7-7-7-7-3-3-3-3--5-5-7-5-5-9-9-9-o|
A|-7-7-7-7-3-3-3-3--5-5-5-5-5-9-9-9--|
D|-7-7-7-7-3-3-3-3--5-5-5-5-5-9-9-9--|
           .

Riff 5 
e|----------------------|
B|----------------------|
G|----------------------|
D|-3-3-3-3-3-3-3-3x--0--|
A|-3-3-3-3-3-3-3-3x--0--|
d|-3-3-3-3-3-3-3-3x--0--|
     . . .   . .


Riff 6 
e|-------------------------------------------------------------|
B|-------------------------------------------------------------|
G|----------12---------------------10----------------5---------|
D|-------12----12---------------10----10-----------5---5-------|
A|----10----------10----10----8----------8---8---3-------3---3-|
d|-10----------------10-----8--------------8---3-----------3---|

first ending
e|---------------------------------|
B|---------------------------------|
G|-------5---------------5---------|
D|-----5---5-----------5---5-------|
A|---3-------3---3---3-------3---3-|
D|-3-----------3---3--10-------3---|

second ending
e|---------------------------|
B|---------------------------|
G|-------5---------------7---|
D|-----5---5-----------7---7-|
A|---3-------3---3---5-------|
D|-3-----------3---5---------|


riff 6
e|-------------------------------|
B|-------------------------------|
G|-----------------------7-------|
D|-----9-------5-------7---7-----|
A|---7---7---3---3---5-------5---|
d|-7-------3-------5-----------5-|


Thats all!!
============================================================================
----------------------------------------------------------------------------
			     7. Again 
----------------------------------------------------------------------------
Tuning: drop-D

riff 1 
e|------------------------------------------------|
B|------------------------------------------------|
G|------------------------------------------------|
D|-----2---2---2-----2---2-----2-----2-----0---0--|
A|---0---0-------3---------1-----1-----1----------|
D|-0---------0-----0---0-----0-----0-----0---0----|

gtr. 2 (play with delay, listen for timing) 
e|------------|
B|------------|
G|------------|
D|--8--8h9-7--|
A|------------|
E|------------|

riff 2
e|-------------------------------------------------------------------|
B|-------------------------------------------------------------------|
G|o------------------------------------------------------------------|
D|o-7--7-7-9-9-9--7-7-7-7-2--2-2-4-4-4-2-2-2-2-5--5-5-7-7-7-5-5-5-5--|
A|--7--7-7-7-7-7--7-7-7-7-2--2-2-2-2-2-2-2-2-2-5--5-5-5-5-5-5-5-5-5--|
E|--7--7-7-7-7-7--7-7-7-7-2--2-2-2-2-2-2-2-2-2-5--5-5-5-5-5-5-5-5-5--|
       . .   .               . .   .              . .   .

e|----------------------------|
B|----------------------------|
G|---------------------------o|
D|-0-0-3-3--0-0-3-3-3/5-5/7--o|
A|-0-0-3-3--0-0-3-3-3/5-5/7---|
E|-0-0-3-3--0-0-3-3-3/5-5/7---|
    . .       . .   

riff 3 part 1
e|--------------------------------------------------------------------|
B|--------------------------------------------------------------------|
G|--------------------------------------------------------------------|
D|-0-------------------------------0-0--------------------------------|
A|-0-------------------------------0-0--------------------------------|
E|-0-------------------------------0-0--------------------------------|

part 2
e|--------------------------------------------------------------------|
B|--------------------------------------------------------------------|
G|--------------------------------------------------------------------|
D|-7-5-7-5-7-8-7-5-7-5-7-5-7-8-7-5-7-5-7-5-7-8-7-5-3-3-3-3-3/5-5-5-5--|
A|-7-5-7-5-7-8-7-5-7-5-7-5-7-8-7-5-7-5-7-5-7-8-7-5-3-3-3-3-3/5-5-5-5--|
E|-7-5-7-5-7-8-7-5-7-5-7-5-7-8-7-5-7-5-7-5-7-8-7-5-3-3-3-3-3/5-5-5-5--|
   . . . . . . . . . . . . . . . . . . . . . . . . . . . . . . . . . 

riff 4 part 1
e|--------------------------------------------------------------------|
B|--------------------------------------------------------------------|
G|--------------------------------------------------------------------|
D|-7-8-7-5-7-5-7-0-7-8-7-5-7-5-7-0-7-8-7-5-7-5-7-0-3-3-3-3-3/5-5-5-5--|
A|-7-8-7-5-7-5-7-0-7-8-7-5-7-5-7-0-7-8-7-5-7-5-7-0-3-3-3-3-3/5-5-5-5--|
E|-7-8-7-5-7-5-7-0-7-8-7-5-7-5-7-0-7-8-7-5-7-5-7-0-3-3-3-3-3/5-5-5-5--|
   . . . . . . . . . . . . . . . . . . . . . . . . . . . . . . . . .

part 2
e|--------------------------------------------------------------------|
B|--------------------------------------------------------------------|
G|--------------------------------------------------------------------|
D|-7-5-7-5-7-8-7-5-7-5-7-5-7-8-7-5-7-5-7-5-7-8-7-5-3-3-3-3-3/5-5-5-5--|
A|-7-5-7-5-7-8-7-5-7-5-7-5-7-8-7-5-7-5-7-5-7-8-7-5-3-3-3-3-3/5-5-5-5--|
E|-7-5-7-5-7-8-7-5-7-5-7-5-7-8-7-5-7-5-7-5-7-8-7-5-3-3-3-3-3/5-5-5-5--|
   . . . . . . . . . . . . . . . . . . . . . . . . . . . . . . . . . 


riff 5 
e|--------------------------------------------------------------------|
B|--------------------------------------------------------------------|
G|--------------------------------------------------------------------|
D|-7-8-7-5-7-5-7-0-7-8-7-5-7-5-7-0-7-8-7-5-7-5-7-0-3-3-3-3-3/5-5-5-5--|
A|-7-8-7-5-7-5-7-0-7-8-7-5-7-5-7-0-7-8-7-5-7-5-7-0-3-3-3-3-3/5-5-5-5--|
E|-7-8-7-5-7-5-7-0-7-8-7-5-7-5-7-0-7-8-7-5-7-5-7-0-3-3-3-3-3/5-5-5-5--|

Thats' all
============================================================================
----------------------------------------------------------------------------
			     8. Dry 
----------------------------------------------------------------------------
Tuning: Drop-D

riff 1 
e|---------------------------------------------------------|
B|----------------------------------------3-----0----------|
G|-------0---0----------0---0-------0----------------------|
D|---4---------0----4-----------4-------4-----4-----4/5\4--|
A|----------------5---5---5---2---2---2-----2-----2--------|
D|-0---0---0-----------------------------------------------|

riff 2 
e|---------------------------------------|
B|---------------------------------------|
G|o----------12-----------------12-------|
D|o-------12----12-----------12----12----|
A|-----10----------10-----10----------12-|
D|--10-----------------10----------------|


e|-----------------------------------|
B|-----------------------------------|
G|--------11--------------11--------o|
D|-----11----11--------11----11-----o|
A|---9----------9----9----------9----|
D|-9---------------9--------------9--|

Riff 3
e|--------|
B|--------|
G|--------|
D|-9-9--5-|
A|-9-9--5-|
D|-9-9--5-|
                     
riff 4
e|-----------------------------------------------------------|
B|-----------------------------------------------------------|
G|o----------------------------------------------------------|
D|o-12\7-10-10-10-12-12-12-10-10-10-10-9-9-9-9-10-10-9-9-9-9-|
A|--12\7-10-10-10-10-10-10-10-10-10-10-9-9-9-9-9--9--9-9-9-9-|
D|--12\7-10-10-10-10-10-10-10-10-10-10-9-9-9-9-9--9--9-9-9-9-|
            .  .     .                   . .   .                 

e|---------------------------------------------|
B|---------------------------------------------|
G|--------------------------------------------o|
D|-10-10-10-12-12-12-10-10-10-10-9-9-9-10-9-5-o|
A|-10-10-10-10-10-10-10-10-10-10-9-9-9-9--9-5--|
D|-10-10-10-10-10-10-10-10-10-10-9-9-9-9--9-5--|
      .  .     .                   . .    .                 

Riff 5
e|----------------------------------------------|
B|----------------------------------------------|
G|o-------7------------------------7------------|
D|o-0---7----0---7-5-4p0---------7----0-7-5-4-0-|
A|------------------------5/7\5-----------------|
D|----------------------------------------------|

e|------------------------------------------------|
B|------------------------------------------------|
G|------------------------------------7----------o|
D|--------4/5\4--------7-5-4p0--0---7---0--7-5-4-o|
A|-5/7\5--------5/7\5-----------------------------|
D|------------------------------------------------|


============================================================================
----------------------------------------------------------------------------
             	           9. Tonight
----------------------------------------------------------------------------
Tuning: Drop-D 

riff 1 
e|-----------------------|
B|-----------------------|
G|-----------------------|
D|-----------------------|
A|---5---5/6---5\4---4/5-|
D|-0---0-----0-----0-----|

riff 2
e|---------------------|
B|---------------------|
G|---------------------|
D|---------------------|
A|---5---5/6---6/8---8-|
D|-0---0-----0-----0---|

riff 3
e|-----|
B|-----|
G|-----|
D|-----|
A|---5-|
D|-0---|

riff 4 
e|---------------------------------------------------|
B|---------------------------------------------------|
G|o--------------------------------------------------|
D|o-0-0-0-3-3-3-3/8-8-8-8--0-0-0-3-3-3-3/10-10-10-10-|
A|--0-0-0-3-3-3-3/8-8-8-8--0-0-0-3-3-3-3/10-10-10-10-|
D|--0-0-0-3-3-3-3/8-8-8-8--0-0-0-3-3-3-3/10-10-10-10-|


e|-------------------------------------|
B|-------------------------------------|
G|------------------------------------o|
D|-0-0-0-3-3-3-3/8-8-8-8-0--3-2-0-2-0-o|
A|-0-0-0-3-3-3-3/8-8-8-8-0--3-2-0-2-0--|
D|-0-0-0-3-3-3-3/8-8-8-8-0--3-2-0-2-0--|
                            . . . . 

riff 5
e|------|
B|------|
G|------|
D|-3x-3-|
A|-3x-3-|
D|-3x-3-|

riff 6
e|-----|
B|-----|
G|-----|
D|-0-0-|
A|-0-0-|
D|-0-0-|
   . .

riff 7
e|-----------|
B|-----------|
G|-----------|
D|-3-3-2-3-0-|
A|-3-3-2-3-0-|
D|-3-3-2-3-0-|

riff 8
e|-------|-------------------------------|
B|-------|-------------------------------|
G|-------|-------------------------------|
D|-3-2-3-|-0-0-0-0-0-0-0-0-0-0-0-0-0-0-0-|x4 
A|-3-2-3-|-0-0-0-0-0-0-0-0-0-0-0-0-0-0-0-|
D|-3-2-3-|-0-0-0-0-0-0-0-0-0-0-0-0-0-0-0-|
           . . . . . . . . . . . . . .

riff 9
e|-----------------------------------------------------------------|
B|-----------------------------------------------------------------|
G|o----------------------------------------------------------------|
D|o----------------------------------------------------------------|
A|----9---9---9---9/10---10---10---10---10h12---12---13\12---12p10-|
D|--0---0---0---0------0----0----0----0-------0----0-------0-------|


e|----------------------------------------|
B|----------------------------------------|
G|---------------------------------------o|
D|---------------------------------------o|
A|---10h12---12---13\12---12p10---10h12---|
D|-0-------0----0-------0-------0---------|

riff 10 part 1
e|----------------------------------------------------------------------|
B|----------------------------------------------------------------------|
G|o-11-11-11-11-11-11-11-11-11-11/12-12-12-12-12-12-12-12-12-12-12/14---|
D|o-x--x--x--x--x--x--x--x--x--x-/x--x--x--x--x--x--x--x--x--x--x-/x----|
A|--9--9--9--9--9--9--9--9--9--9-/10-10-10-10-10-10-10-10-10-10-10/12---|
D|----------------------------------------------------------------------|
    .  .     .  .     .     .        .  .     .  .     .     .  

part 2
e|---------------------------------------------------------------------|
B|---------------------------------------------------------------------|
G|---------------------------------------------------------------------|
D|-0--0--0--0--0--0--0--0--0--0h3---3--3--3--3--3--3--3--3--3--3/7-----|
A|-0--0--0--0--0--0--0--0--0--0h3---3--3--3--3--3--3--3--3--3--3/7-----|
D|-0--0--0--0--0--0--0--0--0--0h3---3--3--3--3--3--3--3--3--3--3/7-----|
   .  .     .  .     .     .        .  .     .  .     .     .     

part 1 
e|----------------------------------------|
B|----------------------------------------|
G|-14-14-14-14-14-15\14-14-14\12-12-12/14-|
D|-x--x--x--x--x--x-\x--x--x-\x--x--x-/x--|
A|-12-12-12-12-12-13\12-12-12\10-10-10/12-|
D|----------------------------------------|
   .  .     .  .        .         .       

part 2
e|----------------------------------------|
B|----------------------------------------|
G|----------------------------------------|
D|-7--7--7--7--7--7-----7--7-----7--7-----|
A|-7--7--7--7--7--7-----7--7-----7--7-----|
D|-7--7--7--7--7--7-----7--7-----7--7-----|
   .  .     .  .        .        .          

part 1
e|-----------------------------------------|
B|-----------------------------------------|
G|-14-14-14-14-14-15\14-14-14\12-12-12/14-o|
D|-x--x--x--x--x--x-\x--x--x-\x--x--x-/x--o|
A|-12-12-12-12-12-13\12-12-12\10-10-10/12--|
D|-----------------------------------------|
    .   .    .  .        .        .     

part 2
e|---------------------------------------|
B|---------------------------------------|
G|---------------------------------------|
D|0--0--0--0--0--0-----0--0-----0--0-----|
A|0--0--0--0--0--0-----0--0-----0--0-----|
D|0--0--0--0--0--0-----0--0-----0--0-----|
  .  .     .  .        .        . 

riff 11
e|----------------------|
b|----------------------|
G|----------------------|
D|-0--3-2-0-2-0---3x-3--|
A|-0--3-2-0-2-0---3x-3--|
D|-0--3-2-0-2-0---3x-3--|

riff 12
e|---------|
B|---------|
G|---------|
D|-3x-2x-3-|
A|-3x-2x-3-|
D|-3x-2x-3-|

Thats all!!
=============================================================================
-----------------------------------------------------------------------------
                               10. This Time
-----------------------------------------------------------------------------
Tunning: Drop-D

riff 1
e|---------------------------------------------------------------|
B|---------------------------------------------------------------|
G|--------10----------------10------------------10--------10-----|
D|-----10----10---10-----10----10---10-------10--------10--------|
A|-0-8----------8----0-8----------8----0---8---------8---------8-|
D|---------------------------------------8---------8---------8---|

riff 2
e|--------------------------------------------------------------------|
B|--------------------------------------------------------------------|
G|--------10----------------10----------------10----------------------|
D|---10------10---10---10------10---10-----10----10---8---8---8/10-10-|
A|-8----8-------8----0----0-------0------8----------8---8---8-8/10-10-|
D|-------------------------------------8------------------------------|

riff 3
e|--------------------------------------------------------------|
B|--------------------------------------------------------------|
G|--------10--------------10---------------10-------------------|
D|---10------10---10---10---10---10-----10----10---8---8---8/10-|
A|-0----0-------0----0---------0------8----------8---8---8-8/10-|
D|----------------------------------8---------------------------|

riff 4
e|--------------------------------|
B|--------------------------------|
G|------------5-------------------|
D|-0---8---3--5--1-1-1--0---8---3-|
A|-0---8---3--3--1-1-1--0---8---3-|
D|-0---8---3-----1-1-1--0---8---3-|

riff 5
e|-------------------------------------------------|
B|-------------------------------------------------|
G|-------------------------------------------------|
D|-3-0-1-1-0-0-0-0-0-0-8-8-8-8-10-10-0-3-3-3-5-3-5-|
A|-3-0-1-1-0-0-0-0-0-0-8-8-8-8-8--8--0-3-3-3-3-3-3-|
D|-3-0-1-1-0-0-0-0-0-0-8-8-8-8-8--8--0-3-3-3-3-3-3-|
   . .       . .     

riff 6
e|-------------------------------------------------|
B|-------------------------------------------------|
G|-------------------------------------------------|
D|-5/7-7-7-0-0-0-0-0-0-8-8-8-8-10-10-0-3-3-3-5-3-5-|
A|-x/x-x-x-0-0-0-0-0-0-8-8-8-8-8--8--0-3-3-3-3-3-3-|
D|-3/5-5-5-0-0-0-0-0-0-8-8-8-8-8--8--0-3-3-3-3-3-3-|
             . .                         . .   .

riff 7
e|---------------------------------------------------|
B|---------------------------------------------------|
G|-------7-----7---------------10--------------------|
D|---7-----7-----7-----12-10------10---10------------|
A|-5-5-5-----5-----5/8-8--8--8-------8----------12---|
D|-0--------------------------------------10h12----0-|

Thats all!!
============================================================================
----------------------------------------------------------------------------
			     11. Saved 
----------------------------------------------------------------------------
Tuning: Drop-D

riff 1        first ending
e|--------10-|---------12-12---------|
B|------0----|------10-------10------|
G|---11------|---11-------------11---|
D|-9---------|-9---------------------|
A|-----------|-----------------------|
D|-----------|-----------------------|

second ending
e|--------10--|
B|------0-----|
G|---11-------|
D|-9----------|
A|------------|
D|------------|

riff 2
e|------------------------------------|
B|------------------------------------|
G|------------------------------------|
D|-----4--------5----------9----------|
A|---2---2----5------9---9---9---9----|
D|-2--------5-----5----9-------9---9--|

riff 3
e|--------------------------------|
B|--------------------------------|
G|--------------------------------|
D|-2--2-2-5-5-5-5-9-9-9-9-9-9-9-9-|
A|-2--2-2-5-5-5-5-9-9-9-9-9-9-9-9-|
D|-2--2-2-5-5-5-5-9-9-9-9-9-9-9-9-|

riff 4
e|----------------------------------------------------|
B|----------------------------------------------------|
G|----------------------------------------------------|
D|-2--2-2-2-2/5-5-5-5--5-5-0--0-0-0--0-0-7-7-7-5-5-7\-|
A|-2--2-2-2-2/5-5-5-5--5-5-0--0-0-0--0-0-7-7-7-5-5-7\-|
D|-2--2-2-2-2/5-5-5-5--5-5-0--0-0-0--0-0-7-7-7-5-5-7\-|
      . .                     . .    

riff 5
e|-0-0-0-0-----0------------|
B|----------3----0-0-0-0-3--|
G|--------------------------|
D|--------------------------|
A|--------------------------|
D|--------------------------|

riff 6
e|----------|
B|----------|
G|----------|
D|-2x-2x-2x-|
A|-2x-2x-2x-|
D|-2x-2x-2x-|

Thats all!!
=============================================================================
-----------------------------------------------------------------------------
                               12. grace and Love
-----------------------------------------------------------------------------
There is no guitar for this song, but there are great chords on UG.
This is a great album, I first got it off a friend and had to go buy the cd to
support the band. I think it is better then there new album 'Sea Of Faces' guitar
ways, but both have an awesome message.
Max Andersen
=============================================================================
6 comments total. Showing first comments.
0 reply
Pmartinez wrote on June 14 2005, 12:00 am

This is a work of art. I love you.

0 reply
varsity35 wrote on November 18 2006, 02:55 pm

You really put alot of work into this tab... Amazing job, thanks for all the work you put into this :)

0 reply
Prophets4Higher wrote on January 3 2007, 10:23 pm

This tab is perfect, P E R F E C T great job

I want to post or [tab]
guest
You may want to rate the tab now too:
select rating
Please do not post tabs as comments. Select "correction" instead!