Oops, an error
Loading. Please wait.

Because Of You Tab

by Kyla
ver1
ver1

Whole song

More versions @911Tabs.com
5,988 views 12 this week
no commentswrite comment
1 2 3 4 5
excellent!
x 3
Autoscroll
+/-
esc
set tempo
stop
Contributor
Hey! There's an official Ultimate Guitar app which is ideal
for learning songs when you're away from computer. Get the app
WARNING: You are trying to view
                                    content from Ultimate-Guitar.com
                                    in an unauthorized application,
                                    which is prohibited.

                                    Please use an official Ultimate
                                    Guitar Tabs application for iPhone,
                                    iPad or Android to access legitimate
                                    chords, guitar, bass, and drum tabs
                                    from Ultimate-Guitar.com database.

                                    Type "ultimate guitar tabs" in Apple
                                    App Store's or Android Market's
                                    search to find the application.
____________________________________________________________________________
***************************************************************************
Title: Because of You   
Artist: Kyla
Tabbed by: Reynaldo R. Ramos
e-mail: rey_rrr20@yahoo.com
Tuning: Standard Tuning 
Date: July 16, 2004
____________________________________________________________________________
****************************************************************************

Tip: This version is a piano version converted to a guitar version 
Which for me sounds similarly so you will encounter broken chords, which a combination
of lower and higher keys just like how we play piano. I suggest not to look only for
the chords string-by-string but
It is advisable to look for the chords as a whole to maintain the let 
Ring notations especially in the chords FM7, F7, Bb, C9, C7sus, C#dim,
Ebdim, and I think almost all of the chords here need to maintain the Let 
Ring notation.CATCAT praktisin mo itong mabuti ha!Kc medio nakakangawit
yung mga chords at yung ibang chords napakachallenging at kailangan mong mapatunog
lahat ng strings kahit na pahirapan ang mga chords at 
nakakangalay, if ever na may part dito na dimo maintindihan just ask me
at kung may part din na medio nahihirapan ka sabihin mo agad sakin
para magawan natin ng paraan at maimodify..just remember just what you
said yesterday practice makes perfect pero nobody's perfect ha!?



This Tab is actually made that will be use by my friend name CATCAT on her contest
i'm looking forward for her success and i'm dedicating my effort on this tab for her
and i guranteed for this almost 100% accuracy.. 


Intro:  
               
e|-------------------------------8------------|
B|--11-10-8-----------------8-10------8-------|
G|--9-------10-----10----10--------10---------|
D|--10----------------10--------------10------|
A|--8-------8-----------------8---------------|
E|--------------------------------------------|

e|-------------------------8------------------|
B|---------8---------------8------------------|
G|------------10-----------10-----------------|
D|-----10------------------10-----------------|
A|--8----------------------8------------------|
E|--------------------------------------------|
                                              Hhhhhhhhhhmmmmmmm... ...
   F                   F                  F  
e|-----------------------------------------------------------|
B|--------------1------------------1-------------------1-----|
G|-------0--2--------0------0--2-------0--------0--2-------2-|
D|----3------------------3-----------3-------3-----------3---|
A|-----------------------------------------------------------|
E|-1-------------------1------------------1------------------|
    F
e|-------------1-----------|
B|-------------------------|
G|--------0--2-------------|
D|-----3-------------------|
A|-------------------------|
E|--1----------------------|

Stanza: FM7--F7--Bb--C9-C7sus- (2x)

        If   ever you  wondered      if you touched               
  FM7                  F7 
e|-0------------------------------8-------------|
B|-1----------------1---------10------10--------|
G|-2-------------2-----------------------8------|
D|-3----------3------------10-------------------|
A|----------------------8-----------------------|
E|----------------------------------------------|
     my soul       yes you do   
     Bb                       C9        C7sus
e|-----------------1--------------------------------|
B|----------1--3-------------3---------------11-----|
G|---------------------------------3-----10---------|
D|------3-----------------------5-----5-------------|
A|---1-----------------------3----------------------|
E|---------------------------------------8----------|
     Since I  met you I'm not the same you bring
  FM7                  F7 
e|-0------------------------------8-------------|
B|-1----------------1---------10------10--------|
G|-2-------------2-----------------------8------|
D|-3----------3------------10-------------------|
A|----------------------8-----------------------|
E|----------------------------------------------|
    life to everything I do 
     Bb                      C9          C7sus  
e|-----------------1--------------------------------|
B|----------1--3-------------3---------------11-----|
G|---------------------------------3-----10---------|
D|------3-----------------------5-----5-------------|
A|---1-----------------------3----------------------|
E|---------------------------------------8----------|

Refrain: Dm--Am7--Bb--C7sus-C7- (2x)

        Just the way you say hello
     Dm                   Am7
e|------------1-----3-----------------3-------------|
B|---------3-----3------------------1-----3---------|
G|------2------------------------0------------------|
D|---0------------------------2---------------------|
A|-------------------------0------------------------|
E|--------------------------------------------------|
      With one touch I can't let go
     Bb                C7sus    C7 
e|----------------------------------------8-------|
B|---1-----------------6--------5-----------------|
G|---------3--2--------3--------3-----------------|
D|------3----------3---5--------5-----------------|
A|---1-----------------3--------3-----------------|
E|------------------------------------------------|
       Never thought   I'd fall in 
     Dm                   Am7
e|------------1-----3-----------------3-------------|
B|---------3-----3------------------1-----3---------|
G|------2------------------------0------------------|
D|---0------------------------2---------------------|
A|-------------------------0------------------------|
E|--------------------------------------------------|
   with you....                              Because
         Bb                  C7sus         C7sus 
e|-------------------------------------------------|
B|-------1-------------------6----------------11---|
G|-------------3--2----------3-----3-------10------|
D|----------3--------3-------5--5----5-------------|
A|-------1-------------------3---------------------|
E|-----------------------------------------8-------|

Chorus: FM7--F7--Bb--C7sus-C#dim-Dm7--Am7--Gm7--C7sus-C7-

  of you......         my  life has changed
       FM7                 F7  
e|------0---------0-------------------8----------------|
B|------1---------1---------------10---------10--------|
G|------2---------2---3-2-----------------------8------|
D|------3------3----3---------10------------------10---|
A|-------------------------8---------------------------|
E|-----------------------------------------------------|
Thank you for the love and the joy you bring..Because of
    Bb                      C7sus       C#dim
e|-----------------------------------------------3----------|
B|--------1--3--1-----------6------------5----5-------------|
G|-----------------3--------3---3--------3--3---------------|
D|-----3--------------3-----5-5----------5------------------|
A|--1-----------------------3------------4------------------|
E|----------------------------------------------------------|
     you...              I feel no shame
     Dm7                Am7
e|------------8------------------------0-----------------|
B|---------6----------------------1------1---------------|
G|------5-------------5--------0-----------0-------------|
D|-----------------7--------2----------------------------|
A|---5-------------------0-------------------------------|
E|-------------------------------------------------------|
  I'll tell the world         It's because of 
   Gm7                     C7sus         C7
e|---------------------------------------3--------|
B|-----------3----3--------6--------6----5--------|
G|--------3---------3------3-----3-------3--------|
D|-----3--------------3----5--5----------5--------|
A|-------------------------3-------------3--------|
E|--3---------------------------------------------|

Interlude: F----

 you.......
 F                   F                  F  
e|-----------------------------------------------------------|
B|--------------1------------------1-------------------1-----|
G|-------0--2--------0------0--2-------0--------0--2-------2-|
D|----3------------------3-----------3-------3-----------3---|
A|-----------------------------------------------------------|
E|-1-------------------1------------------1------------------|
    F
e|-------------1-----------|
B|-------------------------|
G|--------0--2-------------|
D|-----3-------------------|
A|-------------------------|
E|--1----------------------|

Stanza 2: (Do stanza 1 pattern)
Sometimes I get lonely and all I gotta do is think of you
You captured something inside of me
You make all of my dreams come true

Refrain 2: (Do refrain 1 pattern)
It's not enough that you love me for me
You reached inside and touched me eternally
I love you best explains how I feel for you...

Chorus 2: (Do chorus 1 pattern 2x)

Because of you, my life has changed, 
thank you for the love and the joy you bring
Because of you, I feel no shame, 
I'll tell the world it's 
Because of you, my life has changed, 
thank you for the love and the joy you bring
Because of you, I feel no shame, 
I'll tell the world it's because of you...

Bridge: 
                  The magic in your eyes
     Dm             Dm              Am       
e|--------------------------------------------8-------------|
B|---------------5-----------5--6---------10------10--------|
G|---------5--7-----------7------------9-------------9------|
D|------7--------------7------------------------------------|
A|---5--------------5---------------0-----------------------|
E|----------------------------------------------------------|
True love   I   can't    deny,  when you hold me      
     C           Eb       Bb              Gm 
e|---------------------8-----------6--------------------------|
B|---------5---------------------------6--------------6--3----|
G|------5-----------8---------------------------3-----------3-|
D|------------------------------8------------5-----5----------|
A|---3-----------6-----------8--------------------------------|
E|------------------------6---------------3-------------------|
    I just     lose  control
    C7sus       C9           A7sus         A7  
e|---------------------------------------------1---3--------|
B|-----------6-----------3---3-----1-------2----------------|
G|--------3-----------3---------------0---------------------|
D|-----5-----------5------------2---------------------------|
A|--3-----------3------------0-------------0----------------|
E|----------------------------------------------------------|
         I want to know   That I'm never  letting 
     Dm             Dm              Am      
e|--------------------------------------------8-------------|
B|---------------5-----------5--6---------10------10--------|
G|---------5--7-----------7------------9-------------9------|
D|------7--------------7------------------------------------|
A|---5--------------5---------------0-----------------------|
E|----------------------------------------------------------|
    go           You mean so much to me I want the world to see
     C           Eb       Bb              Gm        
e|---------------------8-----------6--------------------------|
B|---------5---------------------------6--------------6--3----|
G|------5-----------8---------------------------3-----------3-|
D|------------------------------8------------5-----5----------|
A|---3-----------6-----------8--------------------------------|
E|------------------------6---------------3-------------------|
Its because of you...     ...
    C7sus       C9            D7sus  
e|----------------------------5---5-------5-5-5-------------|
B|-----------6-----------3----8---8-------8-8-8-------------|
G|--------3-----------3-------5---5-------5-5-5-------------|
D|-----5-----------5----------7---7-------7-7-7-------------|
A|--3-----------3-------------5---5-------5-5-5-------------|
E|----------------------------------------------------------|

Repeat Chorus 2: ( 2 steps higher (G))--->> Do mild strumming

Note: CATCAT use all this chords on this part
      using mild strumming pattern.... 

     G        G7      C     D7sus   Ebdim    Em7     Bm7     Am7      D7
e|---5----|---3---|-------|---3---|---2---|---7---|---2---|---0---|---2---|
B|---5----|---3---|---5---|---1---|---1---|---8---|---3---|---1---|---1---|
G|---4----|---4---|---5---|---2---|---2---|---7---|---2---|---0---|---2---|
D|---5----|---3---|---5---|---0---|---1---|---9---|---4---|---2---|---0---|
A|---5----|---5---|---3---|-------|-------|---7---|---2---|---0---|-------|
E|---3----|---3---|-------|-------|-------|-------|-------|-------|-------|

            G        G7 
Because of you, my life has changed, 
      C                         D7sus
Thank you for the love and the joy you bring
Ebdim        Em7     Bm7
Because of you, I feel no shame, 
     Am7            D7sus
I'll tell the world it's
 D7        G         G7
Because of you, my life has changed, 
      C                         D7sus
Thank you for the love and the joy you bring
Ebdim      Em7        Bm7 
Because of you, I feel no shame, 
     Am7            D7sus   D7        
I'll tell the world it's because of you...

Outro: EbM7--G#--D--
                             you.....          you..........
    EbM7                       G#                     D                
e|--------10------------------------------------------2-------|
B|--------------11------------------------------------3-------|
G|-----12----12-------12-------------12-13-12---------2-------|
D|--12-------------12----12-------13----------13------0-------|
A|-----------------------------11-----------------------------|
E|------------------------------------------------------------|
comments
We did not receive enough feedback on this tab! Please rate:
print report bad tab
1 2 3 4 5
I want to post or [tab]
guest
You may want to rate the tab now too:
select rating
Please do not post tabs as comments. Select "correction" instead!