Oops, an error
Loading. Please wait.

Dont Look Back Tab

1,693 views 12 this week
no commentswrite comment
1 2 3 4 5
excellent!
x 3
Autoscroll
+/-
esc
set tempo
stop
Contributor
Tuning
C G C F A D
Hey! There's an official Ultimate Guitar app which is ideal
for learning songs when you're away from computer. Get the app
WARNING: You are trying to view
                                    content from Ultimate-Guitar.com
                                    in an unauthorized application,
                                    which is prohibited.

                                    Please use an official Ultimate
                                    Guitar Tabs application for iPhone,
                                    iPad or Android to access legitimate
                                    chords, guitar, bass, and drum tabs
                                    from Ultimate-Guitar.com database.

                                    Type "ultimate guitar tabs" in Apple
                                    App Store's or Android Market's
                                    search to find the application.
-------------------------------------------------------------------------------
                             Kylesa - Don't Look Back
-------------------------------------------------------------------------------
Tabbed by: kZaph
E-mail: kzaph54@gmail.com

Artist: Kylesa
Album: Spiral Shadow

Tuning: Drop C (CGCFAD)

************************************

| /   slide up
| \   slide down
| br  Bend release

************************************

This is my first tab, one of my favorite songs.
Not sure if this is 100% accurate, but it sounds correct at least.


---Intro---

Part 1

Guitar I (w/ distortion)

e|---------------------------------------------------------------------------|
B|---------------------------------------------------------------------------|
G|----10------------------------------------10-------------------------------|
D|-10------------------------------------10----------------------------------|
A|---------------------------------------------------------------------------|
E|---------------------------------------------------------------------------| x1


Part 2

Guitar I

e|---------------------------------------------------------------------------|
B|---------------------------------------------------------------------------|
G|----10----10-12-10----10-14-10----10-12-10----10---------------------------|
D|-10----10----------10----------10----------10------------------------------|
A|---------------------------------------------------------------------------|
E|---------------------------------------------------------------------------| x4

Guitar II (w/ distortion)

e|---------------------------------------------------------------------------|
B|---------------------------------------------------------------------------|
G|---------------------------------------------------------------------------|
D|-3-3-3-3-0-0-0-0-7-7-7-7-7/8-8-8-------------------------------------------|
A|-3-3-3-3-0-0-0-0-7-7-7-7-7/8-8-8-------------------------------------------|
E|-3-3-3-3-0-0-0-0-7-7-7-7-7/8-8-8-------------------------------------------| x4


Part 3

Guitar I (slightly different from part 2)

e|---------------------------------------------------------------------------|
B|---------------------------------------------------------------------------|
G|----10----10-12-10----10----10----10-12-10----10---------------------------|
D|-10----10----------10----10----10----------10------------------------------|
A|---------------------------------------------------------------------------|
E|---------------------------------------------------------------------------| x4

Guitar II

e|---------------------------------------------------------------------------|
B|---------------------------------------------------------------------------|
G|---------------------------------------------------------------------------|
D|-3-3-3-3-0-0-0-0-7-7-7-7-7/8-8-8-------------------------------------------|
A|-3-3-3-3-0-0-0-0-7-7-7-7-7/8-8-8-------------------------------------------|
E|-3-3-3-3-0-0-0-0-7-7-7-7-7/8-8-8-------------------------------------------| x4


---Verse---

Part 4

Guitar I+II

e|---------------------------------------------------------------------------|
B|---------------------------------------------------------------------------|
G|---------------------------------------------------------------------------|
D|-3-3-3-3-0-0-0-0-7-7-7-7-7/8-8-8-------------------------------------------|
A|-3-3-3-3-0-0-0-0-7-7-7-7-7/8-8-8-------------------------------------------|
E|-3-3-3-3-0-0-0-0-7-7-7-7-7/8-8-8-------------------------------------------| x8


Part 5

Guitar I+II

e|---------------------------------------------------------------------------|
B|---------------------------------------------------------------------------|
G|-7-7-7-7-----------------9-9-9-9-------------------------------------------|
D|-7-7-7-7-7-7-7-7-5-5-5-5-9-9-9-9-------------------------------------------|
A|-5-5-5-5-7-7-7-7-5-5-5-5-7-7-7-7-------------------------------------------|
E|---------7-7-7-7-5-5-5-5---------------------------------------------------| x3

e|---------------------------------------------------------------------------|
B|---------------------------------------------------------------------------|
G|-5-5-5-5-5-5-5-5-4-4-4-4-4-4-4-4-------------------------------------------|
D|-x-x-x-x-x-x-x-x-x-x-x-x-x-x-x-x-------------------------------------------|
A|-3-3-3-3-3-3-3-3-2-2-2-2-2-2-2-2-------------------------------------------|
E|---------------------------------------------------------------------------| x1


---Chorus---

Part 6

Guitar I

e|---------------------------------------------------------------------------|
B|---------------------------------------------------------------------------|
G|----10----10-12-10----10-14-10----10-12-10----10---------------------------|
D|-10----10----------10----------10----------10------------------------------|
A|---------------------------------------------------------------------------|
E|---------------------------------------------------------------------------| x4

Guitar II

e|---------------------------------------------------------------------------|
B|---------------------------------------------------------------------------|
G|---------------------------------------------------------------------------|
D|-3-3-3-3-0-0-0-0-7-7-7-7-7/8-8-8-------------------------------------------|
A|-3-3-3-3-0-0-0-0-7-7-7-7-7/8-8-8-------------------------------------------|
E|-3-3-3-3-0-0-0-0-7-7-7-7-7/8-8-8-------------------------------------------| x4


Part 7

Guitar I+II

e|---------------------------------------------------------------------------|
B|---------------------------------------------------------------------------|
G|-7-7-7-7-----------------9-9-9-9-------------------------------------------|
D|-7-7-7-7-7-7-7-7-5-5-5-5-9-9-9-9-------------------------------------------|
A|-5-5-5-5-7-7-7-7-5-5-5-5-7-7-7-7-------------------------------------------|
E|---------7-7-7-7-5-5-5-5---------------------------------------------------| x3

e|---------------------------------------------------------------------------|
B|---------------------------------------------------------------------------|
G|-5-5-5-5-5-5-5-5-4-4-4-4-4-4-4-4-------------------------------------------|
D|-x-x-x-x-x-x-x-x-x-x-x-x-x-x-x-x-------------------------------------------|
A|-3-3-3-3-3-3-3-3-2-2-2-2-2-2-2-2-------------------------------------------|
E|---------------------------------------------------------------------------| x1


---Bridge---

Part 8

Guitar I  (w/ phaser)

e|---------------------------------------------------------------------------|
B|---------10----------------10----------------------------------------------|
G|-14\\\9-------9-14\\\9---9------9------------------------------------------|
D|---------------------------------------------------------------------------|
A|---------------------------------------------------------------------------|
E|---------------------------------------------------------------------------| x4

e|---------------------------------------------------------------------------|
B|---------------------------------------------------------------------------|
G|-9---7----------9---7------------------------------------------------------|
D|---------10---7---------10-9---7-------------------------------------------|
A|---------------------------------------------------------------------------|
E|---------------------------------------------------------------------------| x4

e|---------------------------------------------------------------------------|
B|---------10----------------10----------------------------------------------|
G|-14\\\9-------9-14\\\9---9------9------------------------------------------|
D|---------------------------------------------------------------------------|
A|---------------------------------------------------------------------------|
E|---------------------------------------------------------------------------| x3

e|---------------------------------------------------------------------------|
B|-------------------13-------15br-let ring----------------------------------|
G|-12-------14---------------------------------------------------------------|
D|---------------------------------------------------------------------------|
A|---------------------------------------------------------------------------|
E|---------------------------------------------------------------------------| x1

Guitar II

e|---------------------------------------------------------------------------|
B|---------------------------------------------------------------------------|
G|-9-9-9-9-9-9-9-9-9-9-9-9-9-9-9-9-------------------------------------------|
D|-x-x-x-x-x-x-x-x-x-x-x-x-x-x-x-x-------------------------------------------|
A|-7-7-7-7-7-7-7-7-7-7-7-7-7-7-7-7-------------------------------------------|
E|---------------------------------------------------------------------------|

e|---------------------------------------------------------------------------|
B|---------------------------------------------------------------------------|
G|-12-12-12-12-12-12-12-12-12-12-12-12-12-12-12-12---------------------------|
D|-x--x--x--x--x--x--x--x--x--x--x--x--x--x--x--x----------------------------|
A|-10-10-10-10-10-10-10-10-10-10-10-10-10-10-10-10---------------------------|
E|---------------------------------------------------------------------------|

e|---------------------------------------------------------------------------|
B|---------------------------------------------------------------------------|
G|-7-7-7-7-7-7-7-7-7-7-7-7-7-7-7-7-------------------------------------------|
D|-x-x-x-x-x-x-x-x-x-x-x-x-x-x-x-x-------------------------------------------|
A|-5-5-5-5-5-5-5-5-5-5-5-5-5-5-5-5-------------------------------------------|
E|---------------------------------------------------------------------------|

e|---------------------------------------------------------------------------|
B|---------------------------------------------------------------------------|
G|-14-14-14-14-14-14-14-14-14-14-14-14-14-14-14-14---------------------------|
D|-x--x--x--x--x--x--x--x--x--x--x--x--x--x--x--x----------------------------|
A|-12-12-12-12-12-12-12-12-12-12-12-12-12-12-12-12---------------------------|
E|---------------------------------------------------------------------------| x2


e|---------------------------------------------------------------------------|
B|---------------------------------------------------------------------------|
G|-5-5-5-5-5-5-5-5-5-5-5-5-5-5-5-5-------------------------------------------|
D|-x-x-x-x-x-x-x-x-x-x-x-x-x-x-x-x-------------------------------------------|
A|-3-3-3-3-3-3-3-3-3-3-3-3-3-3-3-3-------------------------------------------|
E|---------------------------------------------------------------------------|

e|---------------------------------------------------------------------------|
B|---------------------------------------------------------------------------|
G|-4-4-4-4-4-4-4-4-4-4-4-4-4-4-4-4-------------------------------------------|
D|-x-x-x-x-x-x-x-x-x-x-x-x-x-x-x-x-------------------------------------------|
A|-2-2-2-2-2-2-2-2-2-2-2-2-2-2-2-2-------------------------------------------|
E|---------------------------------------------------------------------------|

e|---------------------------------------------------------------------------|
B|---------------------------------------------------------------------------|
G|-10-10-10-10-10-10-10-10-10-10-10-10-10-10-10-10---------------------------|
D|-x--x--x--x--x--x--x--x--x--x--x--x--x--x--x--x----------------------------|
A|-8--8--8--8--8--8--8--8--8--8--8--8--8--8--8--8----------------------------|
E|---------------------------------------------------------------------------|

e|---------------------------------------------------------------------------|
B|---------------------------------------------------------------------------|
G|-9-9-9-9-9-9-9-9-9-9-9-9-9-9-9-9-------------------------------------------|
D|-x-x-x-x-x-x-x-x-x-x-x-x-x-x-x-x-------------------------------------------|
A|-7-7-7-7-7-7-7-7-7-7-7-7-7-7-7-7-------------------------------------------|
E|---------------------------------------------------------------------------| x1


---Verse---

Part 9

Guitar I+II

e|---------------------------------------------------------------------------|
B|---------------------------------------------------------------------------|
G|---------------------------------------------------------------------------|
D|-3-3-3-3-0-0-0-0-7-7-7-7-7/8-8-8-------------------------------------------|
A|-3-3-3-3-0-0-0-0-7-7-7-7-7/8-8-8-------------------------------------------|
E|-3-3-3-3-0-0-0-0-7-7-7-7-7/8-8-8-------------------------------------------| x8


---Chorus---

Part 10

Guitar I

e|---------------------------------------------------------------------------|
B|---------------------------------------------------------------------------|
G|----10----10-12-10----10-14-10----10-12-10----10---------------------------|
D|-10----10----------10----------10----------10------------------------------|
A|---------------------------------------------------------------------------|
E|---------------------------------------------------------------------------| x4

Guitar II

e|---------------------------------------------------------------------------|
B|---------------------------------------------------------------------------|
G|---------------------------------------------------------------------------|
D|-3-3-3-3-0-0-0-0-7-7-7-7-7/8-8-8-------------------------------------------|
A|-3-3-3-3-0-0-0-0-7-7-7-7-7/8-8-8-------------------------------------------|
E|-3-3-3-3-0-0-0-0-7-7-7-7-7/8-8-8-------------------------------------------| x4


---Outro---

Part 11

Guitar I+II

e|---------------------------------------------------------------------------|
B|---------------------------------------------------------------------------|
G|---------------------------------------------------------------------------|
D|-3-3-3-3-0-0-0-0-7-7-7-7-7/8-8-8-------------------------------------------|
A|-3-3-3-3-0-0-0-0-7-7-7-7-7/8-8-8-------------------------------------------|
E|-3-3-3-3-0-0-0-0-7-7-7-7-7/8-8-8-------------------------------------------| x4

e|---------------------------------------------------------------------------|
B|---------------------------------------------------------------------------|
G|---------------------------------------------------------------------------|
D|-3-------------------------------------------------------------------------|
A|-3-let ring----------------------------------------------------------------|
E|-3-------------------------------------------------------------------------| x1

comments
We did not receive enough feedback on this tab! Please rate:
print report bad tab
1 2 3 4 5
I want to post or [tab]
guest
You may want to rate the tab now too:
select rating
Please do not post tabs as comments. Select "correction" instead!