Oops, an error
Loading. Please wait.

Welcome To Sky Valley Tab

2,006 views 9 this week
1 commentread comment
1 2 3 4 5
excellent!
x 3
add to favorites launch autoscroll
font size
0
reset
Autoscroll
+/-
esc
set tempo
stop
Contributor
WARNING: You are trying to view
                                    content from Ultimate-Guitar.com
                                    in an unauthorized application,
                                    which is prohibited.

                                    Please use an official Ultimate
                                    Guitar Tabs application for iPhone,
                                    iPad or Android to access legitimate
                                    chords, guitar, bass, and drum tabs
                                    from Ultimate-Guitar.com database.

                                    Type "ultimate guitar tabs" in Apple
                                    App Store's or Android Market's
                                    search to find the application.
Welcome to Sky Valley (1994)
by Kyuss

Tabbed by: Brownbear93

Tuning: C F Bb Eb G C
Except "Space Cadet" which is tuned to: C# F# B E G# C#

Instead of posting the tracks seperate like I have been doing, I just
decided to go ahead and do the whole album.This one took a lot of time
and effort so please rate or comment any feedback or corrections you think should
be made.Enjoy!

I
Gardenia
Asteroid
Supa Scoopa and Mighty Scoop

II
100 Degrees
Space Cadet
Demon Cleaner

III
Odyssey
Conan Troutman
N.O.
Whitewater


GARDENIA

Intro:
|-----------------------------------------------------|
|-----------------------------------------------------|
|-----------------------------------------------------|
|-----------------------------------------------------|
|-17-17-17-17h19-19-19-19b-19-19b-19-19b-19-17-17-17--|
|--0--0--0--0-----0--0--0---0--0---0--0---0--0--0--0--|

|---------------------------------------------|
|---------------------------------------------|
|---------------------------------------------|x6
|---------------------------------------------|
|--17h19-19-19-19b-19-19b-19-19b-19-17-17-17--|
|---0-----0--0--0---0--0---0--0---0--0--0--0--|

|----------------------------------------|
|----------------------------------------|
|----------------------------------------|
|----------------------------------------|
|--17h19-19-19-19b-19-19b-19-19b-19-19/--|
|---0-----0--0--0---0--0---0--0---0--0---|

|--------------------------------------------------------------------|
|--------------------------------------------------------------------|
|--------------------------------------------------------------------|
|-9/10101010--1010--1010--10101010--9/10101010-101010/12121212121212-|
|-9/10101010--1010--1010--10101010--9/10101010-101010/12121212121212-|
|-7/-8-8-8-8---8-8---8-8---8-8-8-8--7/-8-8-8-8--8-8-8/10101010101010-|

|---------------------------------------------------------------------------------|
|---------------------------------------------------------------------------------|
|---------------------------------------------------------------------------------|
|---------------------------------------------------------------------------------|
|--17h19-19-19-19b-19-19b-19-19b-19-17-17-17-17h19-19-19-19b-19-19b-19-19b-19-19/-|
|---0-----0--0--0---0--0---0--0---0--0--0--0--0-----0--0--0---0--0---0--0---0--0--|

|--------------------------------------------------------------------|
|--------------------------------------------------------------------|
|--------------------------------------------------------------------|
|-9/10101010--1010--1010--10101010--9/10101010-101010/12121212121212-|
|-9/10101010--1010--1010--10101010--9/10101010-101010/12121212121212-|
|-7/-8-8-8-8---8-8---8-8---8-8-8-8--7/-8-8-8-8--8-8-8/10101010101010-|

|-------------------------------------|
|-------------------------------------|
|-------------------------------------|
|-12/14141414-\9---121212/14141414-\9-|
|-10/12121212-\7---101010/12121212-\7-|
|-------------------------------------|

|--------------------------------------------------------------------------------------|
|--------------------------------------------------------------------------------------|
|--------------------------------------------------------------------------------------|
|--------------------------------------------------------------------------------------|
|-/17h19-19-19-19b-19-19b-19-19b-19-17-17-17-17h19-19-19-19b-19-19b-19-19b-19-17-17-17-|
|---0-----0--0--0---0--0---0--0---0--0--0--0--0-----0--0--0---0--0---0--0---0--0--0--0-|

|---------------------------------------------|
|---------------------------------------------|
|---------------------------------------------|
|---------------------------------------------|
|--17h19-19-19-19b-19-19b-19-19b-19-17-17-17--|
|---0-----0--0--0---0--0---0--0---0--0--0--0--|

|---------------------------------|
|---------------------------------|
|------------------------------12~|
|------------------------12h14----|
|-17h19-19-19-19b-19-19-----------|
|--0-----0--0--0---0--0-----------|


Verse:
|---------------------------------------------|
|---------------------------------------------|
|---------------------------------------------|x3
|---------------------------------------------|
|--17h19-19-19-19b-19-19b-19-19b-19-17-17-17--|
|---0-----0--0--0---0--0---0--0---0--0--0--0--|

|------------------------------------|
|------------------------------------|
|------------------------------------|
|-------------------------12-14--14b-|
|--17h19-19-19-19b-19-19-------------|
|---0-----0--0--0---0--0-------------|

|---------------------------------------------|
|---------------------------------------------|
|---------------------------------------------|x3
|---------------------------------------------|
|--17h19-19-19-19b-19-19b-19-19b-19-17-17-17--|
|---0-----0--0--0---0--0---0--0---0--0--0--0--|

|----------------------------------------|
|----------------------------------------|
|----------------------------------------|
|----------------------------------------|
|--17h19-19-19-19b-19-19b-19-19b-19-19/--|
|---0-----0--0--0---0--0---0--0---0--0---|


Chorus:
|--------------------------------------------------------------------|
|--------------------------------------------------------------------|
|--------------------------------------------------------------------|
|-9/10101010--1010--1010--10101010--9/10101010-101010/12121212121212-|
|-9/10101010--1010--1010--10101010--9/10101010-101010/12121212121212-|
|-7/-8-8-8-8---8-8---8-8---8-8-8-8--7/-8-8-8-8--8-8-8/10101010101010-|

|-------------------------------------------------------|
|-------------------------------------------------------|
|--14--12----14-12--14-12--14-12-14-12--14b--12--14-14b-|
|--14--12----14-12--14-12--14-12-14-12--14b--12--14-14b-|
|-------------------------------------------------------|
|-------------------------------------------------------|

|--------------------------------------------------------------------|
|--------------------------------------------------------------------|
|--------------------------------------------------------------------|
|-9/10101010--1010--1010--10101010--9/10101010-101010/12121212121212-|
|-9/10101010--1010--1010--10101010--9/10101010-101010/12121212121212-|
|-7/-8-8-8-8---8-8---8-8---8-8-8-8--7/-8-8-8-8--8-8-8/10101010101010-|

|------------------------------------------|
|------------------------------------------|
|------------------------------------------|
|-12/14141414-\9---121212/141414141414-14b-|
|-10/12121212-\7---101010/121212121212-12b-|
|------------------------------------------|

|---------------------------------------------|
|---------------------------------------------|
|---------------------------------------------|
|---------------------------------------------|
|--17h19-19-19-19b-19-19b-19-19b-19-17-17-17--|
|---0-----0--0--0---0--0---0--0---0--0--0--0--|

|------------------------------------|
|------------------------------------|
|------------------------------------|
|-------------------------12-14--14~-|
|--17h19-19-19-19b-19-19-------------|
|---0-----0--0--0---0--0-------------|


2nd Verse:
|---------------------------------------------|
|---------------------------------------------|
|---------------------------------------------|
|---------------------------------------------|
|--17h19-19-19-19b-19-19b-19-19b-19-17-17-17--|
|---0-----0--0--0---0--0---0--0---0--0--0--0--|

|------------------------------------|
|------------------------------------|
|------------------------------------|
|-------------------------12-14--14~-|
|--17h19-19-19-19b-19-19-------------|
|---0-----0--0--0---0--0-------------|

|---------------------------------------------|
|---------------------------------------------|
|---------------------------------------------|
|---------------------------------------------|
|--17h19-19-19-19b-19-19b-19-19b-19-17-17-17--|
|---0-----0--0--0---0--0---0--0---0--0--0--0--|

|------------------------------------------------------------------------------|
|------------------------------------------------------------------------------|
|-------------------------12h14-14b--12----------------------------------------|
|---------------------------------------14~------------------------------------|
|--17h19-19-19-19b-19-19----------------------19-19b-19-19b-19-19b-19-17-17-17-|
|---0-----0--0--0---0--0-----------------------0--0---0--0---0--0---0--0--0--0-|

|---------------------------------------------|
|---------------------------------------------|x2
|---------------------------------------------|
|---------------------------------------------|
|--17h19-19-19-19b-19-19b-19-19b-19-17-17-17--|
|---0-----0--0--0---0--0---0--0---0--0--0--0--|

|------------------------------------------------|
|------------------------------------------------|
|------------------------------------------------|
|------------------------------------------------|
|--17h19-19-17-19-19-17-19-19-17-19-17-19-17-19/-|
|---0-----0--0--0--0--0--0--0--0--0--0--0--0--0--|


2nd Chorus:
|--------------------------------------------------------------------|
|--------------------------------------------------------------------|
|--------------------------------------------------------------------|
|-9/10101010--1010--1010--10101010--9/10101010-101010/12121212121212-|
|-9/10101010--1010--1010--10101010--9/10101010-101010/12121212121212-|
|-7/-8-8-8-8---8-8---8-8---8-8-8-8--7/-8-8-8-8--8-8-8/10101010101010-|

|-------------------------------------------------------|
|-------------------------------------------------------|
|--14--12---14-12--14-12--14-12-14---14b--12--14-14b----|
|--14--12---14-12--14-12--14-12-14---14b--12--14-14b----|
|-------------------------------------------------------|
|-------------------------------------------------------|

|--------------------------------------------------------------------|
|--------------------------------------------------------------------|
|--------------------------------------------------------------------|
|-9/10101010--1010--1010--10101010--9/10101010-101010/12121212121212-|
|-9/10101010--1010--1010--10101010--9/10101010-101010/12121212121212-|
|-7/-8-8-8-8---8-8---8-8---8-8-8-8--7/-8-8-8-8--8-8-8/10101010101010-|

w/wah
|--------------------------------------------------------------------|
|-------------/19~---------------/20~------------/21~----------------|
|--------------------------------------------------------------------|
|--14p12--14---------14p12--14---------14p12-14----------14-12~---9--|
|-----------------------------------------------------------------7--|
|-----------------------------------------------------------------0--|

|----------------------------------------------|
|----------------------------------------------|
|----------------------------------------------|
|--12-12-12--9-----12-12-12--9-----12-12-12--9-|
|--10-10-10--7-----10-10-10--7-----10-10-10--7-|
|------------0---------------0---------------0-|


Solo: w/ wah and delay
|---------------------------------------------------------------------|
|-----------------------------------------------<12>--------15--------|
|-----------------------------------------------<12>--------14b-----r-|
|-----------------------------------------------<12>------------------|
|--15h17~--17~---17~---17~-----17~----17~--17~------------------------|
|---------------------------------------------------------------------|

|--------------------------------15b--------------------------------------------|
|-----------------------14---12-------------------------------------------------|
|-------------------12--14------------------------------------------------------|
|-14--------12---14-----14----------------14~------14/11--11/12/13/14/--\-------|
|-------------------------------------------------------------------------------|
|-------------------------------------------------------------------------------|

|-xxx--x--x--xx--xxxxxx--x-x-x--xx--xxxxxx--x--x-x-xx--xxxxxxx-xxx-x-xxxx-xxxx-x-xxx|
|-xxx--x--x--xx--xxxxxx--x-x-x--xx--xxxxxx--x--x-x-xx--xxxxxxx-xxx-x-xxxx-xxxx-x-xxx|
|-xxx--x--x--xx--xxxxxx--x-x-x--xx--xxxxxx--x--x-x-xx--xxxxxxx-xxx-x-xxxx-xxxx-x-xxx|
|-xxx--x--x--xx--xxxxxx--x-x-x--xx--xxxxxx--x--x-x-xx--xxxxxxx-xxx-x-xxxx-xxxx-x-xxx|
|-----------------------------------------------------------------------------------|
|-----------------------------------------------------------------------------------|

|----------<12>-----<12>------------------------------------------|
|---<12>-------<12>----------------<7>-----<7>-----------<7>------|
|---<12>------------------------<7>----<7>------------<7>---------|
|-----------------------------------------------------------------|
|-----------------------------------------------------------------|
|-----------------------------------------------------------------|

|--------------------<12>-----------<12>----------------------|
|--<12>-<12>----<12>------------<12>---------------<7>---<7>--|
|--<12>-----<12>--------------------------------<7>----<7>----|
|-------------------------------------------------------------|
|-------------------------------------------------------------|
|-------------------------------------------------------------|

|-xxx--x--x--xx--xxxxxx--x-x-x--xx--xxxxxx--xxx-x--x--xx--xxxxxxx-x-xxxxx-x-xxxxx-----|
|-xxx--x--x--xx--xxxxxx--x-x-x--xx--xxxxxx--xxx-x--x--xx--xxxxxxx-x-xxxxx-x-xxxxx-----|
|-xxx--x--x--xx--xxxxxx--x-x-x--xx--xxxxxx--xxx-x--x--xx--xxxxxxx-x-xxxxx-x-xxxxx-----|
|-xxx--x--x--xx--xxxxxx--x-x-x--xx--xxxxxx--xxx-x--x--xx--xxxxxxx-x-xxxxx-x-xxxxx---9-|
|-----------------------------------------------------------------------------------7-|
|-----------------------------------------------------------------------------------0-|

|-------------------------------------------|
|-------------------------------------------|
|-------------------------------------------|x3
|-------------------------------------------|
|-------------------------------------------|
|-10-12-12-12-12-12-12-12-12-12-12-12-12-12-|
PM.........................................

|----------------------------------------------------------------------------------------|
|----------------------------------------------------------------------------------------|
|----------------------------------------------------------------------------------------|x4
|----------------------------------------------------------------------------------------|
|----------------------10--------------------------------------------------------------10|
|-10-12-12-12-12-12-12-10-12-12-12-12-12-12-10h12-12-12-12-12-12-12--10-12-10-12-10-12---|
PM.....................   ............................................................

Fills:
|------------------------------------------------------------------|
|------------------------------------------------------------------|
|------------------------------------------------------------------|
|----12-14--x-14~--------------------------------------------------|
|------------------------------------10----------------------------|
|------------------------------10h12----10h12-10h12-10h12-12-------|

|-------------------------------------------------------------------------------------------|
|-------------------------------------------------------------------------------------------|
|-------------------------------------------------------------------------------------------|
|-------------------------------------------------------------9-9-9-9-9-9-9-9-9-9-9-9-9-9-9-|
|----------------------10-------------------------------------7-7-7-7-7-7-7-7-7-7-7-7-7-7-7-|
|-10-12-12-12-12-12-12-10-12-12-12-12-12-12-12-12-12-12-12-12-0-0-0-0-0-0-0-0-0-0-0-0-0-0-0-|
PM.....................   ...................................


3rd Chorus:
|--------------------------------------------------------------------|
|--------------------------------------------------------------------|
|--------------------------------------------------------------------|
|-9/10101010--1010--1010--10101010--9/10101010-101010/12121212121212-|
|-9/10101010--1010--1010--10101010--9/10101010-101010/12121212121212-|
|-7/-8-8-8-8---8-8---8-8---8-8-8-8--7/-8-8-8-8--8-8-8/10101010101010-|


|----------------------------------------|
|--------14b--14b-12--14b-12---14-12-14b-|
|--12h14-14b--14b-12--14b-12---14-12-14b-|
|--12h14-14b--14b-12--14b-12---14-12-14b-|
|----------------------------------------|
|----------------------------------------|

|--------------------------------------------------------------------|
|--------------------------------------------------------------------|
|--------------------------------------------------------------------|
|-9/10101010--1010--1010--10101010--9/10101010-101010/12121212121212-|
|-9/10101010--1010--1010--10101010--9/10101010-101010/12121212121212-|
|-7/-8-8-8-8---8-8---8-8---8-8-8-8--7/-8-8-8-8--8-8-8/10101010101010-|


w/wah
|-----------------------------------------------------------------|
|-------------/19~---------------/20~------------/21~-------------|
|-----------------------------------------------------------------|
|--14p12--14---------14p12--14---------14p12-14----------14-12~---|
|-----------------------------------------------------------------|
|-----------------------------------------------------------------|


Outro:
                               x4                                  x4
|---------------------------------|---------------------------------|
|---------------------------------|---------------------------------|
|---------------------------------|---------------------------------|
|-----12---9----12---9----12---12-|-----12---9----12---9----12---9--|
|-----10---7----10---7----10---10-|-----10---7----10---7----10---7--|
|--00----0---00----0---00----0----|--00----0---00----0---00----0----|
PM...    .   ..    .   ..    .       ..    .   ..    .   ..    .
                               x4                                  x4
|---------------------------------|---------------------------------|
|---------------------------------|---------------------------------|
|---------------------------------|---------------------------------|
|-----12---9----12---9----12---12-|-----12---9----12---9----12---9--|
|-----10---7----10---7----10---10-|-----10---7----10---7----10---7--|
|--00----0---00----0---00----0----|--00----0---00----0---00----0----|
PM...    .   ..    .   ..    .       ..    .   ..    .   ..    .
                             x4                                   Repeat until fade out
|------------------------------|----------------------------------------|
|------------------------------|----------------------------------------|
|------------------------------|----------------------------------------|
|-------9-----9-9------9-----9-|----9----9-9----9----9-9----9----9-9----|
|-------7-----7-7------7-----7-|----7----7-7----7----7-7----7----7-7----|
|-00000---000-----0000---000---|-00---00-----00---00-----00---00-----00-|
PM.....   ...     ....   ...     ..   ..     ..   ..     ..   ..     ..




ASTEROID

Intro: (clean)
|------------------------------------------------------------------------------|
|------------------------------------------------------------------------------|
|------------------------------------------------------------------------------|
|------------------------------------------------------------------------------|
|----7-----7---9-7----7-----7-5/9-7---7-----7---9-7----10h12---10\9-9h10\5-4---|
|-0----0-0---8---0--0---0-0---------0---0-0---8---0--0-------0-----------------|

|------------------------------------------------------------------------------|
|------------------------------------------------------------------------------|
|------------------------------------------------------------------------------|
|------------------------------------------------------------------------------|
|----7-----7---9-7----7-7---7-5/9-7----7-----7---9-7----10h12---10\9-9h10\5-4--|
|-0----0-0---8---0--0-----0-------0--0---0-0---8---0--0-------0----------------|

|------------------------------------------------------------------------------|
|------------------------------------------------------------------------------|
|------------------------------------------------------------------------------|
|------------------------------------------------------------------------------|
|----7-----7---9-7----7-7---7-5/9-7-----7-----7---9-7----10h12---10\9-9h10\5-4-|
|-0----0-0---8---0--0----00----------0----0-0---8---0--0-------0---------------|


w/Distortion
|--------------------------------------------------------------------|
|--------------------------------------------------------------------|
|------12---11---------------12---11---------------12---11-----------|
|-------x----x----12\11-------x----x----12\11-------x----x----12\11--|
|------10----9-----x--x------10----9-----x--x------10----9-----x--x--|
|-0-00----00---00-10\-9-0000----00---00-10\-9-0000----00---00-10\-9--|

|------------------------------------------|
|------------------------------------------|
|------------------------------------------|
|------------------------------------------|
|-------------------10-9----------12-10~---|
|-0-10-12-0-10-12-0------0-10-9-0----------|

|--------------------------------------------------------------------|
|--------------------------------------------------------------------|
|------12---11---------------12---11---------------12---11-----------|
|-------x----x----12\11-------x----x----12\11-------x----x----12\11--|
|------10----9-----x--x------10----9-----x--x------10----9-----x--x--|
|-0-00----00---00-10\-9-0000----00---00-10\-9-0000----00---00-10\-9--|

|-----------------------------------------------|
|-----------------------------------------------|
|-----------------------------------------------|
|-----------------------------------------------|
|-------------------12-10-----------------------|
|-0-10-12-0-10-12-0-------0-10-12-0-10-9----0---|


Solo?: w/delay and wah
|----------------------------------------0-----19b---------------|
|--------------17-------17-0---17b-------0-------------12b-------|
|------------x-----------------------------------------------12--|
|--14-------x----------------------------------------------------|
|--14------------------------------------------------------------|
|----------------------------------------------------------------|

|---------------------------------------|*just screw around with the time and
|---------------------------------------|feedback knobs on the delay to get those
|---9-------12----9---------------------|cool spacey effects.
|-------12------------12----------------|
|--------------------------10b----------|
|---------------------------------12~---|


|-----------------------------------------------------------------------------|
|-----------------------------------------------------------------------------|
|-----------------------------------------------------------------------------|
|-----------------------------------------------------------------------------|
|----7-----7---9-7----7----7-5/9-7----7-----7777---7~--10h12---10\9-9h10\5-4--|
|-0----0-0---8---0--0--0-0----------0---0-0------0---0-------0----------------|

|-----------------------------------------------------------------------------|
|-----------------------------------------------------------------------------|
|-----------------------------------------------------------------------------|
|-----------------------------------------------------------------------------|
|----7-----7---9-7----7-7---7-5/9-7----7-7--7---9-7----10h12---10\9-9h10\5-4--|
|-0--0-0-0---8---0--0-----0----------0----0---8---0--0-------0----------------|


Clean Break:
 G1
|--------------------------------------------------------------------------------------------------|
|--------------------------------------------------------------------------------------------------|
|-12-12-12-12-12--/16-12--12-12-12-12-12--/16-12--12-12-12-12-12--/16-/16----16-----16-------------|
|--x--x--x--x--x----x--x---x--x--x--x--x----x--x---x--x--x--x--x----x---x--------------------------|
|-10-10-10-10-10--/14-10--10-10-10-10-10--/14-10--10-10-10-10-10--/14-/14--14---1414---14-12h14-10-|
|--------------------------------------------------------------------------------------------------|
|
|G2
|-12-10----10-----12------12-10----10---10-12------12-10----10----10h12--------|
|-------12----------------------12-----------------------12----------------12--|
|------------------------------------------------------------------------------|
|------------------------------------------------------------------------------|
|------------------------------------------------------------------------------|
|------------------------------------------------------------------------------|
|
|G3
|-1010101010----10-9-------1010101010----10-9~----1010101010----10-12----------|
|------------12-----------------------12---------------------12----------------|
|------------------------------------------------------------------------------|
|------------------------------------------------------------------------------|
|------------------------------------------------------------------------------|
|------------------------------------------------------------------------------|


 G1
|------------------------------------------------------------------------------|
|------------------------------------------------------------------------------|
|-12-12-12-12-12--/16-12--12-12-12-12-12--/16-12---16-16-16-16-16--16-12\11-9--|
|--x--x--x--x--x----x--x---x--x--x--x--x----x--x----x--x--x--x--x---x--x--x-x--|
|-10-10-10-10-10--/14-10--10-10-10-10-10--/14-10---14-14-14-14-14--14-10\-9-7--|
|------------------------------------------------------------------------------|
|
|G2
|-----10-------10-12----------10--------10-12--------15-15-15-15--15-14-12-----|
|-12------12--------------12------12-------------------------------------------|
|------------------------------------------------------------------------------|
|------------------------------------------------------------------------------|
|------------------------------------------------------------------------------|
|------------------------------------------------------------------------------|
|
|G3
|-1010101010----10-12-10---1010101010----10-12-10----1010101010--10--10-9-7----|
|------------12-----------------------12---------------------------------------|
|------------------------------------------------------------------------------|
|------------------------------------------------------------------------------|
|------------------------------------------------------------------------------|
|------------------------------------------------------------------------------|


|-----------------------------------------------------------------------------|
|-----------------------------------------------------------------------------|
|-----------------------------------------------------------------------------|
|-----------------------------------------------------------------------------|
|---2----------7----7---9-7---7-7--7-5/9-7---7----7---9-7--10h12-9--9h10\5-4--|
|-0---0-3/---0---00---8---0-0----0---------0---00---8---0---------------------|


w/Distortion
|--------------------------------------------------------------------|
|--------------------------------------------------------------------|
|------12---11---------------12---11---------------12---11-----------|
|-------x----x----12\11-------x----x----12\11-------x----x----12\11--|
|------10----9-----x--x------10----9-----x--x------10----9-----x--x--|
|-0-00----00---00-10\-9-0000----00---00-10\-9-0000----00---00-10\-9--|

|------------------------------------------|
|------------------------------------------|
|------------------------------------------|
|------------------------------------------|
|-------------------10-9----------12-10~---|
|-0-10-12-0-10-12-0------0-10-9-0----------|

|--------------------------------------------------------------------|
|--------------------------------------------------------------------|
|------12---11---------------12---11---------------12---11-----------|
|-------x----x----12\11-------x----x----12\11-------x----x----12\11--|
|------10----9-----x--x------10----9-----x--x------10----9-----x--x--|
|-0-00----00---00-10\-9-0000----00---00-10\-9-0000----00---00-10\-9--|


*Repeat until end while progressively speeding up the tempo, just listen for timing
|---------------------------------------------------------------------------------|
|---------------------------------------------------------------------------------|
|---------------------------------------------------------------------------------|
|---------------------------------------------------------------------------------|
|-------------------10-9----------12-10~--------------------12-10-----------------|
|-0-10-12-0-10-12-0------0-10-9-0---------0-10-12-0-10-12-0-------0-10-12-0-10-9~-|





			  
SUPA SCOOPA AND MIGHTY SCOOP

Intro:
|---------------------------------------------------------------------------|
|---------------------------------------------------------------------------|
|---------------------------------------------------------------------------|x6
|---------------7-7777-7-7777-10-10101010-10-10101010-12-12121212-9-9999----|
|-0-xxxx-0-xxxx-------------------------------------------------------------|
|---------------------------------------------------------------------------|
PM                ....   ....    ........    ........     .......   ....
 

Verse:
|-----------------------------------------------------------------------|
|-----------------------------------------------------------------------|
|-----------------------------------------------------------------------|x3
|-7--77777--77777--77777--777710--1010101010--1010101012--121212129999--|
|-7--77777--77777--77777--777710--1010101010--1010101012--121212129999--|
|-5--55555--55555--55555--5555-8---8-8-8-8-8---8-8-8-810--101010107777--|

|-----------------------------------------------------------------------|
|-----------------------------------------------------------------------|
|-----------------------------------------------------------------------|
|-7--77777--77777--77777--777710--1010101010--1010101012121212121299999-|
|-7--77777--77777--77777--777710--1010101010--1010101012121212121299999-|
|-5--55555--55555--55555--5555-8---8-8-8-8-8---8-8-8-810101010101077777-|


Chorus:
|-----------------------------------------------------|
|-----------------------------------------------------|
|--------------------------------------7h9-99~-9-9----|
|--7-77777-7777---------------------------------------|
|--7-77777-7777-10--------10-0-8-10-00----------------|
|--5-55555-5555---8-8---8-----------------------------|

|---------------------------------------|
|---------------------------------------|
|-------------------------7h9-99~-9-9---|x3
|---------------------------------------|
|-10--------10-0-8-10-00----------------|
|---8-8---8-----------------------------|

|--------------------------------------------------------------------------|
|--------------------------------------------------------------------------|
|---------------------------------10h12-12------------------10h12-12-------|
|------------------------------10----------1010~---------10----------1010~-|
|-10--------10-0-8-10-00-10h12------------------00-10h12-------------------|
|---8-8---8----------------------------------------------------------------|

|--------------------------------------------------------------------------------|
|--------------------------------------------------------------------------------|
|-------------10h12-12------------------10h12-12----12~------------10h12-12------|
|----------10----------1010~---------10----------10-------------10----------1010~|
|-00-10h12------------------00-10h12-------------------00-10h12------------------|
|--------------------------------------------------------------------------------|

|--------------------------------------------------------------------------------|
|--------------------------------------------------------------------------------|
|-------------10h12-12------------------10h12-12------------------10h12-12----12~|
|----------10----------1010~---------10----------1010~---------10----------10----|
|-00-10h12------------------00-10h12------------------00-10h12-------------------|
|--------------------------------------------------------------------------------|


2nd Verse:
|-----------------------------------------------------------------------|
|-----------------------------------------------------------------------|
|-----------------------------------------------------------------------|x4
|-7--77777--77777--77777--777710--1010101010--1010101012--121212129999--|
|-7--77777--77777--77777--777710--1010101010--1010101012--121212129999--|
|-5--55555--55555--55555--5555-8---8-8-8-8-8---8-8-8-810--101010107777--|

|-----------------------------------------------------------------------|
|-----------------------------------------------------------------------|
|-----------------------------------------------------------------------|
|-7--77777--77777--77777--777710--1010101010--1010101012121212121299999-|
|-7--77777--77777--77777--777710--1010101010--1010101012121212121299999-|
|-5--55555--55555--55555--5555-8---8-8-8-8-8---8-8-8-810101010101077777-|


2nd Chorus:
|-----------------------------------------------------|
|-----------------------------------------------------|
|--------------------------------------7h9-99~-9-9----|
|--7-77777-7777---------------------------------------|
|--7-77777-7777-10--------10-0-8-10-00----------------|
|--5-55555-5555---8-8---8-----------------------------|

|---------------------------------------|
|---------------------------------------|
|-------------------------7h9-99~-9-9---|x3
|---------------------------------------|
|-10--------10-0-8-10-00----------------|
|---8-8---8-----------------------------|

|-------------------------------|
|-------------------------------|
|-------------------------------| (Drum Fill)
|-------------------------------|
|-10--------10-0-8-10-0---------|
|---8-8---8---------------------|

|-------------------------------------------------------------------------------|
|-------------------------------------------------------------------------------|
|--------------10h12-12------------------10h12-12-----------------10h12-12------|
|-----------10----------1010~---------10----------1010~--------10----------1010~|
|--00-10h12------------------00-10h12------------------00-10h12-----------------|
|-------------------------------------------------------------------------------|

|--------------------------------------------------------------------------------|
|--------------------------------------------------------------------------------|
|-------------10h12-12------------------10h12-12----12~------------10h12-12------|
|----------10----------1010~---------10----------10-------------10----------1010~|
|-00-10h12------------------00-10h12-------------------00-10h12------------------|
|--------------------------------------------------------------------------------|

|--------------------------------------------------------------------------------|
|--------------------------------------------------------------------------------|
|-------------10h12-12------------------10h12-12------------------10h12-12----12~|
|----------10----------1010~---------10----------1010~---------10----------10----|
|-00-10h12------------------00-10h12------------------00-10h12-------------------|
|--------------------------------------------------------------------------------|

|-----------------------------------------------------------------------------|
|-----------------------------------------------------------------------------|
|-------------10h12-12----12~------------10h12----12~------------10h12----12~-|
|----------10----------10-------------10-------10-------------10-------10-----|
|-00-10h12-------------------00-10h12----------------00-10h12-----------------|
|-----------------------------------------------------------------------------|

|------------------------------|
|------------------------------|
|-------------10h12-12---12~---|
|----------10----------10------|
|-00-10h12------------------0--|
|------------------------------|


Breakdown: 
|--------------------------------------------------------------------------------------------|
|----------------10----------------------------10----------------------------10--------------|
|-------------12----------------------------12----------------------------12----12br-12-12~--|
|----------10-------12brp10--------------10-------12brp10--------------10--------------------|
|-00-10h12------------------12~-00-10h12------------------12~-00-10h12-----------------------|
|--------------------------------------------------------------------------------------------|


Solo: w/wah
|----------------------------------------------------------------------------------|
|----------------10----------------------------------------------------------------|
|-------------12-------------------------------------------------------------------|
|----------10-------12br-10-12-12b-------r-10h12-10~----12b--------r-10h12-10~-----|
|-00-10h12-------------------------------------------------------------------------|
|----------------------------------------------------------------------------------|

|----------------------------------------------------------------------------------|
|-13-13b-13b-13b-13b--13br-10--10h13-10~---10-13b-13-10----10-13-10-13b--13b(1313)r|
|-------------------------------------------------------12-------------------------|
|----------------------------------------------------------------------------------|
|----------------------------------------------------------------------------------|
|----------------------------------------------------------------------------------|

|----------------------------------------------------------------------------------|
|10--13b--13-10-13b--13-10-13b--13-10-13b----10~---10-13p10----13p10-13p10----13p10|
|-----------------------------------------------------------12-------------12------|
|----------------------------------------------------------------------------------|
|----------------------------------------------------------------------------------|
|----------------------------------------------------------------------------------|

|----------------------------------------------------------------------------------|
|----13p10-13p10----13p10-13p10----13p10-13p10----13p10----13p10-13p10----13p10----|
|-12-------------12-------------12-------------12-------12-------------12-------12-|
|----------------------------------------------------------------------------------|
|----------------------------------------------------------------------------------|
|----------------------------------------------------------------------------------|

|---------------------------------------------------------1717-20b--17h20p17---1717|
|-13p10-13b----10h13p10----10-----------------------------------------------20b----|
|-----------------------12----12-12~----12-12h14-12/14~----------------------------|
|----------------------------------------------------------------------------------|
|----------------------------------------------------------------------------------|
|----------------------------------------------------------------------------------|

|------1717-20b--17h20p17----1717--------------------------------------------------------|
|-20b---------------------20-------20b--20b(20)r-20br-20b(202020)r-20b(20)r-20b(20~20~)r-|
|----------------------------------------------------------------------------------------|
|----------------------------------------------------------------------------------------|
|----------------------------------------------------------------------------------------|
|----------------------------------------------------------------------------------------|

|----------------------------------------------------------------------------------|
|-20b(20)-r-20-20---20-17---20p17-20p17----20p17-20p17----20p17-20p17----------17~-|
|---------------------------------------19-------------19-------------19-17h19-----|
|----------------------------------------------------------------------------------|
|----------------------------------------------------------------------------------|
|----------------------------------------------------------------------------------|

|-------------17-20b--20b-20b-20br-17h20p17----------------------------------------|
|--20~--17-20-------------------------------20-17----------------------------------|
|--------------------------------------------------19~--17~--19~--17~--19~--17~----|
|----------------------------------------------------------------------------------|
|----------------------------------------------------------------------------------|
|----------------------------------------------------------------------------------|

|----------------------------------------------|
|----------------------------------------------|
|19~--17~--19~--17~--19~--17~--19~--17~-19~-\--|
|----------------------------------------------|
|----------------------------------------------|
|----------------------------------------------|


Outro:
|----------------------------------------------------------------------------------------|
|----------------10----------------------------10-------------------------10-------------|
|-------------12----------------------------12----12br-12-12~-----------12---------------|
|----------10-------12brp10--------------10--------------------------10------12brp10-----|
|-00-10h12------------------12~-00-10h12---------------------00-10h12----------------12~-|
|----------------------------------------------------------------------------------------|

|------------------------------------------------------------------------------------------|
|----------------10------------------------------------------------------------------------|
|-------------12----12br-12-12~--9-9------9-9------9-9------9-9------9-9------9-9-------9-9|
|----------10--------------------7-7------7-7------7-7------7-7------7-7------7-7-------7-7|
|-00-10h12-----------------------0-0------0-0------0-0------0-0------0-0------0-0-------0-0|
|------------------------------------------------------------------------------------------|

|---------------------------------------------------------------------------|
|---------------------------------------------------------------------------|
|----9-9------9-9------9-9------9-9--------9-9---------9-9---------9-9------|
|----7-7------7-7------7-7------7-7--------7-7---------7-7---------7-7------|
|----0-0------0-0------0-0------0-0--------0-0---------0-0---------0-0------|
|---------------------------------------------------------------------------|

|---------------------------------------------------------------------------|
|---------------------------------------------------------------------------|
|--9-9--------------9-9----------------9-9-----------------------9-9--------|
|--7-7--------------7-7----------------7-7-----------------------7-7--------|
|--0-0--------------0-0----------------0-0-----------------------0-0--------|
|---------------------------------------------------------------------------|





100 DEGREES

Intro: w/wah
|---------------------------------------------------------|
|---------------xxxxxx-----xxxxxx-----xxxxxx------xxxxxx--|
|---------------xxxxxx-----xxxxxx-----xxxxxx------xxxxxx--|
|-----------7/9-xxxxxx-7/9-xxxxxx-7/9-xxxxxx-12\9-xxxxxx--|
|---12\-----5/7--------5/7--------5/7--------10\7---------|
|---------------------------------------------------------|

|--------------------------------------------------|
|--------xxxxxx-----xxxxxx-----xxxxxx------xxxxxx--|
|--------xxxxxx-----xxxxxx-----xxxxxx------xxxxxx--|
|----7/9-xxxxxx-7/9-xxxxxx-7/9-xxxxxx-12\9-xxxxxx--|
|----5/7--------5/7--------5/7--------10\7---------|
|--------------------------------------------------|


Verse:
|------------------------------------------------------------|
|------------------------------------------------------------|
|------------------------------------------------------------|x2
|--7-9-9-9-9-9-9-7-9-9-9-9-9-9-7-9-9-9-9-9-9-/12-9-9-9-9-9-9-|
|--5-7-7-7-7-7-7-5-7-7-7-7-7-7-5-7-7-7-7-7-7-/10-7-7-7-7-7-7-|
|----0-0-0-0-0-0---0-0-0-0-0-0---0-0-0-0-0-0-----0-0-0-0-0-0-|

|------------------------------------------------------------|
|------------------------------------------------------------|
|------------------------------------------------------------|
|--7-9-9-9-9-9-9-7-9-9-9-9-9-9-7-9-9-9-9-9-9-/12-9-9-9-9b-\--|
|--5-7-7-7-7-7-7-5-7-7-7-7-7-7-5-7-7-7-7-7-7-/10-7-7-7-7b-\--|
|----0-0-0-0-0-0---0-0-0-0-0-0---0-0-0-0-0-0-----0-0-0-0-----|


Chorus:
|----------------------------------------------|
|----------------------------------------------|
|----------------------------------------------|x4
|----------------------------------------------|
|--2--5/7-7-7br-5--5/7\5-2---5/7-7-7b-5--2-2-5-|
|--0--3/5-5-5br-3--3/5\3-0---3/5-5-5b-3--0-0-3-|

|-----------------|
|-----------------|
|-----------------|
|-----------------|
|-2--5/7-7-7br-5--|
|-0--3/5-5-5br-3--|


1st Solo:
|--------------------------------------------------------------------------------------|
|------8~---8-10----------8~---8-10-10b-10~-----8~---8-10----------8~--8-10-10b-8---8~-|
|--7-9-----------9~---7-9-------------------7-9-----------9~---7-9----------------9----|
|--------------------------------------------------------------------------------------|
|--------------------------------------------------------------------------------------|
|--------------------------------------------------------------------------------------|


2nd Verse:
|------------------------------------------------------------|
|------------------------------------------------------------|
|------------------------------------------------------------|
|--7-9-9-9-9-9-9-7-9-9-9-9-9-9-7-9-9-9-9-9-9-/12-9-9-9-9-9-9-|
|--5-7-7-7-7-7-7-5-7-7-7-7-7-7-5-7-7-7-7-7-7-/10-7-7-7-7-7-7-|
|----0-0-0-0-0-0---0-0-0-0-0-0---0-0-0-0-0-0-----0-0-0-0-0-0-|

|------------------------------------------------------------|
|------------------------------------------------------------|
|------------------------------------------------------------|
|--7-9-9-9-9-9-9-7-9-9-9-9-9-9-7-9-9-9-9-9-9-/12-9-9-9-9b-\--|
|--5-7-7-7-7-7-7-5-7-7-7-7-7-7-5-7-7-7-7-7-7-/10-7-7-7-7b-\--|
|----0-0-0-0-0-0---0-0-0-0-0-0---0-0-0-0-0-0-----0-0-0-0-----|


2nd Chorus:
|----------------------------------------------|
|----------------------------------------------|
|----------------------------------------------|x4
|----------------------------------------------|
|--2--5/7-7-7br-5--5/7\5-2---5/7-7-7b-5--2-2-5-|
|--0--3/5-5-5br-3--3/5\3-0---3/5-5-5b-3--0-0-3-|

|-----------------------|
|-----------------------|
|-----------------------|
|-----------------------|
|-2--5/7-7-7br-5--5/7\5-|
|-0--3/5-5-5br-3--3/5\3-|


Break:
|------------------------------------------------------------12b-(12)r---------------|
|------------------------------------------------------------------------------------|
|------------------------------------------------------------------------------------|
|----------------5h7-7~--------------------------------------------------------------|
|-2--/7-7-7-7-7---------2--/7-7-7-7-7----------2--/7-7-7-7-7-----------2--/7-7-7-7-7-|
|-0---0-0-0-0-0---------0---0-0-0-0-0----------0---0-0-0-0-0-----------0---0-0-0-0-0-|


2nd Solo: w/wah
|----------------------------------------------------------------------|
|-15-15-xxx-15-15-15--xxxx-15-15-15-15--xxx-15-15-15-xxx-15-15-15-x-14-|
|-12-12-xxx-12-12-12--xxxx-12-12-12-12--xxx-12-12-12-xxx-12-12-12-x-12-|
|----------------------------------------------------------------------|
|----------------------------------------------------------------------|
|----------------------------------------------------------------------|

|--------------------------------------------------------------------|
|-15-15-xxxxx-15-xxx-15-15-15-15--xxx-15-15-15-15--xxx-15-15-xxx-14--|
|-12-12-xxxxx-12-xxx-12-12-12-12--xxx-12-12-12-12--xxx-12-12-xxx-12--|
|--------------------------------------------------------------------|
|--------------------------------------------------------------------|
|--------------------------------------------------------------------|

|---------15------------15-----------------15-----------15------------------|
|-14h15-x-15-xx-14h15-x-15-x-14-xx-14h15-x-15-x-14h15-x-15-14-14-xx-14h15-x-|
|-12----x----xx-12----x----x-12-xx-12----x----x-12----x-------12-xx-12----x-|
|---------------------------------------------------------------------------|
|---------------------------------------------------------------------------|
|---------------------------------------------------------------------------|

|-15------------15------------------------------|
|-15-xx-14h15-x-15-x-14-xx-14-14-xx-14-x-14-14--|
|----xx-12----x----x-12-xx-12-12-xx-12-x-12-12--|
|-----------------------------------------------|
|-----------------------------------------------|
|-----------------------------------------------|


Outro: Repeats until end
|------------------------------------------------------------|
|------------------------------------------------------------|
|------------------------------------------------------------|
|--7-9-9-9-9-9-9-7-9-9-9-9-9-9-7-9-9-9-9-9-9-/12-9-9-9-9-9-9-|
|--5-7-7-7-7-7-7-5-7-7-7-7-7-7-5-7-7-7-7-7-7-/10-7-7-7-7-7-7-|
|----0-0-0-0-0-0---0-0-0-0-0-0---0-0-0-0-0-0-----0-0-0-0-0-0-|





SPACE CADET

Bass Solo:
|---------------------------------------------------------------------------|
|---------------------------------------------------------------------------|
|---------------------------------------------------------------------------|
|---------------------------------------------------------------------------|
|-----7/9---9/10---10/12---12/13~-------13/14--13h14p13-14--/16-14-13h14p13-|
|---0-----0------0-------0------------0-------------------------------------|

|---------------------------------------------------------------------------|
|---------------------------------------------------------------------------|
|---------------------------------------------------------------------------|
|---------------------------------------------------------------------------|
|----13\11---11\9---9\7~-------7\5~-------/5-4---/7-5-4h5p4-0h2-----7---7~--|
|--0-------0------0----------0----------0------5------------------0---0-----|

|-------------------------------------------------------|
|-------------------------------------------------------|
|-------------------------------------------------------|
|-------------------------------------------------------|
|----7---7~-\------5---5~-\-------/5-4---/7-5-4h5p4-0h2-|
|--0---0---------0---0----------0------5----------------|


                     *the 3rd fret bends are very slight quarter step bends
|---------------------------------------------------|
|---------------------------------------------------|
|---------------------------------------------------|
|---------------------------------------------------|
|--------10\----7p5-------------------------5h7-----|
|--0-0-x------0------3b--0-0-x-3--0-3/5-5h7---------|

|---------------------------------------------------|
|---------------------------------------------------|
|---------------------------------------------------|
|---------------------------------------------------|
|--------10\----7p5-----------------7--5h7----------|
|--0-0-x------0------3b--0--3/5--/7-------5h7-3b----|


Guitar kicks in:
|----------------------------------------------------------|
|----------------------------------------------------------|
|-----------7------7-6h7p6--------------7------7-6h7-6~----|
|---------------------------7~-----------------------------|
|--7-7-x-----------------------7-7-x-----------------------|
|--0-0-x-0------0--------------0-0-x-0------0--------------|

|----------------------------------------------------------|
|----------------------------------------------------------|
|-----------7------7-6h7p6--------6-6h7-----6h7-6h7-6h7-6~-|
|---------------------------7~-----------------------------|
|--7-7-x-----------------------7---------------------------|
|--0-0-x-0------0--------------0---------0-----------------|

|----------------------------------------------------------|
|----------------------------------------------------------|
|-----------7------7-6h7p6--------------7------7-6h7-6~----|
|---------------------------7~-----------------------------|
|--7-7-x-----------------------7-7-x-----------------------|
|--0-0-x-0------0--------------0-0-x-0------0--------------|

|----------------------------------------------------------|
|----------------------------------------------------------|
|-----------7------7-6h7p6--------6-6h7-----6h7-6h7-6h7-6~-|
|---------------------------7~-----------------------------|
|--7-7-x-----------------------7---------------------------|
|--0-0-x-0------0--------------0---------0-----------------|


|----------------------------------------------------------|
|--8-8-x-8---8-8---x-8/10--8/10-8--7-8-7h8p7---------------|
|--7-7-x-7---7-6---x-x--x--x--x-x-----------9--7-9-9b-9~---|
|--5-5-x-5---5-5---x-5/-7--5--7-5--------------------------|
|----------------------------------------------------------|
|----------------------------------------------------------|

|----------------------------------------10----------------|
|--8-8-x-8---8-8---x-8/10--8/10-8--7h8p7----8-7---7--------|
|--7-7-x-7---7-6---x-x--x--x--x-x---------------9---9-9----|
|--5-5-x-5---5-5---x-5/-7--5--7-5--------------------------|
|----------------------------------------------------------|
|----------------------------------------------------------|


|----------------------------------------------------------|
|----------------------------------------------------------|
|-----------7------7-6h7p6--------------7------7-6h7-6~----|
|---------------------------7~-----------------------------|
|--7-7-x-----------------------7-7-x-----------------------|
|--0-0-x-0------0--------------0-0-x-0------0--------------|

|----------------------------------------------------------|
|----------------------------------------------------------|
|-----------7------7-6h7p6--------6-6h7-----6h7-6h7-6h7-6~-|
|---------------------------7~-----------------------------|
|--7-7-x-----------------------7---------------------------|
|--0-0-x-0------0--------------0---------0-----------------|

|----------------------------------------------------------|
|----------------------------------------------------------|
|-----------7------7-6h7p6--------------7------7-6h7-6~----|
|---------------------------7~-----------------------------|
|--7-7-x-----------------------7-7-x-----------------------|
|--0-0-x-0------0--------------0-0-x-0------0--------------|

|----------------------------------------------------------|
|----------------------------------------------------------|
|-----------7------7-6h7p6--------6-6h7-----6h7-6h7-6h7-6~-|
|---------------------------7~-----------------------------|
|--7-7-x-----------------------7---------------------------|
|--0-0-x-0------0--------------0---------0-----------------|


Verse:
|---------------------------------------------------------------------------------|
|---------------------------------------------------------------------------------|
|--7-----7-9-7-6------6h7p6-7-9-/12-9~-----7-----7-6h7p6------------7-----7-6h7-6~|x3
|--------------------------------------------------------7~-----------------------|
|------7------------7---------------------------------------7-7-x-----------------|
|---------------------------------------0------0------------0-0-x-0-----0---------|

|----------------------------------------------------------------------|
|----------------------------------------------------------------------|
|--7-----7-9-7-6------6h7p6-7-9-/12-9~------9-----9-----9-----9--9-9---|
|----------------------------------------------------------------x-x---|
|------7------------7-------------------7------7-----7-----7-----7-7---|
|----------------------------------------------------------------------|


Chorus:
|----------0--------10-12-------|
|--8-8-x---8--10-12-------------|
|--9-9-x---9--------------0-----|x16
|--9-9-x---9--------------0-----|
|--7-7-x---7--------------------|
|-------------------------------|

|--------------------------------------------------------------------|
|--8-8-x-8---8-8---x-8/10--8/10-8--7h8p7---7h8p7-------7h8p7-------7-|
|--7-7-x-7---7-6---x-x--x--x--x-x--------9-------9-7-9-------9-7-9---|
|--5-5-x-5---5-5---x-5/-7--5--7-5------------------------------------|
|--------------------------------------------------------------------|
|--------------------------------------------------------------------|

|-----------------------------------------------------------|
|--8-8-x-8---8-8---x-8/10--8/10-8--7h8p7----7------7--------|
|--7-7-x-7---7-6---x-x--x--x--x-x---------9---9--9---9---9\-|
|--5-5-x-5---5-5---x-5/-7--5--7-5---------------------------|
|-----------------------------------------------------------|
|-----------------------------------------------------------|

|----------0--------10-12-------|
|--8-8-x---8--10-12-------------|
|--9-9-x---9--------------0-----|x4
|--9-9-x---9--------------0-----|
|--7-7-x---7--------------------|
|-------------------------------|


Solo:
|-/12----12----12----12----12----14----------14----12----12---12----10-12-10--9-|
|-/12-12-12-12-12-12-12-12-12-12-12-12-12-12-12-12-12-12-12---12-12-12-12-12-12-|
|-------------------------------------------------------------------------------|
|-------------------------------------------------------------------------------|
|-------------------------------------------------------------------------------|
|-------------------------------------------------------------------------------|

|------9h10--9h10-12-10--9-----9h10-12-10--9-----9h10-10--9---9---9\7-x-7-x-9---|
|--10-10----10----10-10-10-10-10----10-10-10-10-10----10-10--10--10\8-x-8-x-10b-|
|-------------------------------------------------------------------------------|
|-------------------------------------------------------------------------------|
|-------------------------------------------------------------------------------|
|-------------------------------------------------------------------------------|

|-x-7-7-xx--9\7-x-7-x--9--x-7-7\-x--12----12----12----12----12-------14----14---|
|-x-8-8-xx-10\8-x-8-x-10b-x-8-8\-x--12-12-12-12-12-12-12-12-12-12-12-12-xx-12-12|
|-------------------------------------------------------------------------------|
|-------------------------------------------------------------------------------|
|-------------------------------------------------------------------------------|
|-------------------------------------------------------------------------------|

|---12------14----15----15----15----15----15------15-15-15----15-15-------15----|
|-x-12-12-x-12----12-12-12-12-12-12-12-12-12-x-12-12-12-12-12-12----12-12-12-12-|
|-------------------------------------------------------------------------------|
|-------------------------------------------------------------------------------|
|-------------------------------------------------------------------------------|
|-------------------------------------------------------------------------------|

|---15----14-14-14-12-12-10--12-10--9-----9-10-12----12-10--9-10--12----12-10-9-|
|xx-12-12-12-12-12-12-12-12--10-10-10-10-10-10-10-10-10-10-10-10--10-10-10-10-10|
|-------------------------------------------------------------------------------|
|-------------------------------------------------------------------------------|
|-------------------------------------------------------------------------------|
|-------------------------------------------------------------------------------|

|-----9-10----12-10--9-----9-10-----9-10----12-10--9-----9-10---9--9--9--9-x-x--|
|-10-10-10-10-10-10-10-10-10-10-10-10-10-10-10-10-10-10-10-10--10-10-10-10-x-x--|
|-------------------------------------------------------------------------------|
|-------------------------------------------------------------------------------|
|-------------------------------------------------------------------------------|
|-------------------------------------------------------------------------------|

|---9\7-x-7-x--9--x-7-7---9\7-x-7-x--9--x-7-7--|
|--10\8-x-8-x-10b-x-8-8--10\8-x-8-x-10b-x-8-8--|
|----------------------------------------------|
|----------------------------------------------|
|----------------------------------------------|
|----------------------------------------------|

|----------------------------------------------------------|
|----------------------------------------------------------|
|-----------7------7-6h7p6--------------7------7-6h7-6~----|
|---------------------------7~-----------------------------|
|--7-7-x-----------------------7-7-x-----------------------|
|--0-0-x-0------0--------------0-0-x-0------0--------------|

|----------------------------------------------------------|
|----------------------------------------------------------|
|-----------7------7-6h7p6--------6-6h7-----6h7-6h7-6h7-6~-|
|---------------------------7~-----------------------------|
|--7-7-x-----------------------7---------------------------|
|--0-0-x-0------0--------------0---------0-----------------|


2nd Verse:
|---------------------------------------------------------------------------------|
|---------------------------------------------------------------------------------|
|--7-----7-9-7-6------6h7p6-7-9-/12-9~-----7-----7-6h7p6------------7-----7-6h7-6~|x3
|--------------------------------------------------------7~-----------------------|
|------7------------7---------------------------------------7-7-x-----------------|
|---------------------------------------0------0------------0-0-x-0-----0---------|

|----------------------------------------------------------------|
|----------------------------------------------------------------|
|--7-----7-9-7-6------6h7p6-7-9-/12-9~---9--9--9--9--9--9--9--9--|
|----------------------------------------------------x--x--x--x--|
|------7------------7--------------------------------7--7--7--7--|
|----------------------------------------------------------------|


2nd Chorus:
|----------0--------10-12-------|
|--8-8-x---8--10-12-------------|
|--9-9-x---9--------------0-----|x12
|--9-9-x---9--------------0-----|
|--7-7-x---7--------------------|
|-------------------------------|

|------------------------------------0--------10-12------|
|--8-8-x--10--8-10-8-10-8-10-8-8-x---8--10-12------------|
|--9-9-x---9--9--9-9--9-9--9-9-9-x---9--------------0----|x2
|--9-9-x---------------------9-9-x---9--------------0----|
|--7-7-x---------------------7-7-x---7-------------------|
|--------------------------------------------------------|

|-----------------------------------------------------------|
|--8-8-x-8---8-8---x-8/10--8/10-8--7h8p7----7------7--------|
|--7-7-x-7---7-6---x-x--x--x--x-x---------9---9--9---9---9\-|
|--5-5-x-5---5-5---x-5/-7--5--7-5---------------------------|
|-----------------------------------------------------------|
|-----------------------------------------------------------|

|----------------------------------------10---------------------------|
|--8-8-x-8---8-8---x-8/10--8/10-8--7h8p7----8-7-7-8-7h8p7-------8-7---|
|--7-7-x-7---7-6---x-x--x--x--x-x-------------------------9-7-9-------|
|--5-5-x-5---5-5---x-5/-7--5--7-5-------------------------------------|
|---------------------------------------------------------------------|
|---------------------------------------------------------------------|

|-----------------------------------------------------------|
|--8-8-x-8---8-8---x-8/10--8/10-8--8----------------8-------|
|--7-7-x-7---7-6---x-x--x--x--x-x-----7--6----6--7----------|
|--5-5-x-5---5-5---x-5/-7--5--7-5----------9----------------|
|-----------------------------------------------------------|
|-----------------------------------------------------------|

|-----------------------------------------|
|--8-8-x-8---8-8---x-8/10--8/10--8--------|
|--7-7-x-7---7-6---x-x--x--x--x--x--------|
|--5-5-x-5---5-5---x-5/-7--5--7--5--------|
|-----------------------------------------|
|-----------------------------------------|





DEMON CLEANER

Intro:                                        
                                              x3
|------------------------------------------------|----------------------------------------------|
|------------------------------------------------|----------------------------------------------|
|------12-10~---12-10-12-/14--15-14--12~--14-----|----12-10~---12-10-12-/14-15-14--15-14--15-14~|
|--------------------------------------------12~-|----------------------------------------------|
|------------------------------------------------|----------------------------------------------|
|--10--------------------------------------------|-10-------------------------------------------|


Verse:                 
|-----------------------------------------------------------------------------------|
|-----------------------------------------------------------------------------------| 
|-----------------------------------------------------------------------------8-----|x4
|--7---5h7------------7---5h7------------7---5h7------------7---5h7-----5-5h7-------|
|--5-5-----5---5-/8---5-5-----5---5-/8---5-5-----5---5-/8---5-5-----5---------------|
|-----------------------------------------------------------------------------------|


1st Chorus:
|----------------------------------------------------------------------------|
|----------------------------------------------------------------------------|
|-----/10-8~-10-8-10~----/10-8~-10-8-10~----7h8p7~--7~---7h8p7~--7~----------|
|----------------------------------------------------------------------------|
|--5-------------------5------------------5------------5---------------------|
|----------------------------------------------------------------------------|

|----------------------------------------------------------------------------|
|----------------------------------------------------------------------------|
|-----/10-8~-10-8-10~----/10-8~-10-8-10~----7h8p7~--7~---/8-7-7h8p7h8p7h8p7--|
|----------------------------------------------------------------------------|
|--5-------------------5------------------5------------5---------------------|
|----------------------------------------------------------------------------|


2nd Verse:                 
|-----------------------------------------------------------------------------------|
|-----------------------------------------------------------------------------------| 
|-----------------------------------------------------------------------------8-----|x2
|--7---5h7------------7---5h7------------7---5h7------------7---5h7-----5-5h7-------|
|--5-5-----5---5-/8---5-5-----5---5-/8---5-5-----5---5-/8---5-5----5----------------|
|-----------------------------------------------------------------------------------|


2nd Chorus:
|-------------------------------------------------|-----------------------------------------------|
|-------------------------------------------------|-----------------------------------------------|
|-------12-10~---12-10-12-/14--15-14--12~--14-----|-----12-10~---12-10-12-/14-15-14--15-14--15-14~|
|---------------------------------------------12~-|-----------------------------------------------|
|-------------------------------------------------|-----------------------------------------------|
|--10---------------------------------------------|-10--------------------------------------------|


|-------------------------------------------------|--------------------------------------------|
|-------------------------------------------------|---------13--15-15b(gradual)-------------r--|
|------12-10~---12-10-12-/14--15-14--12~--14------|--12-14-------------------------------------|
|--------------------------------------------12~--|--------------------------------------------|
|-------------------------------------------------|--------------------------------------------|
|--10---------------------------------------------|--------------------------------------------|


3rd Verse:                 
|-----------------------------------------------------------------------------------|
|-----------------------------------------------------------------------------------| 
|-----------------------------------------------------------------------------8-----|x2
|--7---5h7------------7---5h7------------7---5h7------------7---5h7-----5-5h7-------|
|--5-5-----5---5-/8---5-5-----5---5-/8---5-5-----5---5-/8---5-5----5----------------|
|-----------------------------------------------------------------------------------|


3rd Chorus:
|--------------------------------------| x4
|--------------------------------------|
|----7b--7b--7b--7b--7b--7b--7b-5------|
|--------------------------------------|
|--5---5---5---5---5---5---5----3------|
|--------------------------------------|

|-------------------| 
|-------------------| x9
|----7b--7b--7b--7b-|
|-------------------|
|--5---5---5---5----|
|-------------------|

|----------------------------------------------------------------------------|
|----------------------------------------------------------------------------| x3
|----7b--7b--7b--7/9\5---5---5---5---5/7\3---3---3---3---5---7b--7b--7b--7b--|
|----------------------------------------------------------------------------|
|--5---5---5---5-------3---3---3---3-------1---1---1---3---5---5---5---5-----|
|----------------------------------------------------------------------------|

                                                                                               X3
|--------------------------------------------------------------------------------------------------|
|--------------------------------------------------------------------------------------------------|
|-7--7-7--7-7-7-7--7-7-7-7--5--5-5--5-5-5-5--5-5-5-5--3--3-3--3-3-3-3--3-3-3/5-5--7--7-7--7-7-7--7-|
|-7--7-7--7-7-7-7--7-7-7-7--5--5-5--5-5-5-5--5-5-5-5--3--3-3--3-3-3-3--3-3-3/5-5--7--7-7--7-7-7--7-|
|-5--5-5--5-5-5-5--5-5-5-5--3--3-3--3-3-3-3--3-3-3-3--1--1-1--1-1-1-1--1-1-1/3-3--5--5-5--5-5-5--5-|
|--------------------------------------------------------------------------------------------------|


Solo

Guitar I:
|-----------------------------------------------------------------|
|-----------------------------------------------------------------|
|--/14~-1414~-1414~-1414~-1414~-1414~-14-14-14-14-12-12-14~-12-14-|
|-----------------------------------------------------------------|
|-----------------------------------------------------------------|
|-----------------------------------------------------------------|
                                      
|----------------------------------------------------|
|----------13-15-13-15b-15b15b15b15b(151515)r--------|*gradually release with each note
|-12-12h14-------------------------------------------|
|----------------------------------------------------|
|----------------------------------------------------|
|----------------------------------------------------|

|-------------------------------------------------------------------------------------|
|-13h15p13----13h15p13----13h15p13----13h15p13----13h15p13----13h15p13----13h15p13----|
|----------14----------14----------14----------14----------14----------14----------14-|
|-------------------------------------------------------------------------------------|
|-------------------------------------------------------------------------------------|
|-------------------------------------------------------------------------------------|

|----------------------------------------------------------------|
|-13h15p13----13h15p13----13h15p13----13h15p13----13-15b-15b-15b-|
|----------14----------14----------14----------14----------------|
|----------------------------------------------------------------|
|----------------------------------------------------------------|
|----------------------------------------------------------------|

|-----------------------------------------------------------------------------------|
|-13h15p13----13--------------------------------------------------------------------|
|----------14---14/12-1010-12b-10-12b-10-12b---12---10h12p10----10-12b-12b-12b--12--|
|------------------------------------------------------------12---------------------|
|-----------------------------------------------------------------------------------|
|-----------------------------------------------------------------------------------|

|-----------------------------------------------|
|-----------------------------------------------|
|---10--9--10--9--7--9--7--/9--10--9--10--/12---|
|-----------------------------------------------|
|-----------------------------------------------|
|-----------------------------------------------|

|-------------------------------------------------------------------------------------------------|
|-------------------------------------------------------------------------------------------------|
|12b-12-12p10----10-12-10-12-10--12b--r-12p10----10-12-10-12-10--12b-12-12p10----10---------------|
|-------------12------------------------------12------------------------------12----12p10-12p10-12|
|-------------------------------------------------------------------------------------------------|
|-------------------------------------------------------------------------------------------------|

|-------------------------------------------------------------------------------------------------|
|-------------13--------------13--13--13--13--13--13---13---13---13---13---13---13---13-13-13-13--|
|-------10h12-12b(12)rp10-----12b-12b-12b-12b-12b---12b--12b--12b--12b--12b--12b--12b12b12b12b12b-|
|-10h12-------------------12----------------------------------------------------------------------|
|-------------------------------------------------------------------------------------------------|
|-------------------------------------------------------------------------------------------------|

|-------------------------------------------------------------------------------------|
|-13-15b-15b-15b-15b---15b--15--13----------------------------------------------------|
|-----------------------------------16--16\14--12--12\10--12--10--9--10--9--12--10--9-|
|-------------------------------------------------------------------------------------|
|-------------------------------------------------------------------------------------|
|-------------------------------------------------------------------------------------|

                  Fade Out
|------------------------|
|------------------------|
|-7--5----7--5-7----5-7--|
|------------------------|
|------------------------|
|------------------------|

Guitar II: 
|--------------------------------------------------|
|--------------------------------------------------|
|--14--1414--1414-141414br--12--1212--1212-121212br|
|--------------------------------------------------|
|--------------------------------------------------|
|--------------------------------------------------|

|-----------------------------------------------------------|
|----------------------------------------------------15b-15-|
|--10--1010-101010/1212-12/14-141414--1414--14141214--------|
|-----------------------------------------------------------|
|-----------------------------------------------------------|
|-----------------------------------------------------------|

|--------------------------------------------------|
|--------------------------------------------------|
|--14--1414--1414-141414br--12--1212--1212-121212br|
|--------------------------------------------------|
|--------------------------------------------------|
|--------------------------------------------------|

|-----------------------------------------------------------|
|----------------------------------------------------15b-15-|
|--10--1010-101010/1212-12/14-141414--1414--14141214--------|
|-----------------------------------------------------------|
|-----------------------------------------------------------|
|-----------------------------------------------------------|

|----------------------------------------------------------------------------------|
|--15b-15--13h15p13----13-15-13-15-13--15b-15--13h15p13----13-15-13-15-13--15b-15--|
|-------------------14----------------------------------14-------------------------|
|----------------------------------------------------------------------------------|
|----------------------------------------------------------------------------------|
|----------------------------------------------------------------------------------|

|-------------------------------------------------------------------------------------------|
|-13h15p13----13h15p13----13h15p13----13h15p13----13h15p13----13h15p13----13h15p13----13tr15|
|----------14----------14----------14----------14----------14----------14----------14-------|
|-------------------------------------------------------------------------------------------|
|-------------------------------------------------------------------------------------------|
|-------------------------------------------------------------------------------------------|

|--------------------------------------------------------------------------|
|--15b-15-13h15p13----13---------------------------------------------------|
|------------------14----14\12-1010-12b(12)rp10----10------10-12p10----10--|
|-----------------------------------------------12------12----------12-----|
|--------------------------------------------------------------------------|
|--------------------------------------------------------------------------|

|----------------------------------------------------------------|
|--13--13--------------13--13--------------13--13----------------|
|--12b----12rp10----10-12b----12rp10----10-12b----12rp10----10~--|
|----------------12------------------12------------------12------|
|----------------------------------------------------------------|
|----------------------------------------------------------------|

|--------------------------------------------------------------------------------------|
|--------------------------------------------------------------------------------------|
|-----10-12p10----10-12p10----10-12p10----10-12p10----10-12p10----10-12p10----10-12p10-|
|--12----------12----------12----------12----------12----------12----------12----------|
|--------------------------------------------------------------------------------------|
|--------------------------------------------------------------------------------------|

|----------------------------------------------------------------------------|
|----------------------------------------------------------------------------|
|-----10-12p10----10-12p10----10-12p10----10-12p10----10-12p10----10-12p10---|
|--12----------12----------12----------12----------12----------12------------|
|----------------------------------------------------------------------------|
|----------------------------------------------------------------------------|

|--------------------------------------|
|--------------------------------------|
|-----10-12p10-12p10-12b(12)rp10-------|
|--12----------------------------12----|
|--------------------------------------|
|--------------------------------------|                                                     
                                                        Fade out
|------------------------------------------------------------------|
|------------------------------------------------------------------|
|------------17h19-------17h19-------17h19-------17h19-------17h19-|
|------17h19-------17h19-------17h19-------17h19-------17h19-------|
|------------------------------------------------------------------|
|------------------------------------------------------------------|






ODYSSEY

Intro:
|---------------------------------------------------------------------------|
|---------------------------------------------------------------------------|
|---------------------------------------------------------------------------|
|--7h9--9----9----9-10p7---10p7---7---7-7h9-9---9---9-10p7---10p7---9/12----|
|--7----7--7----7--------7------7-------7---7-7----7-------7------7--/10--10|
|---------------------------------------------------------------------------|

|---------------------------------------------------------------------------|
|---------------------------------------------------------------------------|
|---------------------------------------------------------------------------|
|----12--7h9--9----9----9-10p7---10p7---7--7-7h9-9---9---9-10p7---10p7----7-|
|-10-----7----7--7----7--------7------7------7---7-7---7--------7------7--7-|
|---------------------------------------------------------------------------|


Verse Riff:
|-------------------------------|
|-------------------------------|
|-------------------------------|x15
|--9--9-9-----------------5-----|
|--7--7-7-8p7-7-10p7-777--3-5---|
|--0------------------------3---|

|------------------------------------|
|------------------------------------|
|------------------------------------|
|--7h9-9-9--7h9-9-9--7h9-9--7h9-9-9--|
|--7---7-7--7---7-7--7---7--7---7-7--|
|------------------------------------|


Chorus:                 
|---------------------------------------------------------------------------------------|
|---------------------------------------------------------------------------------------|
|----------9~------------------9---9------------------9~------------------9---9---------|
|--9-9-888----12---12--9-9-888---8---12---12--9-9-888----12---12--9-9-888---8----12---12|
|--7-7--------10---10--7-7-----------10---10--7-7--------10---10--7-7------------10---10|
|--0-0-----------0-----0-0--------------0-----0-0-----------0-----0-0---------------0---|
PM            .......                .......             ........                .......

|--------------------------------|
|--------------------------------|
|--------------------------------|
|--9------------12-12-12-12-12---|
|--7------------10-10-10-10-10---|
|--0-----------------------------|


2nd Verse:
|-------------------------------|
|-------------------------------|
|-------------------------------|x7
|--9--9-9-----------------5-----|
|--7--7-7-8p7-7-10p7-777--3-5---|
|--0------------------------3---|

|------------------------------------|
|------------------------------------|
|------------------------------------|
|--7h9-9-9--7h9-9-9--7h9-9--7h9-9-9--|
|--7---7-7--7---7-7--7---7--7---7-7--|
|------------------------------------|


2nd Chorus:                 
|---------------------------------------------------------------------------------------|
|---------------------------------------------------------------------------------------|
|----------9~------------------9---9------------------9~------------------9---9---------|
|--9-9-888----12---12--9-9-888---8---12---12--9-9-888----12---12--9-9-888---8----12---12|
|--7-7--------10---10--7-7-----------10---10--7-7--------10---10--7-7------------10---10|
|--0-0-----------0-----0-0--------------0-----0-0-----------0-----0-0---------------0---|
PM            .......                .......             ........                .......

|---------------------------------------------------------------------------------------|
|---------------------------------------------------------------------------------------|
|---------9---9br---------9---9br---------9---9br--------9---9br--------------9---------|
|-9-9-888---8-----9-9-888---8-----9-9-888---8----9-9-888---8--------------7-9---8~------|
|-7-7-------------7-7-------------7-7------------7-7---------------7-9-10---------------|
|-0-0-------------0-0-------------0-0------------0-0------------------------------------|


Solo:
|---------------------------------------------------------------------------------|
|---------------------------------------------------------------------------------|
|---------------------------------------------------------------------------------|
|---------------------------------------------------------------------------------|
|--10--10-12p10---10-10-10-12p10----10--10-12p10---10-10-10-12p10----10--10-12p10-|
|--------------------------------12-------------------------------12--------------|

|---------------------------------------------------------------------------------|
|---------------------------------------------------------------------------------|
|---------------------------------------------------------------------------------|
|---------------------------------------------------------------------------------|
|-10-10-10-12p10----10--10-12p10---10-10-10-10h12p10-----------10h12-12brp10----10|
|----------------12----------------------------------12---10h12--------------12---|

|---------------------------------------------------------------------------------|
|---------------------------------------------------------------------------------|
|---------------------------------------------------------------------------------|
|---------------------------------------------------------------------------------|
|-10----------10h12-12brp10----10--10------------10h12-12brp10----10--10-12-------|
|----12--10h12--------------12--------12xx--10h12--------------12-----------xxx---|

|---------------------------------------------------------------------------------|
|---------------------------------------------------------------------------------|
|---------------------------------------------------------------------------------|
|------------------------12h14-14~------------------------------12h14--14~--------|
|------10h12--10/12-12h14------------------10h12-----10/12-12h14------------------|
|-10h12----------------------------10-10h12-----10-10---------------------10-10h12|

|---------------------------------------------------------------------------------|
|---------------------------------------------------------------------------------|
|---------------------------------------------------------------------------------|
|---------------------12h14-14~------------------------------12h14-14~-12h14p12---|
|10h12-----10/12-12h14------------------10h12-----10/12-12h14-------------------14|
|-----10-10---------------------10-10h12-----10-10--------------------------------|

|---------------------------------------------------------------------------------------|
|----------------------------------------12-12-12b-12------------------14-14-12-14p12---|
|----------------------------------------12-12-12b-12---------------12-14-14-12-14p12---|
|----14--12-14-12-14-12------------12-14--------------14---12-12h14-------------------14|
|-14-------------------14----12-14------------------------------------------------------|
|---------------------------------------------------------------------------------------|

|---------------------------------------------------------------------|
|-------------14-14-12-14p12-14p12-14p12-14p12-14p12-14p12-14b--------|
|----------12-14-14-12-14p12-14p12-14p12-14p12-14p12-14p12-14b--------|
|-12-12h14------------------------------------------------------------|
|---------------------------------------------------------------------|
|---------------------------------------------------------------------|


Bridge:
|-----------------------------------------------------------------------------|
|-----------------------------------------------------------------------------|
|-----------------------------------------------------------------------------|
|-7h9-9---9---9---10p7---10p7---7--7-7h9-9---9---9---10p7---10p7---7------12/-|
|-7---7-7---7---7------7------7-7----7---7-7---7---7------7------7-7-7/10-----|
|-----------------------------------------------------------------------------|

|-----------------------------------------------------------------------------|
|-----------------------------------------------------------------------------|
|-----------------------------------------------------------------------------|
|-7h9-9---9---9---10p7---10p7---7----------12-7h9-9---9---9---10p7---10p7---7-|
|-7---7-7---7---7------7------7-7--7/10-10----7---7-7---7---7------7------7-7-|
|-----------------------------------------------------------------------------|

|-----------------------------------------------------------------------------|
|-----------------------------------------------------------------------------|
|-----------------------------------------------------------------------------|
|-7-7h9---9---9--10p7---10p7---9/12--7h9-9---9---9---10p7---10p7---7------12--|
|---7---7---7---------7------7--/10--7---7-7---7---7------7------7-7-7/10-----|
|-----------------------------------------------------------------------------|

|----------------------------------------|
|----------------------------------------|
|----------------------------------------|
|-7h9-9-9---9---9---9---10p7---10p7---7--|
|-7---7---7---7---7---7------7------7-7--|
|----------------------------------------|
 

3rd Verse:
|-------------------------------|
|-------------------------------|
|-------------------------------|x7
|--9--9-9-----------------5-----|
|--7--7-7-8p7-7-10p7-777--3-5---|
|--0------------------------3---|

|------------------------------------|
|------------------------------------|
|------------------------------------|
|--7h9-9-9--7h9-9-9--7h9-9--7h9-9-9--|
|--7---7-7--7---7-7--7---7--7---7-7--|
|------------------------------------|


3rd Chorus:                 
|---------------------------------------------------------------------------------------|
|---------------------------------------------------------------------------------------|
|----------9~------------------9---9------------------9~------------------9---9---------|
|--9-9-888----12---12--9-9-888---8---12---12--9-9-888----12---12--9-9-888---8----12---12|
|--7-7--------10---10--7-7-----------10---10--7-7--------10---10--7-7------------10---10|
|--0-0-----------0-----0-0--------------0-----0-0-----------0-----0-0---------------0---|
PM            .......                .......             ........                .......

|-------------------------------------------------------------------------------------------|
|-------------------------------------------------------------------------------------------|
|---------9---9br---------9---9br---------9---9br--------9---9br----------------------------|
|-9-9-888---8-----9-9-888---8-----9-9-888---8----9-9-888---8-----9---------12-12-12-12-12-9-|
|-7-7-------------7-7-------------7-7------------7-7-------------7---------10-10-10-10-10-7-|
|-0-0-------------0-0-------------0-0------------0-0-------------0------------------------0-|






CONAN TROUTMAN

Intro:
|---------------------------------------|
|---------------------------------------|
|--9-----9-----9---9-9------------------|x3
|--9-----9-----9---9-9-0----------------|
|--7-7-7-7-7-7-7-7-7-7-0-5/7--5--5/7-5--|
|------------------------3/5--3--3/5-3--|

|----------------------------------------|
|----------------------------------------|
|--9-----9-----9---9-9-------------------|
|--9-----9-----9---9-9-0-----------------|
|--7-7-7-7-7-7-7-7-7-7-0-5/7--5--5/7-5-5-|
|------------------------3/5--3--3/5-3-3-|


Verse:
|--------------------------------------|
|--------------------------------------|
|--------------------------------------|x12
|--12\9--9--9--9-9---------------------|
|--10\7--7--7--7-7--5/7-7-7-7/9-9/12---|
|-------------------3/5-5-5-5/7-7/10---|


|---------------------------------------------|
|---------------------------------------------|
|---------------------------------------------|
|---/12-12-12-12-12-12-12---9-12--9-12--9-9---|
|---/10-10-10-10-10-10-10---7-10--7-10--7-7---|
|---------------------------------------------|

|---------------------------------------------|
|---------------------------------------------|
|---------------------------------------------|
|---/12-12-12-12-12-12-12---9-12--/14-12--9-9-|
|---/10-10-10-10-10-10-10---7-10--/12-10--7-7-|
|---------------------------------------------|

|------------------------------------------------------------------------|
|------------------------------------------------------------------------|
|------------------------------------------------------------------------|
|---/12-12-12-12-12-12-12---9-12--12/14-14br-14-9-9b-9-9b-9-9b-9-9b-9-9b-9|
|---/10-10-10-10-10-10-10---7-10--10/12-12br-12-7-7b-7-7b-7-7b-7-7b-7-7b-7|
|------------------------------------------------------------------------|


2nd Verse:
|--------------------------------------|
|--------------------------------------|
|--------------------------------------|x3
|--12\9--9--9--9-9---------------------|
|--10\7--7--7--7-7--5/7-7-7-7/9-9/12---|
|-------------------3/5-5-5-5/7-7/10---|

|----------------------------------------|
|----------------------------------------|
|----------------------------------------|
|--12\9--9--9-/14-12---------------------|
|--10\7--7--7-/12-10--5/7-7-7-7/9-9/12---|
|---------------------3/5-5-5-5/7-7/10---|

|--------------------------------------|
|--------------------------------------|
|--------------------------------------|x3
|--12\9--9--9--9-9---------------------|
|--10\7--7--7--7-7--5/7-7-7-7/9-9/12---|
|-------------------3/5-5-5-5/7-7/10---|

|--------------------------------|
|--------------------------------|
|--------------------------------|
|--12\9--9-9--9-9--9-9-9-9-9-9---|
|--10\7--7-7--7-7--7-7-7-7-7-7---|
|--------------------------------|


Solo: w/wah
|--------------------------------------------------------------------|
|--------------------------------------------------------------------|
|--2b----0h2p0-----------0--2b--0---------0-----0---------0---0-2br--|
|--------------2~----0-2----------2~--0-2---2br---2br-br----2--------|
|--------------------------------------------------------------------|
|--------------------------------------------------------------------|

|----------------------------------15-----------------------------------|
|-----------------------------17b--17b---15--15--15---------------------|
|--12tr\-----14tr\-----16tr--------------14b-14b-14br--------12----14b--|
|------------------------------------------------------12-14----14-14b--|
|-----------------------------------------------------------------------|
|-----------------------------------------------------------------------|

|-----------------------------------------|
|-----------------------------------------|
|--14b-14b-14b-14b-14b-14b-14b------9-----|
|--14b-14b-14b-14b-14b-14b-14b------9-----|
|-----------------------------------7-----|
|-----------------------------------------|





N.O

Main Riff:
G1
|---------------------------|
|---------------------------|
|---------------------------|x14
|------------------/11-9~---|
|--7--9p7--------7----------|
|---------9--7h9------------|

G2                                                          x8
|----------9-9\----9-9\---9-9\-|-------------------------------|
|----------9-9\----9-9\---9-9\-|-------------------------------|
|--9-9-------------------------|---------------------/13-11----|
|--9-9-------------------------|---9-11p9----------9-----------|
|------------------------------|----------11--9h11-------------|
|------------------------------|-------------------------------|


Verse:
|----------------------------------------------------------------------------|
|----------------------------------------------------------------------------|
|----------------------------------------------------------------------------|
|--7--7-7--7-7--7-7--7-7--7-7--7-7--7-7--7-6--6-6--6-6--6-6--6-/9-9-9-9-9-9\-|
|--7--7-7--7-7--7-7--7-7--7-7--7-7--7-7--7-6--6-6--6-6--6-6--6-/7-7-7-7-7-7\-|
|--5--5-5--5-5--5-5--5-5--5-5--5-5--5-5--5-4--4-4--4-4--4-4--4---------------|

|-----------------------------------------------------------|
|-----------------------------------------------------------|
|-----------------------------------------------------------|x2
|-----------------------------------------------------------|
|----------7h9-7-9br-9-7-----10~-----------7h9-7-9br-9-7----|
|---7h9-99---------------9-7--------7h9-99---------------9--|


|-----------------------------------------------------------|
|-----------------------------------------------------------|
|-----------------------------------------------------------|
|----------7h9-7-9br-9-7-----10~-----------7h9-7-9b---r-----|
|---7h9-99---------------9-7--------7h9-99------------------|
|-----------------------------------------------------------|

G2 plays this fill:
|--------------------------------|
|-----------------------12b--10~-|
|---------------9--11------------|
|-------7h9/11-------------------|
|--7h9---------------------------|
|--------------------------------|

|------------------------------------------------------------------------|
|------------------------------------------------------------------------|
|------------------------------------------------------------------------|
|-------------------------------------------------6-----6---6---6-6-5-4--|
|--------7h9-7-9br-9-7-----10~---------7h9-7-9b---6-----6---6---6-6-5-4--|
|-7h9-99---------------9-7------7h9-99------------4-4-4-4-4-4-4-4-4-3-2--|


Chorus:
|------9---------------------------------|
|--/9------------8--------10--------8----|
|-------------/7---7----9----9----7---7--|
|----------------------------------------|
|----------------------------------------|
|----------------------------------------|

|---9---------------------------------|
|-------------8--------10--------8----|
|----------/7---7----9----9----7---7--|x3
|-------------------------------------|
|-------------------------------------|
|-------------------------------------|

G1
|---------------------------|
|---------------------------|
|---------------------------|x14
|------------------/11-9~---|
|--7--9p7--------7----------|
|---------9--7h9------------|

G2                                                          x8
|----------9-9\----9-9\---9-9\-|-------------------------------|
|----------9-9\----9-9\---9-9\-|-------------------------------|
|--9-9-------------------------|---------------------/13-11----|
|--9-9-------------------------|---9-11p9----------9-----------|
|------------------------------|----------11--9h11-------------|
|------------------------------|-------------------------------|


2nd Verse:
|----------------------------------------------------------------------------|
|----------------------------------------------------------------------------|
|----------------------------------------------------------------------------|
|--7--7-7--7-7--7-7--7-7--7-7--7-7--7-7--7-6--6-6--6-6--6-6--6-/9-9-9-9-9-9\-|
|--7--7-7--7-7--7-7--7-7--7-7--7-7--7-7--7-6--6-6--6-6--6-6--6-/7-7-7-7-7-7\-|
|--5--5-5--5-5--5-5--5-5--5-5--5-5--5-5--5-4--4-4--4-4--4-4--4---------------|

|-----------------------------------------------------------|
|-----------------------------------------------------------|
|-----------------------------------------------------------|x2
|-----------------------------------------------------------|
|----------7h9-7-9br-9-7-----10~-----------7h9-7-9br-9-7----|
|---7h9-99---------------9-7--------7h9-99---------------9--|

|-----------------------------------------------------------|
|-----------------------------------------------------------|
|-----------------------------------------------------------|
|----------7h9-7-9br-9-7-----10~-----------7h9-7-9b---r-----|
|---7h9-99---------------9-7--------7h9-99------------------|
|-----------------------------------------------------------|

G2:
|--------------------------------|
|-----------------------12b--10~-|
|---------------9--11------------|
|-------7h9/11-------------------|
|--7h9---------------------------|
|--------------------------------|

|------------------------------------------------------------------------|
|------------------------------------------------------------------------|
|------------------------------------------------------------------------|
|-------------------------------------------------6-----6---6---6-6-5-4--|
|--------7h9-7-9br-9-7-----10~---------7h9-7-9b---6-----6---6---6-6-5-4--|
|-7h9-99---------------9-7------7h9-99------------4-4-4-4-4-4-4-4-4-3-2--|


2nd Chorus:
|------9---------------------------------|
|--/9------------8--------10--------8----|
|-------------/7---7----9----9----7---7--|
|----------------------------------------|
|----------------------------------------|
|----------------------------------------|

|---9---------------------------------|
|-------------8--------10--------8----|
|----------/7---7----9----9----7---7--|x3
|-------------------------------------|
|-------------------------------------|
|-------------------------------------|


Solo: 
Guitar 1
|-----------------------------------------------------------------------------|
|--11-9~-----9---9---9-9-9-11-9~-----9---9---9-9-9-11-9~------9---------------|
|--11-9~---x-9-x-9-x-9-9-9-11-9~---x-9-x-9-x-9-9-9-11-9~-----11b---9-11-9-11--|
|-----------------------------------------------------------------------------|
|-----------------------------------------------------------------------------|
|-----------------------------------------------------------------------------|

|----------------------------------------------------------------------------------|
|---------------------------------9----9---9---9-9-9-11-9~----9---9---9-9-9-11-9~--|
|-11brp9----9---------------------9--x-9-x-9-x-9-9-9-11-9~----9-x-9-x-9-9-9-11-9~--|
|--------11---11-9-----------------------------------------------------------------|
|------------------11-10-7-9-9b----------------------------------------------------|
|----------------------------------------------------------------------------------|

|-----------------------------------------------------------------------|
|--9---9---9-9-9-11-9~---/12-12-12-12-12-12-11-9------------------------|
|--9-x-9-x-9-9-9-11-9~---------------------------11-9-11brp9----9-------|
|------------------------------------------------------------11---11~---|
|-----------------------------------------------------------------------|
|-----------------------------------------------------------------------|

|---------------------------------------------------------------------------------|
|---------------------------------------------------------------------------------|
|-----------------------------------------------9----9-11br-9-11brp9----9-11b---r-|
|--9-11-9----------------------------------9-11---11-----------------11-----------|
|---------10-9-7-9brp7---7----------7h9-9b----------------------------------------|
|----------------------9---9----7h9-----------------------------------------------|

|----------------------------------------------------------------------------|
|------9-----9-----9-----9-----9-9-------------------------------------------|
|--11b---11b---11b---11b---11b-----9-11-11brp9----9--------------------------|
|----------------------------------------------11---11-9---------------------|
|--------------------------------------------------------11-10-9brp7---7~----|
|--------------------------------------------------------------------9-------|

|--------------------------------------------------|
|------------9-----9------9-----9-----9------------|
|------9-11b---11b----11b---11b---11b---9-11-9~----|
|--/11---------------------------------------------|
|--------------------------------------------------|
|--------------------------------------------------|


Guitar 2:
|--------------------------------------------------------------------------------------|
|--------------------------------------------------------------------------------------|
|----------------------------------------------------------------9----9-11brb--9br-----|
|----------------------------------------------9-11~--9h11-11-11---11--------------11~-|
|---------7h9-7-9b-7-------------7h9-7-9b-9h11-----------------------------------------|
|--7h9-x9------------9----7h9-x9-------------------------------------------------------|

|-----------------------------------------------------------------------------------------|
|----------------12-----------------------------------------------------------------------|
|-------9-11-11b----11brbrbr--------------------------------------------------------------|
|--9-11-------------------------------------------------------------------------------9h11|
|-----------------------------------------7h9-7-9br-9-9-9-7~---------7h9-7-9br-7-9/11-----|
|---------------------------------7h9-x9----------------------7h9-xx----------------------|

|----------------------------------------------------------------------|
|----------------------------------------------------------------------|
|-------------9-----9-11-11brbr-9-----------9-11-11brbrb-11brbrb--r----|
|---9h11-9h11---11----------------11---9h11----------------------------|
|----------------------------------------------------------------------|
|----------------------------------------------------------------------|

|--------------------------------------------------------------------------------|
|--------------------------------------------------------------------------------|
|--------------------------------------------------------------------------------|
|-----------------------------------------------------------------9-11br-9----9~-|
|---------7h9-7-9b-9-9-7--------------7h9-7-9br-7------------9h11----------11----|
|--7h9-xx----------------9~----7h9-xx-------------9---7h9-xx---------------------|

|----------------------------------------------------------------------------------|
|----------------------------------------------------------------------------------|
|-----------------------------------------------9----9-----------------------------|
|--------7h9-7-9br--7---7-----------7h9-7-9/11---11--------------------------------|
|-7h9-99--------------9---9--7h9-9x------------------------------7h9-7-9br-9-7-----|
|---------------------------------------------------------7h9-99---------------9---|

|---------------------------|
|---------------------------|
|---------------------------|
|---------------------------|
|---------7h9-9br-7-9brbr-7-|
|--7h9-xx-------------------|


|-----------------------------------9---|
|-------------------------------/9------|
|---------------------------------------|
|---6-----6---6---6-6-5-4---------------|
|---6-----6---6---6-6-5-4---------------|
|---4-4-4-4-4-4-4-4-4-3-2---------------|


Ending Solo: G1
|---------------------------------------------------------------------|
|---------------------------------------------------------------------|
|--9-11-11brp9----9--------------------------------------------9~-----|
|--------------11---11--9h11p9----------------------------------------|
|------------------------------11-9-9br---------7-9-9br--9/11---------|
|----------------------------------------9p7h9------------------------|

Ending Solo: G2
|----------------12h15p12----12-15br-12-----------------------------------------------|
|--15br-15br-15b----------15------------15-12-----------------------------------------|
|---------------------------------------------14-12-----------------------------------|
|---------------------------------------------------14-12-10h12~-10h12~-10h12p10-12br-|
|-------------------------------------------------------------------------------------|
|-------------------------------------------------------------------------------------|

Both end on:
|---------|
|---------|
|---9\----|
|---9\----|
|---7\----|
|---------|





WHITEWATER

Intro:
|---------------------------------------------------------------------------|
|---------------------------------------------------------------------------|
|---------------------------------------------------------------------------|
|----------5----5/7--------7\3----3----3/5~---------------5----5/7----------|
|---3/5--5----5--/7------7--\3--3----3--/5~--------3/5--5----5--/7----------|
|---------------------------------------------------------------------------|

|---------------------------------------------------------------------------|
|---------------------------------------------------------------------------|
|----------------------------------------------------9\5----5----5/7--------|
|---7\3----3----3/5~---------------5----5/7--------7--\3--3----3--/5--------|
|-7--\3--3----3-3/5~--------3/5--5----5--/7---------------------------------|
|---------------------------------------------------------------------------|
                                            
                                             
|----------------------------------------------------------------------|
|----------------------------------------------------------------------|
|----------------------------------------------------------------------|
|----------5----5/7--------7\3----3----3/5~---(feedback)--------5-5-2--|
|---3/5--5----5--/7------7--\3--3----3--/5~-------------------0-3-3-0--|
|----------------------------------------------------------------------|

Main Riff:
|------------------------------------------------------------------------------|
|------------------------------------------------------------------------------|
|-------------------------------------------------------------------------5----|
|--5h7------5h7----5h7--------5h7------5h7----5-------5h7------5h7----5h7---7--|
|------0000-----00-----3h5-00-----0000-----00-3--5-00-----0000-----00----------|
|------------------------------------------------3-----------------------------|

|---------------------------------------------------------------------------|
|---------------------------------------------------------------------------|
|---------------------------------------------------------------------------|
|----5h7------5h7----5-------5h7------5h7----5h7--------5h7------5h7----5---|
|-00-----0000-----00-3--5-00-----0000-----00-----3h5-00-----0000-----00-3--5|
|-----------------------3--------------------------------------------------3|

|-----------------------------------------------------|
|-----------------------------------------------------|
|------------------------5----------------------------|
|----5h7------5h7----5h7---7-----5h7------5h7----5----|
|-00-----0000-----00----------00-----0000-----00-3--5-|
|---------------------------------------------------3-|

Verse:
|-----------------------------------------------------------------|
|-----------------------------------------------------------------|
|-----------------------------------------------------------------|
|--5h7-7-7-7-7-7-7-7/9-9-9-9-9/10-10-10----5h7------5h7----5/7-5--|
|--0---0-0-0-0-0-0-0---0-0-0-0-----0--0-00-----0000-----00-3/5-3--|
|-----------------------------------------------------------------|

|-----------------------------------------------------------------|
|-----------------------------------------------------------------|
|----------------------------------------------------------5h7-5--|
|--5h7-7-7-7-7-7-7-7/9-9-9-9-9/10-10-10----5h7------5h7----5h7-5--|
|--0---0-0-0-0-0-0-0---0-0-0-0-----0--0-00-----0000-----00--------|
|-----------------------------------------------------------------|

|-----------------------------------------------------------------|
|-----------------------------------------------------------------|
|-----------------------------------------------------------------|
|--5h7-7-7-7-7-7-7-7/9-9-9-9-9/10-10-10----5h7------5h7----5/7-5--|
|--0---0-0-0-0-0-0-0---0-0-0-0-----0--0-00-----0000-----00-3/5-3--|
|-----------------------------------------------------------------|

|-----------------------------------------------------------------|
|-----------------------------------------------------------------|
|-----------------------------------------------------------------|
|--5h7-7-7-7-7-7-7-7/9-9-9-9-9/10-10-10----5h7------5h7----5/7-7--|
|--0---0-0-0-0-0-0-0---0-0-0-0-----0--0-00-----0000-----00-3/5-5--|
|-----------------------------------------------------------------|


Chorus:
|------------------------------------------------------|
|------------------------------------------------------|
|------------------------5h7-7-7-7br-5-7br-7-5h7-7-5---|
|--5----5-0--------------5h7-7-7-7br-5-7br-7-5h7-7-5---|
|--3--3-3-0--5---5-----3-------------------------------|
|------------3-0-3-3h5---------------------------------|

|------------------------------------------------------|
|------------------------------------------------------|
|--------------------------5h7-7-7-7p5-5-5--5-7-7br-5--|
|--5----5-0----------------5h7-7-7-7p5-5-5--5-7-7br-5-7|
|--3--3-3-0--5---5-5-5p3------------------------------7|
|------------3-0-3-------5-----------------------------|

|------------------------------------------------------|
|------------------------------------------------------|
|------------------------5h7-7-7-7br-5-5-5-7-7b-5------|
|--5----5-0--------------5h7-7-7-7br-5-5-5-7-7b-5-7----|
|--3--3-3-0--5---5-----3--------------------------7----|
|------------3-0-3-3h5---------------------------------|

|-------------------------------------------------------|
|-------------------------------------------------------|
|-------------------------------------------------------|
|--5----5-0--------------------------------------5-5-2--|
|--3--3-3-0--5---5-5-5p3-7---------------------0-3-3-0--|
|------------3-0-3-------5------------------------------|


Main Riff:
|------------------------------------------------------------------------------|
|------------------------------------------------------------------------------|
|-------------------------------------------------------------------------5----|
|--5h7------5h7----5h7--------5h7------5h7----5-------5h7------5h7----5h7---7--|
|------0000-----00-----3h5-00-----0000-----00-3--5-00-----0000-----00----------|
|-------------------------------------------------3----------------------------|

|---------------------------------------------------------------------------|
|---------------------------------------------------------------------------|
|---------------------------------------------------------------------------|
|----5h7------5h7----5-------5h7------5h7----5h7--------5h7------5h7----5---|
|-00-----0000-----00-3--5-00-----0000-----00-----3h5-00-----0000-----00-3--5|
|-----------------------3--------------------------------------------------3|

|-----------------------------------------------------|
|-----------------------------------------------------|
|------------------------5----------------------------|
|----5h7------5h7----5h7---7-----5h7------5h7----5----|
|-00-----0000-----00----------00-----0000-----00-3--5-|
|---------------------------------------------------3-|


2nd Verse:
|-----------------------------------------------------------------|
|-----------------------------------------------------------------|
|-----------------------------------------------------------------|
|--5h7-7-7-7-7-7-7-7/9-9-9-9-9/10-10-10----5h7------5h7----5/7-5--|
|--0---0-0-0-0-0-0-0---0-0-0-0-----0--0-00-----0000-----00-3/5-3--|
|-----------------------------------------------------------------|

|-----------------------------------------------------------------|
|-----------------------------------------------------------------|
|----------------------------------------------------------5h7-5--|
|--5h7-7-7-7-7-7-7-7/9-9-9-9-9/10-10-10----5h7------5h7----5h7-5--|
|--0---0-0-0-0-0-0-0---0-0-0-0-----0--0-00-----0000-----00--------|
|-----------------------------------------------------------------|

|-----------------------------------------------------------------|
|-----------------------------------------------------------------|
|-----------------------------------------------------------------|
|--5h7-7-7-7-7-7-7-7/9-9-9-9-9/10-10-10----5h7------5h7----5/7-5--|
|--0---0-0-0-0-0-0-0---0-0-0-0-----0--0-00-----0000-----00-3/5-3--|
|-----------------------------------------------------------------|

|-----------------------------------------------------------------|
|-----------------------------------------------------------------|
|-----------------------------------------------------------------|
|--5h7-7-7-7-7-7-7-7/9-9-9-9-9/10-10-10----5h7------5h7----5/7-7--|
|--0---0-0-0-0-0-0-0---0-0-0-0-----0--0-00-----0000-----00-3/5-5--|
|-----------------------------------------------------------------|


2nd Chorus:
|------------------------------------------------------|
|------------------------------------------------------|
|------------------------5h7-7-7-7br-5-7br-7-5h7-7-5---|
|--5----5-0--------------5h7-7-7-7br-5-7br-7-5h7-7-5---|
|--3--3-3-0--5---5-----3-------------------------------|
|------------3-0-3-3h5---------------------------------|

|------------------------------------------------------|
|------------------------------------------------------|
|--------------------------5h7-7-7-7p5-5-5--5-7-7br-5--|
|--5----5-0----------------5h7-7-7-7p5-5-5--5-7-7br-5-7|
|--3--3-3-0--5---5-5-5p3------------------------------7|
|------------3-0-3-------5-----------------------------|

|------------------------------------------------------|
|------------------------------------------------------|
|------------------------5h7-7-7-7br-5-5-5-7-7b-5------|
|--5----5-0--------------5h7-7-7-7br-5-5-5-7-7b-5-7----|
|--3--3-3-0--5---5-----3--------------------------7----|
|------------3-0-3-3h5---------------------------------|

|----------------------------------------------------|
|----------------------------------------------------|
|----------------------------------------------------|
|--5----5-0------------------------------------------|
|--3--3-3-0--5-5-5-5p3-7------------5--7-------------|
|------------3-3-------5------------3--5-------------|


Break:
                        
|---------------------------|
|---------------------------|
|--------5-----4-----4------|x2
|--5h7-7-7-5-5-5-5-5-5-5-5--|
|---------------------------|
|---------------------------|

|---------------------------|
|---------------------------|
|--------5-7-5---4-----4----|
|--5h7-7-7-----5-5-5-5-5-5--|
|---------------------------|
|---------------------------|

|---------------------------|
|---------------------------|
|--------5-----4-----4------|x3
|--5h7-7-7-5-5-5-5-5-5-5-5--|
|---------------------------|
|---------------------------|

|---------------------------|
|---------------------------|
|--------5-7-5---4-----4----|
|--5h7-7-7-----5-5-5-5-5-5--|
|---------------------------|
|---------------------------|

|---------------------------|
|---------------------------|
|--------5-----4-----4------|x9
|--5h7-7-7-5-5-5-5-5-5-5-5--|
|---------------------------|
|---------------------------|


Solo:

Guitar 1:
|-----------------------------------------------------------------------------|
|-----10~--10~--10~--10~--8~--8~--8~--8~--7--7~--8-7-10-8-7-7h8p7---7---------|
|--/9----9----9----9----9---9---9---9---9-------------------------9---9-7-9~--|
|-----------------------------------------------------------------------------|
|-----------------------------------------------------------------------------|
|-----------------------------------------------------------------------------|

|---------------------------------------------------------------|
|---------------------------------------------------------------|
|--6--6h7p6-------6--6h7p6--------6--6h7p6--------6--6h7p6------|
|-----------5~-------------7~--------------5~--------------7~---|
|---------------------------------------------------------------|
|---------------------------------------------------------------|

|----------------------------------10------------10------------10------------|
|---10--8-7-8-7-10-8-7h8p7---7-8-7----8-7-10-8-7----8-7-10-8-7----8-7-10-8-7-|
|--------------------------9-------------------------------------------------|
|----------------------------------------------------------------------------|
|----------------------------------------------------------------------------|
|----------------------------------------------------------------------------|

|-----------------------------------|
|-7h8p7---7------------8/10~--------|
|-------9---9-7-9~-7h9--------------|
|-----------------------------------|
|-----------------------------------|
|-----------------------------------|

|--15----12---12-12----12---12------|
|--12-12---12----10-10---10----12-12|x8
|-----------------------------------|
|-----------------------------------|
|-----------------------------------|
|-----------------------------------|

|----12----0-----0-----0-----0-----0--0--0--------0-----0-----0-----0--0----|
|-10---10-10-10-10-10-10-10-10-10-10-10-10/12-12-12-12-12-12-12-12-12-12/13-|
|---------------------------------------------------------------------------|
|---------------------------------------------------------------------------|
|---------------------------------------------------------------------------|
|---------------------------------------------------------------------------|

|-----0-----0-----0-----0--0--0--------0-----0-----0-----0-----0-----0-----0|
|-13-13-13-13-13-13-13-13-13-13/15-15-15-15-15-15-15-15-15\10-10-10-10-10-10|
|---------------------------------------------------------------------------|
|---------------------------------------------------------------------------|
|---------------------------------------------------------------------------|
|---------------------------------------------------------------------------|

|-----0-----0--0--0--------0-----0-----0-----0--0--0--------0-----0-----0---|
|-10-10-10-10-10-10/12-12-12-12-12-12-12-12-12-12-12/13-13-13-13-13-13-13-13|
|---------------------------------------------------------------------------|
|---------------------------------------------------------------------------|
|---------------------------------------------------------------------------|
|---------------------------------------------------------------------------|

|--0--0--0--------0-----0-----0-----0---0---0--0--0--0--0--0--0--0--0--0--0-|
|-13-13-13/15-15-15-15-15-15-15-15-15--15b-15-15-15-15-15-15-15-15-15-15-15-|
|---------------------------------------------------------------------------|
|---------------------------------------------------------------------------|
|---------------------------------------------------------------------------|
|---------------------------------------------------------------------------|

|-0--0--0--0--0--0--0--0--0--0--0--0--0--0--0--0--0--0--0--0--0--0--0--0--0-|
|15-15-15-15-15-15-15-15-15-15-15-15-15-15-15-15-15-15-15-15-15-15-17-17-15-|
|---------------------------------------------------------------------------|
|---------------------------------------------------------------------------|
|---------------------------------------------------------------------------|
|---------------------------------------------------------------------------|

|--0--0--0--0--0--0--0--0--0--0--0--0--0--0--0--0--0--0--0--0--0--0--0--0--0|
|-15-17-17-15-15-17-17-15-15-17-17-15-15-17-17-15-15-17-17-17-15-15-17-17-15|
|---------------------------------------------------------------------------|
|---------------------------------------------------------------------------|
|---------------------------------------------------------------------------|
|---------------------------------------------------------------------------|

|--0--0--0--0--0--0--0--0--0--0--0--0--0--0--0--0--0--0--0--0--0--0--0--0--0|
|-15-17-17-15-15-15-15-15-17-17-17-15-15-15-17-17-15-15-17-17-15-15-17-17-15|
|---------------------------------------------------------------------------|
|---------------------------------------------------------------------------|
|---------------------------------------------------------------------------|
|---------------------------------------------------------------------------|

|--0--0--0--0--0--0--0--0--0--0--0--0---------------------------------------|
|-15-17-17-15-15-17-17-15-15-17-17-17---------------------------------------|
|---------------------------------------------------------------------------|
|---------------------------------------------------------------------------|
|---------------------------------------------------------------------------|
|---------------------------------------------------------------------------|


Guitar 2:
|------0-----0-----0----0----0----0----0----0----0----0---------------------|
|-/10-10-10-10-10-10-10-8--8-8--8-8--8-8--8-8--8-8--8-8\7--------8-7-10-8-7~|
|---------------------------------------------------------------------------|
|---------------------------------------------------------------------------|
|---------------------------------------------------------------------------|
|---------------------------------------------------------------------------|

|---------------------------------------------------------------------------|
|---------------------------------------------------------------------------|
|--6-6h7p6-/9~---6-6h7p6-/9~---6-6h7p6-/9~-----11--9------------------------|
|---------------------------------------------------------------------------|
|---------------------------------------------------------------------------|
|---------------------------------------------------------------------------|

|---------------------------------------------------------------------------|
|--10--8-7-8-7-10-8-7h8p7---7-8-7-10-8-7-7h8p7---7-8-7-10-8-7-7h8p7---7-8-7-|
|-------------------------9--------------------9--------------------9-------|
|---------------------------------------------------------------------------|
|---------------------------------------------------------------------------|
|---------------------------------------------------------------------------|

|-----------------------------15--12-15-12-10---10-12-10-12--15--12-15-12-10|
|-10-8-7-7h8p7---7-8/10~----------------------------------------------------|
|--------------9------------------------------------------------------------|
|---------------------------------------------------------------------------|
|---------------------------------------------------------------------------|
|---------------------------------------------------------------------------|

|-15--12-15-12-10---10-12-10-12--15--12-12-12-12-x-12-x--12---10-12-10-9-9--|
|---------------------------------------------------------------------------|
|---------------------------------------------------------------------------|
|---------------------------------------------------------------------------|
|---------------------------------------------------------------------------|
|---------------------------------------------------------------------------|

|--9-10-9-10-9--12-10-12-/15-15-15-15-14-12--12-10-12-12--15-15-15-14-12----|
|---------------------------------------------------------------------------|
|---------------------------------------------------------------------------|
|---------------------------------------------------------------------------|
|---------------------------------------------------------------------------|
|---------------------------------------------------------------------------|

|-12-10--12-12--------------------------------------------------------------|
|---------------------------------------------------------------------------|
|----------------14--14-14--14-14--14-14-14--14-14--14-14--14-14--14-14--14-|
|---------------------------------------------------------------------------|
|---------------------------------------------------------------------------|
|---------------------------------------------------------------------------|

|---------------------------------------------------------------------------|
|---------------------------------------------------------------------------|
|14--14-14--14-14--14-14--14-14--14-14--14-16--16-16-17-14--14--14-14--14-14|
|---------------------------------------------------------------------------|
|---------------------------------------------------------------------------|
|---------------------------------------------------------------------------|

|---------------------------------------------------------------------------|
|---------------------------------------------------------------------------|
|-14-14-14--14-14--14-14--14-14--14-14--14-14--14-14--14-14--14-14--14-14---|
|---------------------------------------------------------------------------|
|---------------------------------------------------------------------------|
|---------------------------------------------------------------------------|

|---------------------------------------------------------------------------|
|---------------------------------------------------------------------------|
|--14-14--14-16--16-16-17-14-14-14-14-14-14-14-14-14-14-14-14-14-14-14-14-14|
|---------------------------------------------------------------------------|
|---------------------------------------------------------------------------|
|---------------------------------------------------------------------------|

|---------------------------------------------------------------------------|
|---------------------------------------------------------------------------|
|-14-14-14-14-14-14-14-14-14-14-14-14-14-14-14-14-14-14-14-14-14-14-14-14-14|
|---------------------------------------------------------------------------|
|---------------------------------------------------------------------------|
|---------------------------------------------------------------------------|

|---------------------------------------------------------------------------|
|---------------------------------------------------------------------------|
|-14-14-14-14-14-14-14-14-14-14-14-14-14-14-14-14-14-14-14-14-14-14-14-14-14|
|---------------------------------------------------------------------------|
|---------------------------------------------------------------------------|
|---------------------------------------------------------------------------|

|---------------------------------------------------------------------------|
|---------------------------------------------------------------------------|
|-14-14-14-14-14-14-14-14-14-14-14-14-14-14-14-14-14-14-14-14-14-14-14-14-14|
|---------------------------------------------------------------------------|
|---------------------------------------------------------------------------|
|---------------------------------------------------------------------------|

|---------------------------------------------------------------------------|
|---------------------------------------------------------------------------|
|-14-14-14-14-14-14--14--14--14--14----14~----------------------------------|
|---------------------------------------------------------------------------|
|---------------------------------------------------------------------------|
|---------------------------------------------------------------------------|


Quiet Solo:
|-------------------------------------------7-8---10-8--7h8p7---------------|
|--10--8-7-7-8-7-10-8-7h8p7---7-8-7~--------------------------10~---8-8-7~--|
|---------------------------9-----------------------------------------------|
|---------------------------------------------------------------------------|
|---------------------------------------------------------------------------|
|---------------------------------------------------------------------------|

|-----------------------------------------12-12-12-13-12---10-10-10-10\8-8--|
|---8-8-7~---8-8-7~---------------------------------------------------------|
|-------------------9--9-9h11-9~--------------------------------------------|
|---------------------------------------------------------------------------|
|---------------------------------------------------------------------------|
|---------------------------------------------------------------------------|

|-8\7-7-8-10-8-7-8--8-8/10--10-10/12---------15-12-13--15-13-12-15-13-12-15-|
|---------------------------------------------------------------------------|
|---------------------------------------------------------------------------|
|---------------------------------------------------------------------------|
|---------------------------------------------------------------------------|
|---------------------------------------------------------------------------|

|-13-12--13-12-13---15------------------------------------------------------|
|------------------------------12-12-12p9-12-9-------12-12-12-9-------------|
|---------------------------------------------------------------------------|
|---------------------------------------------------------------------------|
|---------------------------------------------------------------------------|
|---------------------------------------------------------------------------|

|---------------------------------------------------------------------------|
|--12-12-12-9--------12-12-12-9---------8-10--8-10-10br----8-10--8-10-10br--|
|---------------------------------------------------------------------------|
|---------------------------------------------------------------------------|
|---------------------------------------------------------------------------|
|---------------------------------------------------------------------------|

|---------------------------------------------------------------------------|
|--8-10--8-10-10br---8-10--8-10-10br--10-----------10----------10-----------|
|---------------------------------------------------------------------------|
|---------------------------------------------------------------------------|
|---------------------------------------------------------------------------|
|---------------------------------------------------------------------------|

|--------------------------------------------|
|--10-------------10------------10-----------|
|--------------------------------------------|
|--------------------------------------------|
|--------------------------------------------|
|--------------------------------------------|


Outro:
|--------------------------------|
|--------------------------------|
|-------------5---5h7-7---7------|x7
|-------5h7-7---7-------5--------|
|--------------------------------|
|--------------------------------|

|-----------------------------------|
|-----------------------------------|
|-------------5---5h7-7---7-----/9--|
|-------5h7-7---7-------5---5---/7--|
|-----------------------------------|
|-----------------------------------|





LICK DOO!!!


Background Organ: sounds better if you dont use a pick
|-------------------------------------------------------------------11--11-11--11--11-11-|
|------------------------7---7-7---12---12-12--------------------------------------------|
|--9---9-9----9---9-9---------------------------9---9-9----9---9-9---8---8--8---8---8--8-|
|------------------------4---4-4----9----9--9--------------------------------------------|
|--7---7-7----7---7-7---------------------------7---7-7----7---7-7-----------------------|
|----------------------------------------------------------------------------------------|

|--12-11-9----9-----------------------------------|
|----------12---12-9------------------12--12-12---|
|---------------------11-9-11~--11-11-------------|
|-------------------------------------------------|
|-------------------------------------------------|
|-------------------------------------------------|

|--12-11-9----/14-12-11-9----11-12-11-11--11--11-11--|
|----------12-------------12-------------------------|
|----------------------------------------------------|
|----------------------------------------------------|
|----------------------------------------------------|
|----------------------------------------------------|



************************************

| /   slide up
| \   slide down
| h   hammer-on
| p   pull-off
| ~   vibrato
| +   harmonic
| x   Mute note
| b   Bend
| pb  Pre-bend
| br  Bend release
| pbr Pre-bend release
| brb Bend release bend
| <>  Natural Harmonic
| ()  Strike note while string is bent
| tr  tremelo pick

************************************


comments
We did not receive enough feedback on this tab! Please rate:
print report bad tab
1 2 3 4 5
1 comment total.
0 reply
Antpetitt wrote on September 13 2012, 03:42 pm

This is awesome and correct. Thanks!

I want to post or [tab]
guest
You may want to rate the tab now too:
select rating
Please do not post tabs as comments. Select "correction" instead!