Oops, an error
Loading. Please wait.

Electric Gypsy Tab

ver2
ver2

Whole song

More versions @911Tabs.com
2,490 views 18 this week
no commentswrite comment
1 2 3 4 5
excellent!
x 2
Autoscroll
+/-
esc
set tempo
stop
Contributor
Difficulty
intermediate
WARNING: You are trying to view
                                    content from Ultimate-Guitar.com
                                    in an unauthorized application,
                                    which is prohibited.

                                    Please use an official Ultimate
                                    Guitar Tabs application for iPhone,
                                    iPad or Android to access legitimate
                                    chords, guitar, bass, and drum tabs
                                    from Ultimate-Guitar.com database.

                                    Type "ultimate guitar tabs" in Apple
                                    App Store's or Android Market's
                                    search to find the application.
-------------------------------------------------------------------------------
                             ELECTRIC GYPSY - L.A. Guns
-------------------------------------------------------------------------------
Tabbed by: ironmanben
Email: bentrooper@gmail.com

Tuning: e B G D A E 

guitar 1 - Tracii Guns - lead
guitar 2 - Mick Cripps - rhythm
guitar 3 - Tracii Guns - guitar solo 1
guitar 4 - Tracii Guns - guitar solo 2


intro:
(guitar 1:)
e|-----------------------------------------------------------------|
B|-------------------------------------------------8p7---8p7---8p7-|
G|---------7-------9p7-7-9p7-7-9p7---------5-----------7-----7-----|
D|---------7-------7---7-7---7-7-----------5-----0-----------------|
A|-0---0-0-----0-0-----------------0---0-0-----0-------------------|
E|-----------------------------------------------------------------|
-|     x x     x x                     x x     x x     (guitar 2:) |
e|-----------------------------------------------------------------|
B|-----------------------------------------------------------------|
G|-----------------------------------------------------------------|
D|-----------------------------------------------------------------|
A|-----------------------------------------------------------------|
E|-----------------------------------------------------------------|


e|-----------------------------------------------------------------|
B|-------------------------------------------------8p7---8p7---8p7-|
G|---------7-------9p7-7-9p7-7-9p7---------5-----------7-----7-----|
D|---------7-------7---7-7---7-7-----------5-----0-----------------|
A|-0---0-0-----0-0-----------------0---0-0-----0-------------------|
E|-----------------------------------------------------------------|
-|     x x     x x                     x x     x x                 |
e|-----------------------------------------------------------------|
B|-----------------------------------------------------------------|
G|---------------------------------2---------------------------(2)-|
D|---------------------------------2---------------------------(2)-|
A|---------------------------------0---------------------------(0)-|
E|-----------------------------------------------------------------|


e|-----------------------------------------------------------------|
B|-------------------------------------------------8p7---8p7---8p7-|
G|---------7-------9p7-7-9p7-7-9p7---------5-----------7-----7-----|
D|---------7-------7---7-7---7-7-----------5-----0-----------------|
A|-0---0-0-----0-0-----------------0---0-0-----0-------------------|
E|-----------------------------------------------------------------|
-|     x x     x x                     x x     x x                 |
e|-----------------------------------------------------------------|
B|-----------------------------------------------------------------|
G|-2-2-----------------------------2---------------------------(2)-|
D|-2-2-----------------------------2---------------------------(2)-|
A|-0-0-----------------------------0---------------------------(0)-|
E|-----------------------------------------------------------------|


e|-----------------------------------------------------------------|
B|-------------------------------------------------8p7---8p7---8p7-|
G|---------7-------9p7-7-9p7-7-9p7---------5-----------7-----7-----|
D|---------7-------7---7-7---7-7-----------5-----0-----------------|
A|-0---0-0-----0-0-----------------0---0-0-----0-------------------|
E|-----------------------------------------------------------------|
-|     x x     x x                     x x     x x                 |
e|-----------------------------------------------------------------|
B|-----------------------------------------------------------------|
G|-2-2-----------------------------2-------------------------------|
D|-2-2-----------------------------2-------------------------------|
A|-0-0-----------------------------0-------------------------------|
E|-----------------------------------------------------------------|



main riff:
(guitar 1:)
e|-----------------------------------------------------------------|
B|-------------------------------------------------8p7---8p7---8p7-|
G|---------7-------9p7-7-9p7-7-9p7---------5-----------7-----7-----|
D|---------7-------7---7-7---7-7-----------5-----0-----------------|
A|-0---0-0-----0-0-----------------0---0-0-----0-------------------|
E|-----------------------------------------------------------------|
-|     x x     x x                     x x     x x    (guitar 2:)  |
e|-----------------------------------------------------------------|
B|-----------------------------------------------------------------|
G|-----------------------------------------------------------------|
D|-2-2-2-2-2-2-2-2-2-2-2-2-2-2-2-2-2-2-2-2-2-2-2-2-----------------|
A|-0-0-0-0-0-0-0-0-0-0-0-0-0-0-0-0-0-0-0-0-0-0-0-0-5p4p0-5p4p0-5p4-|
E|-----------------------------------------------------------------|
   x x x x x x x x x x x x x x x x x x x x x x x x


verse:
(guitar 1:)
e|-----------------------------------------------------------------|
B|-----------------------------------------------------------------|
G|-----------------------------------------------------------------|
D|-------------------------------------------------5p4p0-5p5p0-5p4-|
A|-0-0-0-0-0-0-0-0-0-0-0-0-0-0-0-0-0-0-0-0-0-0-0-0-----------------|
E|-----------------------------------------------------------------|
-| x x x x x x x x x x x x x x x x x x x x x x x x  (guitar 2:)    |
e|-----------------------------------------------------------------|
B|-----------------------------------------------------------------|
G|-----------------------------------------------------------------|
D|-2-2-2-2-2-2-2-2-2-2-2-2-2-2-2-2-2-2-2-2-2-2-2-2-----------------|
A|-0-0-0-0-0-0-0-0-0-0-0-0-0-0-0-0-0-0-0-0-0-0-0-0-5p4p0-4p4p0-5p4-|
E|-----------------------------------------------------------------|
   x x x x x x x x x x x x x x x x x x x x x x x x
   



chorus:
(guitar 1:)
e|-----0-0-----0-0-----0-0-----0-0-|
B|-----0-0-----0-0-----0-0-----0-0-|
G|-------0-------0-------0-------0-|
D|-7-7-----5-5-----4-4-----3-3-----|
A|-7-7-----5-5-----4-4-----3-3-----|
E|-5-5-----3-3-----2-2-----1-1-----|
-| (guitar 2:)                     |
e|---------------------------------|
B|---------------------------------|
G|---------------------------------|
D|-7-7-7-7-5-5-5-5-4-4-4-4-3-3-3-3-|
A|-7-7-7-7-5-5-5-5-4-4-4-4-3-3-3-3-|
E|-5-5-5-5-3-3-3-3-2-2-2-2-1-1-1-1-|



bridge:
(guitar 1:)
e|-------------------------------------------------------------------|
B|-------------------------------------------------------------------|
G|-2---2-------------------------------------------------------------|
D|-2---2-------------------------5---5-------------------------3---3-|
A|-0---0-------------------3p2p0-5---5-------------------3p2p0-3---3-|
E|-------------------0-2p0-------3---3-------------0-2p0-------1---1-|
-| (guitar 2:)                                                       |
e|-------------------------------------------------------------------|
B|-2---2-------------------------0---0-------------------------------|
G|-2---2-------------------------0---0-------------------------------|
D|-2---2-------------------------0---0-------------------------3---3-|
A|-------------------------------------------------------------3---3-|
E|-------------------------------------------------------------------|

e|-----------------------------------------------|
B|-----------------------------------------------|
G|---------------------------------------2p0-----|
D|-----------------------------3-4-5---------2p0-|
A|-------------------3p2p0-2---3-4-5-2-2---------|
E|-------------0-2p0-------0---1-2-3-0-0---------|
-|                                               |
e|-----------------------------------------------|
B|-----------------------------------------------|
G|---------------------------------0-1-2-3-------|
D|-------------------------2---3-4-0-1-2-3-------|
A|-------------------3p2p0-2---3-4---------------|
E|-------------0-2p0-----------------------------|



guitar solo 1:
(guitar 3:)
e|----------------------12-------------------------------------------------|
B|-20^(22)-----20~-----------15^(17)p13-15-13~-----13\-0-------------------|
G|-------------------------------------------------------12^(14)---12^(14)-|
D|-------------------------------------------------------------------------|
A|-------------------------------------------------------------------------|
E|-------------------------------------------------------------------------|

e|-----------------------------------------------|------8------------------|
B|-----------------------------------------------|-9h10----9h10p9----------|
G|-----------------------------------------------|----------------10---9---|
D|-12p10-12---10~--10h12-12-12-------------------|-------------------------|
A|-----------------------------10h12-10h12~------|-------------------------|
E|-----------------------------------------------|-------------------------|

e|---------------------------------------|-------------------------------|
B|----------------7h8-10h13p10---9~------|-10--------10--------12--------|
G|-9h10p9-8~--8h9------------------------|-12^(14)---12^(14)---14^(16)---|
D|---------------------------------------|-------------------------------|
A|---------------------------------------|-------------------------------|
E|---------------------------------------|-------------------------------|


e|---------------------------------------------------|
B|-12--------13--------13--------15--------15--------|
G|-14^(16)---15^(17)---15^(17)---17^(19)---17^(19)---|
D|---------------------------------------------------|
A|---------------------------------------------------|
E|---------------------------------------------------|



guitar solo 2:
(guitar 4:)
e|-------------------------------------------------------------------|
B|---------20^(22)~--------------------------------------------------|
G|---------------------------------------5^(7)---5~------------------|
D|-------------------------------------------------------------------|
A|-0---0-------------------------------------------------------------|
E|-------------------------------3---3-------------------------1---1-|


e|---------------------------------------|-8p5-7p5-8p5-7p5-8p5-7p5-8p5-7/10|
B|---------------------------------------|---------------------------------|
G|---------------------------------------|---------------------------------|
D|-3-------------------------------------|---------------------------------|
A|-----2----------------7~/(12)~---------|---------------------------------|
E|--------1---1-0~~~---------------------|---------------------------------|
                ^depress whammy bar      | (guitar 3:)                     |
                                        e|-55555555555555555555555555555555|
                                        B|---------------------------------|
                                        G|---------------------------------|
              guitar 3 comes in here >  D|---------------------------------|
                                        A|---------------------------------|
                                        E|---------------------------------|

e|-13p10-12p10-13p10-12p10-13p10-12p10-13p10-12/17-20p17-19p17-20p17-19p17-|
B|-------------------------------------------------------------------------|
G|-------------------------------------------------------------------------|
D|-------------------------------------------------------------------------|
A|-------------------------------------------------------------------------|
E|-------------------------------------------------------------------------|
-|                                                                         |
e|-10101010101010101010101010101010101010101010-17171717171717171717171717-|
B|-------------------------------------------------------------------------|
G|-------------------------------------------------------------------------|
D|-------------------------------------------------------------------------|
A|-------------------------------------------------------------------------|
E|-------------------------------------------------------------------------|


e|-20p17-19p17-20p17-17-20^(23)---20pb(23)-20pb(23)-20pb(23)-20br(23)~-----|
B|-------------------------------------------------------------------------|
G|-------------------------------------------------------------------------|
D|-------------------------------------------------------------------------|
A|-------------------------------------------------------------------------|
E|-------------------------------------------------------------------------|
-|                                                                         |
e|-17171717171717171717----------------------------------------------------|
B|-------------------------------------------------------------------------|
G|-------------------------------------------------------------------------|
D|-------------------------------------------------------------------------|
A|-------------------------------------------------------------------------|
E|-------------------------------------------------------------------------|


guitar solo rhythm:
(guitar 1:)
e|-------------------------------------------------------------------|
B|-------------------------------------------------------------------|
G|-2---2-------------------------------------------------------------|
D|-2---2-------------------------5---5-------------------------3---3-|
A|-0---0-------------------------5---5-------------------------3---3-|
E|-------------------------------3---3-------------------------1---1-|
-| (guitar 2:)                                                       |
e|-------------------------------------------------------------------|
B|-2---2-------------------------0---0-------------------------------|
G|-2---2-------------------------0---0-------------------------------|
D|-2---2-------------------------0---0-------------------------3---3-|
A|-------------------------------------------------------------3---3-|
E|-------------------------------------------------------------------|

e|-----------------------------------------------|
B|-----------------------------------------------|
G|---------------------------------------2p0-----|
D|-----------------------------3-4-5---------2p0-|
A|-------------------------2---3-4-5-2-2---------|
E|-------------------------0---1-2-3-0-0---------|
-|                                               |
e|-----------------------------------------------|
B|-----------------------------------------------|
G|---------------------------------0-1-2-3-------|
D|-------------------------2---3-4-0-1-2-3-------|
A|-------------------------2---3-4---------------|
E|-----------------------------------------------|



outro:
(guitar 3:)
e|-------------------------------------------------------------------------|
B|10-----10--------12--------12--------13--------13--------15--------15----|
G|12^(14)12^(14)---14^(16)---14^(16)---15^(17)---15^(17)---17^(19)---17^(19)
D|-------------------------------------------------------------------------|
A|-------------------------------------------------------------------------|
E|-------------------------------------------------------------------------|



end:
e|-----|
B|-----|
G|-----|
D|-7-7-| < gtr. 1
A|-7-7-|
E|-5-5-|
-|     |
e|-----|
B|-----|
G|-2-2-|
D|-2-2-| < gtr. 2
A|-0-0-|
E|-----|
-|     |
e|-----|
B|-----|
G|-2-2-|
D|-----| < gtr. 3
A|-----|
E|-----|



ORDER:
| guitar 1:      | guitar 2:      | guitar 3:     | guitar 4:     | 
|----------------|----------------|---------------|---------------|
| intro          | intro          |               |               |
| main riff x2   | main riff x2   |               |               |
| verse x4       | verse x2       |               |               |
| chorus x4      | chorus x4      |               |               |
| main riff x2   | main riff x2   |               |               |
| verse x4       | verse x2       |               |               |
| chorus x4      | chorus x4      |               |               |
| bridge x2      | bridge 2       |               |               |
| chorus x4      | chorus x4      | guitar solo 1 |               |
| solo rhythm x2 | solo rhythm x2 | guitar solo 2 | guitar solo 2 |
| main riff x2   | main riff x2   |               |               |
| verse x4       | verse x4       |               |               |
| chorus x4      | chorus x4      |               |               |
| chorus x4      | chorus x4      | outro x4      |               |
| end            | end            | end           |               |
|----------------|----------------|---------------|---------------|


************************************

| /   slide up
| \   slide down
| h   hammer-on
| p   pull-off
| ~   vibrato
| +   harmonic
| x   Mute note
| b   Bend
| pb  Pre-bend
| br  Bend release
| pbr Pre-bend release
| brb Bend release bend

************************************
comments
We did not receive enough feedback on this tab! Please rate:
print report bad tab
1 2 3 4 5
I want to post or [tab]
guest
You may want to rate the tab now too:
select rating
Please do not post tabs as comments. Select "correction" instead!