Oops, an error
Loading. Please wait.

Danz Tab

ver1
ver1

Whole song

More versions @911Tabs.com
248 views 6 this week
no commentswrite comment
1 2 3 4 5
please rate
add to favorites launch autoscroll
font size
0
reset
Autoscroll
+/-
esc
set tempo
stop
Contributor
WARNING: You are trying to view
                                    content from Ultimate-Guitar.com
                                    in an unauthorized application,
                                    which is prohibited.

                                    Please use an official Ultimate
                                    Guitar Tabs application for iPhone,
                                    iPad or Android to access legitimate
                                    chords, guitar, bass, and drum tabs
                                    from Ultimate-Guitar.com database.

                                    Type "ultimate guitar tabs" in Apple
                                    App Store's or Android Market's
                                    search to find the application.
  Danz!                                       


                                                                  La Vida Bohème
Parte de Daniel



     Q    Q    E  E  E  E     E  E  E  Q    E  E  E     Q    Q    E  E  E   E   
E||------------------------|-------------------------|-------------------------|
B||------------------------|-------------------------|-------------------------|
G||--7----7----x--x--x--8--|--L--8--8--8----8--8--7--|--7----7----x--x--x--10--|
D||------------------------|-------------------------|-------------------------|
A||--5----5----x--x--x--6--|--L--6--6--6----6--6--5--|--5----5----x--x--x---8--|
E||------------------------|-------------------------|-------------------------|


  E   E   E   Q     E   E  E     Q    Q    E  E  E  E   
------------------------------|------------------------|
------------------------------|------------------------|
--L--10--10--10----10--10--7--|--7----7----x--x--x--8--|
------------------------------|------------------------|
--L---8---8---8-----8---8--5--|--5----5----x--x--x--6--|
------------------------------|------------------------|


  E  E  E  Q    E  E  E     Q    Q    E  E  E   E   
-------------------------|-------------------------|
-------------------------|-------------------------|
--L--8--8--8----8--8--7--|--7----7----x--x--x--10--|
-------------------------|-------------------------|
--L--6--6--6----6--6--5--|--5----5----x--x--x---8--|
-------------------------|-------------------------|


  E   E   E   Q     E   E  E     Q    Q    E  E  E  E   
------------------------------|------------------------|
------------------------------|------------------------|
--L--10--10--10----10--10--7--|--7----7----x--x--x--8--|
------------------------------|------------------------|
--L---8---8---8-----8---8--5--|--5----5----x--x--x--6--|
------------------------------|------------------------|


  E  E  E  Q    E  E  E     Q    Q    E  E  E   E   
-------------------------|-------------------------|
-------------------------|-------------------------|
--L--8--8--8----8--8--7--|--7----7----x--x--x--10--|
-------------------------|-------------------------|
--L--6--6--6----6--6--5--|--5----5----x--x--x---8--|
-------------------------|-------------------------|


  E   E   E   Q     E   E  E     Q    Q    E  E  E  E   
------------------------------|------------------------|
------------------------------|------------------------|
--L--10--10--10----10--10--7--|--7----7----x--x--x--8--|
------------------------------|------------------------|
--L---8---8---8-----8---8--5--|--5----5----x--x--x--6--|
------------------------------|------------------------|


  E  E  E  Q    E  E  E     Q    Q    E  E  E   E   
-------------------------|-------------------------|
-------------------------|-------------------------|
--L--8--8--8----8--8--7--|--7----7----x--x--x--10--|
-------------------------|-------------------------|
--L--6--6--6----6--6--5--|--5----5----x--x--x---8--|
-------------------------|-------------------------|


  E   E   E   Q     E   E   E     E  E  E  E  E  E  E  E   
-------------------------------|--------------------------|
-------------------------------|--------------------------|
--L--10--10--10----10--10---x--|--7-----7-----7-----7-----|
-------------------------------|--------------------------|
--L---8---8---8-----8---8---x--|--5-----5-----5-----5-----|
-------------------------------|--------------------------|


  E  E  E  E  E  E  E  E     E  E  E  E  E  E  E  E   
--------------------------|--------------------------|
--------------------------|--------------------------|
--7-----7-----7-----7-----|--7-----7-----7-----7-----|
--------------------------|--------------------------|
--5-----5-----5-----5-----|--5-----5-----5-----5-----|
--------------------------|--------------------------|


  E  E  E  E  E  E  E  E     E  E  E  E  E  E  E  E   
--------------------------|--------------------------|
--------------------------|--------------------------|
--7-----7-----7-----7-----|--7-----7-----7-----7-----|
--------------------------|--------------------------|
--5-----5-----5-----5-----|--5-----5-----5-----5-----|
--------------------------|--------------------------|


  E  E  E  E  E  E  E  E     E  E  E  E  E  E  E  E   
--------------------------|--------------------------|
--------------------------|--------------------------|
--7-----7-----7-----7-----|--7-----7-----7-----7-----|
--------------------------|--------------------------|
--5-----5-----5-----5-----|--5-----5-----5-----5-----|
--------------------------|--------------------------|


  E  E  E  E  E  E  E  E      E  E   E  E   E  E   E  E   
--------------------------|------------------------------|
--------------------------|------------------------------|
--7-----7-----7-----7-----|--12-----12-----12-----12-----|
--------------------------|------------------------------|
--5-----5-----5-----5-----|--10-----10-----10-----10-----|
--------------------------|------------------------------|


   E  E   E  E   E  E   E  E      E  E   E  E   E  E   E  E   
------------------------------|------------------------------|
------------------------------|------------------------------|
--12-----12-----12-----12-----|--12-----12-----12-----12-----|
------------------------------|------------------------------|
--10-----10-----10-----10-----|--10-----10-----10-----10-----|
------------------------------|------------------------------|


   E  E   E  E   E  E   E  E      E  E   E  E   E  E   E  E   
------------------------------|------------------------------|
------------------------------|------------------------------|
--12-----12-----12-----12-----|--12-----12-----12-----12-----|
------------------------------|------------------------------|
--10-----10-----10-----10-----|--10-----10-----10-----10-----|
------------------------------|------------------------------|


   E  E   E  E   E  E   E  E      E  E   E  E   E  E   E  E   
------------------------------|------------------------------|
------------------------------|------------------------------|
--12-----12-----12-----12-----|--12-----12-----12-----12-----|
------------------------------|------------------------------|
--10-----10-----10-----10-----|--10-----10-----10-----10-----|
------------------------------|------------------------------|


   E  E   E  E   E  E   E  E     E  E  E  E  E  E  E  E   
------------------------------|--------------------------|
------------------------------|--------------------------|
--12-----12-----12-----12-----|--------------------------|
------------------------------|--------------------------|
--10-----10-----10-----10-----|--------------------------|
------------------------------|--3-----3-----3-----3--5--|


  E  E  E  E  E  E  E  E     E  E  E  E  E  E  E  E   
--------------------------|--------------------------|
--------------------------|--------------------------|
--------------------------|--------------------------|
--------------------------|--------------------------|
--------------------------|--------------------------|
--6-----6-----6--5--6--8--|--------8-----8--6--5--3--|


  E  S S E  S S E  S S E  S S    E  E  E  E  E  E  E  E   
------------------------------|--------------------------|
------------------------------|--------------------------|
------------------------------|--------------------------|
------------------------------|--------------------------|
------------------------------|--------------------------|
--x--x-x-x--x-x-x--x-x-x--x-x-|--3-----3-----3-----3--5--|


  E  E  E  E  E  E  E  E     E  E  E  E  E  E  E  E     Q    Q    E  E  E  E   
--------------------------|--------------------------|------------------------|
--------------------------|--------------------------|------------------------|
--------------------------|--------------------------|------------------------|
--------------------------|--------------------------|------------------------|
--------------------------|--------------------------|------------3-----3-----|
--6-----6-----6--5--6--8--|--------8-----8--6--5--3--|------------1-----1-----|


  E  E  E  E  E  E  E  E     E  E  E  E  E  E  E  E   
--------------------------|--------------------------|
--------------------------|--------------------------|
--------------------------|--------------------------|
--------------------------|--------------------------|
--------------------------|--------------------------|
--3-----3-----3-----3--5--|--6-----6-----6--5--6--8--|


  E  E  E  E  E  E  E  E     E  S S E  S S E  S S E  S S  
--------------------------|------------------------------|
--------------------------|------------------------------|
--------------------------|------------------------------|
--------------------------|------------------------------|
--------------------------|------------------------------|
--------8-----8--6--5--3--|--x--x-x-x--x-x-x--x-x-x--x-x-|


  E  E  E  E  E  E  E  E     E  E  E  E  E  E  E  E   
--------------------------|--------------------------|
--------------------------|--------------------------|
--------------------------|--------------------------|
--------------------------|--------------------------|
--------------------------|--------------------------|
--3-----3-----3-----3--5--|--6-----6-----6--5--6--8--|


  E  E  E  E  E  E  E  E     E  S S E  S S E  S S E  S S  
--------------------------|------------------------------|
--------------------------|------------------------------|
--------------------------|------------------------------|
--------------------------|------------------------------|
--------------------------|------------------------------|
--------8-----8--6--5--3--|--x--x-x-x--x-x-x--x-x-x--x-x-|


  E   E  E   E  E    E   E   E     E   E  E   E  E    E   E   E   
--------------------------------|--------------------------------|
--------------------------------|--------------------------------|
--7s--8--8s--7--7s--10--10s--7--|--7s--8--8s--7--7s--10--10s--7--|
--------------------------------|--------------------------------|
--5s--6--6s--5--5s---8---8s--5--|--5s--6--6s--5--5s---8---8s--5--|
--------------------------------|--------------------------------|


  E   E  E   E  E    E   E   E     E   E  E   E  E    E   E   E   
--------------------------------|--------------------------------|
--------------------------------|--------------------------------|
--7s--8--8s--7--7s--10--10s--7--|--7s--8--8s--7--7s--10--10s--7--|
--------------------------------|--------------------------------|
--5s--6--6s--5--5s---8---8s--5--|--5s--6--6s--5--5s---8---8s--5--|
--------------------------------|--------------------------------|


  E   E  E   E  E    E   E   E     E   E  E   E  E    E   E   E   
--------------------------------|--------------------------------|
--------------------------------|--------------------------------|
--7s--8--8s--7--7s--10--10s--7--|--7s--8--8s--7--7s--10--10s--7--|
--------------------------------|--------------------------------|
--5s--6--6s--5--5s---8---8s--5--|--5s--6--6s--5--5s---8---8s--5--|
--------------------------------|--------------------------------|


  E   E  E   E  E    E   E   E     E   E  E   E  E    E   E   E   
--------------------------------|--------------------------------|
--------------------------------|--------------------------------|
--7s--8--8s--7--7s--10--10s--7--|--7s--8--8s--7--7s--10--10s--7--|
--------------------------------|--------------------------------|
--5s--6--6s--5--5s---8---8s--5--|--5s--6--6s--5--5s---8---8s--5--|
--------------------------------|--------------------------------|


  Q    E  Q.     E  E     Q    E  Q.     E  E     Q    E  Q.     E  E   
-----------------------|-----------------------|-----------------------|
-----------------------|-----------------------|-----------------------|
--------------------5--|--L-------8------------|--------------------5--|
--5-------8---------5--|--L-------8---------5--|--L-------8---------5--|
--5-------8---------3--|--L-------6---------5--|--L-------8---------3--|
--3-------6------------|--------------------3--|--L-------6------------|


  Q    E  Q.     E  E     Q    E  Q.     E  E     Q    E  Q.     E  E   
-----------------------|-----------------------|-----------------------|
-----------------------|-----------------------|-----------------------|
--L-------8------------|--------------------5--|--L-------8------------|
--L-------8---------5--|--L-------8---------5--|--L-------8---------5--|
--L-------6---------5--|--L-------8---------3--|--L-------6---------5--|
--------------------3--|--L-------6------------|--------------------3--|


  Q    E  Q.     E  E     Q    Q    Q    Q       Q    Q    E  E  E  E   
-----------------------|----------------------|------------------------|
-----------------------|----------------------|------------------------|
--------------------5--|--5----5----5----5----|--7----7----x--x--x--8--|
--L-------8---------5--|--5----5----5----5----|------------------------|
--L-------8---------3--|--3----3----3----3----|--5----5----x--x--x--6--|
--L-------6------------|----------------------|------------------------|


  E  E  E  Q    E  E  E     Q    Q    E  E  E   E   
-------------------------|-------------------------|
-------------------------|-------------------------|
--L--8--8--8----8--8--7--|--7----7----x--x--x--10--|
-------------------------|-------------------------|
--L--6--6--6----6--6--5--|--5----5----x--x--x---8--|
-------------------------|-------------------------|


  E   E   E   Q     E   E  E     Q    Q    E  E  E  E   
------------------------------|------------------------|
------------------------------|------------------------|
--L--10--10--10----10--10--7--|--7----7----x--x--x--8--|
------------------------------|------------------------|
--L---8---8---8-----8---8--5--|--5----5----x--x--x--6--|
------------------------------|------------------------|


  E  E  E  Q    E  E  E     Q    Q    E  E  E   E   
-------------------------|-------------------------|
-------------------------|-------------------------|
--L--8--8--8----8--8--7--|--7----7----x--x--x--10--|
-------------------------|-------------------------|
--L--6--6--6----6--6--5--|--5----5----x--x--x---8--|
-------------------------|-------------------------|


  E   E   E   Q     E   E  E     Q    Q    E  E  E  E   
------------------------------|------------------------|
------------------------------|------------------------|
--L--10--10--10----10--10--7--|--7----7----x--x--x--8--|
------------------------------|------------------------|
--L---8---8---8-----8---8--5--|--5----5----x--x--x--6--|
------------------------------|------------------------|


  E  E  E  Q    E  E  E     Q    Q    E  E  E   E   
-------------------------|-------------------------|
-------------------------|-------------------------|
--L--8--8--8----8--8--7--|--7----7----x--x--x--10--|
-------------------------|-------------------------|
--L--6--6--6----6--6--5--|--5----5----x--x--x---8--|
-------------------------|-------------------------|


  E   E   E   Q     E   E  E     Q    Q    E  E  E  E   
------------------------------|------------------------|
------------------------------|------------------------|
--L--10--10--10----10--10--7--|--7----7----x--x--x--8--|
------------------------------|------------------------|
--L---8---8---8-----8---8--5--|--5----5----x--x--x--6--|
------------------------------|------------------------|


  E  E  E  Q    E  E  E     Q    Q    E  E  E   E   
-------------------------|-------------------------|
-------------------------|-------------------------|
--L--8--8--8----8--8--7--|--7----7----x--x--x--10--|
-------------------------|-------------------------|
--L--6--6--6----6--6--5--|--5----5----x--x--x---8--|
-------------------------|-------------------------|


  E   E   E   Q     E   E  E     E  E  E  E  E  E  E  E   
------------------------------|--------------------------|
------------------------------|--------------------------|
--L--10--10--10----10--10--7--|--------------------------|
------------------------------|--------------------------|
--L---8---8---8-----8---8--5--|--------------------------|
------------------------------|--3-----3-----3-----3--5--|


  E  E  E  E  E  E  E  E     E  E  E  E  E  E  E  E   
--------------------------|--------------------------|
--------------------------|--------------------------|
--------------------------|--------------------------|
--------------------------|--------------------------|
--------------------------|--------------------------|
--6-----6-----6--5--6--8--|--------8-----8--6--5--3--|


  E  S S E  S S E  S S E  S S    E  E  E  E  E  E  E  E   
------------------------------|--------------------------|
------------------------------|--------------------------|
------------------------------|--------------------------|
------------------------------|--------------------------|
------------------------------|--------------------------|
--x--x-x-x--x-x-x--x-x-x--x-x-|--3-----3-----3-----3--5--|


  E  E  E  E  E  E  E  E     E  E  E  E  E  E  E  E   
--------------------------|--------------------------|
--------------------------|--------------------------|
--------------------------|--------------------------|
--------------------------|--------------------------|
--------------------------|--------------------------|
--6-----6-----6--5--6--8--|--------8-----8--6--5--3--|


            |--3--|  |-3|                                
  Q    Q    E  E  E  E  Q       E  E  E  E  E  E  E  E   
-----------------------------|--------------------------|
-----------------------------|--------------------------|
-----------------------------|--------------------------|
-----------------------------|--------------------------|
------------3-----3-----3----|--------------------------|
------------1-----1-----1----|--3-----3-----3-----3--5--|


  E  E  E  E  E  E  E  E     E  E  E  E  E  E  E  E   
--------------------------|--------------------------|
--------------------------|--------------------------|
--------------------------|--------------------------|
--------------------------|--------------------------|
--------------------------|--------------------------|
--6-----6-----6--5--6--8--|--------8-----8--6--5--3--|


  E  S S E  S S E  S S E  S S    E  E  E  E  E  E  E  E   
------------------------------|--------------------------|
------------------------------|--------------------------|
------------------------------|--------------------------|
------------------------------|--------------------------|
------------------------------|--------------------------|
--x--x-x-x--x-x-x--x-x-x--x-x-|--3-----3-----3-----3--5--|


  E  E  E  E  E  E  E  E     E  E  E  E  E  E  E  E   
--------------------------|--------------------------|
--------------------------|--------------------------|
--------------------------|--------------------------|
--------------------------|--------------------------|
--------------------------|--------------------------|
--6-----6-----6--5--6--8--|--------8-----8--6--5--3--|


  E  S S E  S S E  S S E  S S    E   E  E   E  E    E   E   E   
------------------------------|--------------------------------|
------------------------------|--------------------------------|
------------------------------|--7s--8--8s--7--7s--10--10s--7--|
------------------------------|--------------------------------|
------------------------------|--5s--6--6s--5--5s---8---8s--5--|
--x--x-x-x--x-x-x--x-x-x--x-x-|--------------------------------|


  E   E  E   E  E    E   E   E     E   E  E   E  E    E   E   E   
--------------------------------|--------------------------------|
--------------------------------|--------------------------------|
--7s--8--8s--7--7s--10--10s--7--|--7s--8--8s--7--7s--10--10s--7--|
--------------------------------|--------------------------------|
--5s--6--6s--5--5s---8---8s--5--|--5s--6--6s--5--5s---8---8s--5--|
--------------------------------|--------------------------------|


  E   E  E   E  E    E   E   E     E   E  E   E  E    E   E   E   
--------------------------------|--------------------------------|
--------------------------------|--------------------------------|
--7s--8--8s--7--7s--10--10s--7--|--7s--8--8s--7--7s--10--10s--7--|
--------------------------------|--------------------------------|
--5s--6--6s--5--5s---8---8s--5--|--5s--6--6s--5--5s---8---8s--5--|
--------------------------------|--------------------------------|


  E   E  E   E  E    E   E   E     E   E  E   E  E    E   E   E   
--------------------------------|--------------------------------|
--------------------------------|--------------------------------|
--7s--8--8s--7--7s--10--10s--7--|--7s--8--8s--7--7s--10--10s--7--|
--------------------------------|--------------------------------|
--5s--6--6s--5--5s---8---8s--5--|--5s--6--6s--5--5s---8---8s--5--|
--------------------------------|--------------------------------|


  E   E  E   E  E    E   E   E    
--------------------------------||
--------------------------------||
--7s--8--8s--7--7s--10--10s--7--||
--------------------------------||
--5s--6--6s--5--5s---8---8s--5--||
--------------------------------||




Duration Legend
---------------
W - whole
H - half
Q - quarter
E - 8th
S - 16th
T - 32nd
X - 64th
. - note dotted
|-n-|  - n-tuplets


Tablature Legend
----------------
L - tied note
x - dead note
g - grace note
(n) - ghost note
> - accentuded note
NH - natural harmonic
AH - artificial harmonic
TH - tapped harmonic
SH - semi harmonic
PH - pitch harmonic
h - hammer on
p - pull off
b - bend
br - bendRelease
pb - preBend
pbr - preBendRelease
brb - bendReleaseBend
\n/ - tremolo bar dip
\n - tremolo bar dive
-/n - tremolo bar Release up
/n\ - tremolo bar inverted dip
/n - tremolo bar return
-\n - tremolo bar Release down
S - shift slide
s - legato slide
/ -  slide into from below or out of upwards
\ -  slide into from above or out of downwards
~ - vibrato
W - wide vibrato
tr - trill
TP - tremolo picking
T - tapping
S - slap
P - pop
< - fade in
^ - brush up
v - brush down
comments
We did not receive enough feedback on this tab! Please rate:
print report bad tab
1 2 3 4 5
I want to post or [tab]
guest
You may want to rate the tab now too:
select rating
Please do not post tabs as comments. Select "correction" instead!