Oops, an error
Loading. Please wait.

Danz Tab

ver2
ver2

Whole song

Interactive

More versions @911Tabs.com
146 views 1 this week
no commentswrite comment
1 2 3 4 5
please rate
Autoscroll
+/-
esc
set tempo
stop
Contributor
Hey! There's an official Ultimate Guitar app which is ideal
for learning songs when you're away from computer. Get the app
WARNING: You are trying to view
                                    content from Ultimate-Guitar.com
                                    in an unauthorized application,
                                    which is prohibited.

                                    Please use an official Ultimate
                                    Guitar Tabs application for iPhone,
                                    iPad or Android to access legitimate
                                    chords, guitar, bass, and drum tabs
                                    from Ultimate-Guitar.com database.

                                    Type "ultimate guitar tabs" in Apple
                                    App Store's or Android Market's
                                    search to find the application.
Danz!                                       


                                                                  La Vida Bohème
Parte de Henry



     Q    H        E  E     Q    H        E  E     Q    H        E  E   
E||----------------------|----------------------|----------------------|
B||----------------------|----------------------|----------------------|
G||----------------------|----------------------|----------------------|
D||----------------------|-------------------5--|--L----------------8--|
A||--5----------------8--|--L----------------3--|--L----------------6--|
E||--3----------------6--|--L-------------------|----------------------|


  E  E  E  Q    E  E  E     Q    H        E  E     Q    H        E  E   
-------------------------|----------------------|----------------------|
-------------------------|----------------------|----------------------|
-------------------------|----------------------|----------------------|
--L--8-----8----8--------|----------------------|-------------------5--|
--L--6-----6----6-----5--|--L----------------8--|--L----------------3--|
----------------------3--|--L----------------6--|--L-------------------|


  Q    H        E  E     E  E  E  Q    E  Q       Q    H        E  E   
----------------------|------------------------|----------------------|
----------------------|------------------------|----------------------|
----------------------|------------------------|----------------------|
--L----------------8--|--L--8-----8----8-------|----------------------|
--L----------------6--|--L--6-----6----6-------|--5----------------8--|
----------------------|------------------------|--3----------------6--|


  Q    H        E  E     Q    H        E  E     E  E  E  Q    E  E  E   
----------------------|----------------------|-------------------------|
----------------------|----------------------|-------------------------|
----------------------|----------------------|-------------------------|
-------------------5--|--L----------------8--|--L--8-----8----8--------|
--L----------------3--|--L----------------6--|--L--6-----6----6-----5--|
--L-------------------|----------------------|----------------------3--|


  Q    H        E  E     Q    H        E  E     Q    H        E  E   
----------------------|----------------------|----------------------|
----------------------|----------------------|----------------------|
----------------------|----------------------|----------------------|
----------------------|-------------------5--|--L----------------8--|
--L----------------8--|--L----------------3--|--L----------------6--|
--L----------------6--|--L-------------------|----------------------|


  E  E  E  Q    E  Q       Q    E  Q.     E  E     Q    E  Q.     E  E   
------------------------|-----------------------|-----------------------|
------------------------|-----------------------|-----------------------|
------------------------|--------------------5--|--L-------8------------|
--L--8-----8----8-------|--5-------8---------5--|--L-------8---------5--|
--L--6-----6----6-------|--5-------8---------3--|--L-------6---------5--|
------------------------|--3-------6------------|--------------------3--|


  Q    E  Q.     E  E     Q    E  Q.     E  E     Q    E  Q.     E  E   
-----------------------|-----------------------|-----------------------|
-----------------------|-----------------------|-----------------------|
--------------------5--|--L-------8------------|--------------------5--|
--L-------8---------5--|--L-------8---------5--|----------8---------5--|
--L-------8---------3--|--L-------6---------5--|--L-------8---------3--|
--L-------6------------|--------------------3--|--L-------6------------|


  Q    E  Q.     E  E     Q    E  Q.     E  E     Q    E  Q.     E  E   
-----------------------|-----------------------|-----------------------|
-----------------------|-----------------------|-----------------------|
--L-------8------------|--------------------5--|--L-------8------------|
--L-------8---------5--|--L-------8---------5--|--L-------8---------5--|
--L-------6---------5--|--L-------8---------3--|--L-------6---------5--|
--------------------3--|--L-------6------------|--------------------3--|


  Q    E  Q.     E  E     Q    E  Q.     E  E     Q    E  Q.     E  E   
-----------------------|-----------------------|-----------------------|
-----------------------|-----------------------|-----------------------|
-----------------------|-----------------------|-----------------------|
--L-------5---------5--|--L-------5---------5--|--L-------5---------5--|
--L-------5---------5--|--L-------5---------5--|--L-------5---------5--|
--L-------3---------3--|--L-------3---------3--|--L-------3---------3--|


  Q    E  Q.     E  E     E  E  E  E  E  E  E  E     E  E  E  E  E  E  E  E   
-----------------------|--------------------------|--------------------------|
-----------------------|--------------------------|--------------------------|
-----------------------|--------------------------|--------------------------|
--L-------5---------5--|--------------------------|--------------------------|
--L-------5---------5--|--5--5--5--5--5--5--5--5--|--5--5--5--5--5--5--5--5--|
--L-------3---------3--|--3--3--3--3--3--3--3--3--|--3--3--3--3--3--3--3--3--|


  E  E  E  E  E  E  E  E     E  E  E  E  E  E  E  E                           
--------------------------|--------------------------|-----|-----|-----|-----|
--------------------------|--------------------------|-----|-----|-----|-----|
--------------------------|--------------------------|-----|-----|-----|-----|
--5--5--5--5--5--5--5--5--|--5--5--5--5--5--5--5--5--|-----|-----|-----|-----|
--5--5--5--5--5--5--5--5--|--5--5--5--5--5--5--5--5--|-----|-----|-----|-----|
--3--3--3--3--3--3--3--3--|--3--3--3--3--3--3--3--3--|-----|-----|-----|-----|


                          E   E  E   E  E    E   E   E   
-----|-----|-----|-----|--------------------------------|
-----|-----|-----|-----|--------------------------------|
-----|-----|-----|-----|--7s--8--8s--7--7s--10--10s--7--|
-----|-----|-----|-----|--------------------------------|
-----|-----|-----|-----|--5s--6--6s--5--5s---8---8s--5--|
-----|-----|-----|-----|--------------------------------|


  E   E  E   E  E    E   E   E     E   E  E   E  E    E   E   E   
--------------------------------|--------------------------------|
--------------------------------|--------------------------------|
--7s--8--8s--7--7s--10--10s--7--|--7s--8--8s--7--7s--10--10s--7--|
--------------------------------|--------------------------------|
--5s--6--6s--5--5s---8---8s--5--|--5s--6--6s--5--5s---8---8s--5--|
--------------------------------|--------------------------------|


  E   E  E   E  E    E   E   E     E   E  E   E  E    E   E   E   
--------------------------------|--------------------------------|
--------------------------------|--------------------------------|
--7s--8--8s--7--7s--10--10s--7--|--7s--8--8s--7--7s--10--10s--7--|
--------------------------------|--------------------------------|
--5s--6--6s--5--5s---8---8s--5--|--5s--6--6s--5--5s---8---8s--5--|
--------------------------------|--------------------------------|


  E   E  E   E  E    E   E   E     E   E  E   E  E    E   E   E   
--------------------------------|--------------------------------|
--------------------------------|--------------------------------|
--7s--8--8s--7--7s--10--10s--7--|--7s--8--8s--7--7s--10--10s--7--|
--------------------------------|--------------------------------|
--5s--6--6s--5--5s---8---8s--5--|--5s--6--6s--5--5s---8---8s--5--|
--------------------------------|--------------------------------|


                                    TP    TP    TP    TP    
  E   E  E   E  E    E   E   E      Q     Q     Q     Q     
--------------------------------|--------------13----------|
--------------------------------|--15----11----------11----|
--7s--8--8s--7--7s--10--10s--7--|--------------------------|
--------------------------------|--------------------------|
--5s--6--6s--5--5s---8---8s--5--|--------------------------|
--------------------------------|--------------------------|


   TP    TP    TP    TP       TP    TP    TP    TP    
   Q     Q     Q     Q        Q     Q     Q     Q     
--------------13----------|--------------13----------|
--15----11----------11----|--15----11----------11----|
--------------------------|--------------------------|
--------------------------|--------------------------|
--------------------------|--------------------------|
--------------------------|--------------------------|


   TP    TP    TP    TP       TP    TP    TP    TP    
   Q     Q     Q     Q        Q     Q     Q     Q     
--------------13----------|--------------13----------|
--15----11----------11----|--15----11----------11----|
--------------------------|--------------------------|
--------------------------|--------------------------|
--------------------------|--------------------------|
--------------------------|--------------------------|


   TP    TP    TP    TP       TP    TP    TP    TP    
   Q     Q     Q     Q        Q     Q     Q     Q     
--------------13----------|--------------13----------|
--15----11----------11----|--15----11----------11----|
--------------------------|--------------------------|
--------------------------|--------------------------|
--------------------------|--------------------------|
--------------------------|--------------------------|


   TP    TP    TP    TP                                                    
   Q     Q     Q     Q       Q    E  Q.     E  E     Q    E  Q.     E  E   
--------------13----------|-----------------------|-----------------------|
--15----11----------11----|-----------------------|-----------------------|
--------------------------|--------------------5--|--L-------8------------|
--------------------------|--5-------8---------5--|--L-------8---------5--|
--------------------------|--5-------8---------3--|--L-------6---------5--|
--------------------------|--3-------6------------|--------------------3--|


  Q    E  Q.     E  E     Q    E  Q.     E  E     Q    E  Q.     E  E   
-----------------------|-----------------------|-----------------------|
-----------------------|-----------------------|-----------------------|
--------------------5--|--L-------8------------|--------------------5--|
--L-------8---------5--|--L-------8---------5--|--L-------8---------5--|
--L-------8---------3--|--L-------6---------5--|--L-------8---------3--|
--L-------6------------|--------------------3--|--L-------6------------|


  Q    E  Q.     E  E     Q    E  Q.     E  E     Q    Q    Q    Q             
-----------------------|-----------------------|----------------------|-------|
-----------------------|-----------------------|----------------------|-------|
--L-------8------------|--------------------5--|--5----5----5----5----|-------|
--L-------8---------5--|--L-------8---------5--|--5----5----5----5----|-------|
--L-------6---------5--|--L-------8---------3--|--3----3----3----3----|-------|
--------------------3--|--L-------6------------|----------------------|-------|


                                                          Q    H        E  E   
-------|-------|-------|-------|-------|-------|-------|----------------------|
-------|-------|-------|-------|-------|-------|-------|----------------------|
-------|-------|-------|-------|-------|-------|-------|----------------------|
-------|-------|-------|-------|-------|-------|-------|----------------------|
-------|-------|-------|-------|-------|-------|-------|--5----L--------L--8--|
-------|-------|-------|-------|-------|-------|-------|--3----L--------L--6--|


  Q    H        E  E     Q    H        E  E     E  E  E  Q    E  E  E   
----------------------|----------------------|-------------------------|
----------------------|----------------------|-------------------------|
----------------------|----------------------|-------------------------|
-------------------5--|--L----L--------L--8--|--L--8-----8----8--------|
--L----L--------L--3--|--L----L--------L--6--|--L--6-----6----6-----5--|
--L----L--------L-----|----------------------|----------------------3--|


  Q    H        E  E     Q    H        E  E     Q    H        E  E   
----------------------|----------------------|----------------------|
----------------------|----------------------|----------------------|
----------------------|----------------------|----------------------|
----------------------|-------------------5--|--L----L--------L--8--|
--L----L--------L--8--|--L----L--------L--3--|--L----L--------L--6--|
--L----L--------L--6--|--L----L--------L-----|----------------------|


  E  E  E  Q    E  Q                                                     
------------------------|-----|-----|-----|-----|-----|-----|-----|-----|
------------------------|-----|-----|-----|-----|-----|-----|-----|-----|
------------------------|-----|-----|-----|-----|-----|-----|-----|-----|
--L--8-----8----8-------|-----|-----|-----|-----|-----|-----|-----|-----|
--L--6-----6----6-------|-----|-----|-----|-----|-----|-----|-----|-----|
------------------------|-----|-----|-----|-----|-----|-----|-----|-----|


  E   E  E   E  E    E   E   E     E   E  E   E  E    E   E   E   
--------------------------------|--------------------------------|
--------------------------------|--------------------------------|
--7s--8--8s--7--7s--10--10s--7--|--7s--8--8s--7--7s--10--10s--7--|
--------------------------------|--------------------------------|
--5s--6--6s--5--5s---8---8s--5--|--5s--6--6s--5--5s---8---8s--5--|
--------------------------------|--------------------------------|


  E   E  E   E  E    E   E   E     E   E  E   E  E    E   E   E   
--------------------------------|--------------------------------|
--------------------------------|--------------------------------|
--7s--8--8s--7--7s--10--10s--7--|--7s--8--8s--7--7s--10--10s--7--|
--------------------------------|--------------------------------|
--5s--6--6s--5--5s---8---8s--5--|--5s--6--6s--5--5s---8---8s--5--|
--------------------------------|--------------------------------|


  E   E  E   E  E    E   E   E     E   E  E   E  E    E   E   E   
--------------------------------|--------------------------------|
--------------------------------|--------------------------------|
--7s--8--8s--7--7s--10--10s--7--|--7s--8--8s--7--7s--10--10s--7--|
--------------------------------|--------------------------------|
--5s--6--6s--5--5s---8---8s--5--|--5s--6--6s--5--5s---8---8s--5--|
--------------------------------|--------------------------------|


  E   E  E   E  E    E   E   E     E   E  E   E  E    E   E   E   
--------------------------------|--------------------------------|
--------------------------------|--------------------------------|
--7s--8--8s--7--7s--10--10s--7--|--7s--8--8s--7--7s--10--10s--7--|
--------------------------------|--------------------------------|
--5s--6--6s--5--5s---8---8s--5--|--5s--6--6s--5--5s---8---8s--5--|
--------------------------------|--------------------------------|


   TP    TP    TP    TP       TP    TP    TP    TP    
   Q     Q     Q     Q        Q     Q     Q     Q     
--------------13----------|--------------13----------|
--15----11----------11----|--15----11----------11----|
--------------------------|--------------------------|
--------------------------|--------------------------|
--------------------------|--------------------------|
--------------------------|--------------------------|


   TP    TP    TP    TP       TP    TP    TP    TP    
   Q     Q     Q     Q        Q     Q     Q     Q     
--------------13----------|--------------13----------|
--15----11----------11----|--15----11----------11----|
--------------------------|--------------------------|
--------------------------|--------------------------|
--------------------------|--------------------------|
--------------------------|--------------------------|


   TP    TP    TP    TP       TP    TP    TP    TP    
   Q     Q     Q     Q        Q     Q     Q     Q     
--------------13----------|--------------13----------|
--15----11----------11----|--15----11----------11----|
--------------------------|--------------------------|
--------------------------|--------------------------|
--------------------------|--------------------------|
--------------------------|--------------------------|


   TP    TP    TP    TP       TP    TP    TP    TP     
   Q     Q     Q     Q        Q     Q     Q     Q      
--------------13----------|--------------13----------||
--15----11----------11----|--15----11----------11----||
--------------------------|--------------------------||
--------------------------|--------------------------||
--------------------------|--------------------------||
--------------------------|--------------------------||




Duration Legend
---------------
W - whole
H - half
Q - quarter
E - 8th
S - 16th
T - 32nd
X - 64th
. - note dotted
|-n-|  - n-tuplets


Tablature Legend
----------------
L - tied note
x - dead note
g - grace note
(n) - ghost note
> - accentuded note
NH - natural harmonic
AH - artificial harmonic
TH - tapped harmonic
SH - semi harmonic
PH - pitch harmonic
h - hammer on
p - pull off
b - bend
br - bendRelease
pb - preBend
pbr - preBendRelease
brb - bendReleaseBend
\n/ - tremolo bar dip
\n - tremolo bar dive
-/n - tremolo bar Release up
/n\ - tremolo bar inverted dip
/n - tremolo bar return
-\n - tremolo bar Release down
S - shift slide
s - legato slide
/ -  slide into from below or out of upwards
\ -  slide into from above or out of downwards
~ - vibrato
W - wide vibrato
tr - trill
TP - tremolo picking
T - tapping
S - slap
P - pop
< - fade in
^ - brush up
v - brush down
comments
We did not receive enough feedback on this tab! Please rate:
print report bad tab
1 2 3 4 5
I want to post or [tab]
guest
You may want to rate the tab now too:
select rating
Please do not post tabs as comments. Select "correction" instead!