Oops, an error
Loading. Please wait.

Flamingo Tab

ver2
ver2

Whole song

Interactive

More versions @911Tabs.com
390 views 1 this week
1 commentread comment
1 2 3 4 5
please rate
add to favorites launch autoscroll
font size
0
reset
Autoscroll
+/-
esc
set tempo
stop
Contributor
WARNING: You are trying to view
                                    content from Ultimate-Guitar.com
                                    in an unauthorized application,
                                    which is prohibited.

                                    Please use an official Ultimate
                                    Guitar Tabs application for iPhone,
                                    iPad or Android to access legitimate
                                    chords, guitar, bass, and drum tabs
                                    from Ultimate-Guitar.com database.

                                    Type "ultimate guitar tabs" in Apple
                                    App Store's or Android Market's
                                    search to find the application.
Tuning: EADGBe

Intro:
e|--------------------------------------------------------------------------|
B|--------------------------------------------------------------------------|
G|--------------------------------------------------------------------------|
D|-6--6--6--6--6--6--6--6--6--6--6--6--6--6--6--6--6--6--6--6--6--6--6--6---|
A|--------------------------------------------------------------------------|
E|--------------------------------------------------------------------------|

Guitar 1
e|---------------------------------------------------------------------------|
B|--------------------11-1-1-1-1-1-1-1-1------------------11-1-1-1-1-1-1-1-1-|
G|-11-1-1-1-1-1-1-1-1-22-2-2-2-2-2-2-2-2-11-1-1-1-1-1-1-1-22-2-2-2-2-2-2-2-2-|
D|-22-2-2-2-2-2-2-2-2-22-2-2-2-2-2-2-2-2-22-2-2-2-2-2-2-2-22-2-2-2-2-2-2-2-2-|
A|-22-2-2-2-2-2-2-2-2--------------------22-2-2-2-2-2-2-2--------------------|
E|---------------------------------------------------------------------------|

e|---------------------------------------------------------------------------|
B|--------------------11-1-1-1-1-1-1-1-1------------------11-1-1-1-1-1-1-1-1-|
G|-11-1-1-1-1-1-1-1-1-22-2-2-2-2-2-2-2-2-11-1-1-1-1-1-1-1-22-2-2-2-2-2-2-2-2-|
D|-22-2-2-2-2-2-2-2-2-22-2-2-2-2-2-2-2-2-22-2-2-2-2-2-2-2-22-2-2-2-2-2-2-2-2-|
A|-22-2-2-2-2-2-2-2-2--------------------22-2-2-2-2-2-2-2--------------------|
E|---------------------------------------------------------------------------|

Guitar 2
Main Riff
e|-------0-------0-----------------------------------------------|
B|-------x-------x--------------9----------9---------------------|
G|-------9-------9--------------9----------9---------------------|
D|-----9---9---9---9---------11--11----11---11-------------------|
A|--11-------11-----11----12--------12---------12----------------|
E|---------------------------------------------------------------|

e|-------0-------0-----------------------------------------------|
B|-------x-------x--------------9----------9---------------------|
G|-------9-------9--------------9----------9---------------------|
D|-----9---9---9---9---------11--11----11---11-------------------|
A|--11-------11-----11----12--------12---------12----------------|
E|---------------------------------------------------------------|

e|-------0-------0-----------------------------------------------|
B|-------x-------x--------------9----------9---------------------|
G|-------9-------9--------------9----------9---------------------|
D|-----9---9---9---9---------11--11----11---11-------------------|
A|--11-------11-----11----12--------12---------12----------------|
E|---------------------------------------------------------------|

e|-------0-------0-----------------------------------------------|
B|-------x-------x--------------9----------9---------------------|
G|-------9-------9--------------9----------9---------------------|
D|-----9---9---9---9---------11--11----11---11-------------------|
A|--11-------11-----11----12--------12---------12----------------|
E|---------------------------------------------------------------|

Guitar 1
Verse
e|---------------------------------------------------------------------------|
B|-------------------1-1-1-1-1-1-1-1-1-----------------1-1-1-1-1-1-1-1-1-----|
G|-1-1-1-1-1-1-1-1-1-2-2-2-2-2-2-2-2-2-1-1-1-1-1-1-1-1-2-2-2-2-2-2-2-2-2-----|
D|-2-2-2-2-2-2-2-2-2-2-2-2-2-2-2-2-2-2-2-2-2-2-2-2-2-2-2-2-2-2-2-2-2-2-2-----|
A|-2-2-2-2-2-2-2-2-2-------------------2-2-2-2-2-2-2-2-----------------------|
E|---------------------------------------------------------------------------|
   x x x x x x x x x x x x x x x x x x x x x x x x x x x x x x x x x x x

e|---------------------------------------------------------------------------|
B|-------------------1-1-1-1-1-1-1-1-1-----------------1-1-1-1-1-1-1-1-1-----|
G|-1-1-1-1-1-1-1-1-1-2-2-2-2-2-2-2-2-2-1-1-1-1-1-1-1-1-2-2-2-2-2-2-2-2-2-----|
D|-2-2-2-2-2-2-2-2-2-2-2-2-2-2-2-2-2-2-2-2-2-2-2-2-2-2-2-2-2-2-2-2-2-2-2-----|
A|-2-2-2-2-2-2-2-2-2-------------------2-2-2-2-2-2-2-2-----------------------|
E|---------------------------------------------------------------------------|
   x x x x x x x x x x x x x x x x x x x x x x x x x x x x x x x x x x x

e|---------------------------------------------------------------------------|
B|-------------------1-1-1-1-1-1-1-1-1-----------------1-1-1-1-1-1-1-1-1-----|
G|-1-1-1-1-1-1-1-1-1-2-2-2-2-2-2-2-2-2-1-1-1-1-1-1-1-1-2-2-2-2-2-2-2-2-2-----|
D|-2-2-2-2-2-2-2-2-2-2-2-2-2-2-2-2-2-2-2-2-2-2-2-2-2-2-2-2-2-2-2-2-2-2-2-----|
A|-2-2-2-2-2-2-2-2-2-------------------2-2-2-2-2-2-2-2-----------------------|
E|---------------------------------------------------------------------------|
   x x x x x x x x x x x x x x x x x x x x x x x x x x x x x x x x x x x


Guitar 2                                                                  x6
Verse
e|--------------------------------------------------------------------------|
B|--------------------------------------------------------------------------|
G|-9-9-9-9-9-9-9-9-9-9-9-9-9-9-9-9-13-13-13-13-13-13-13-13-11-11-13-13-11-11|
D|--------------------------------------------------------------------------|
A|--------------------------------------------------------------------------|
E|--------------------------------------------------------------------------|

Guitar 1 & 2
(Pre-Chorus)
e|2-2-2-2-2-2-2-2-2-2--0-0-0-0-0-0-0-0-0-0-|
B|2-2-2-2-2-2-2-2-2-2--0-0-0-0-0-0-0-0-0-0-|
G|3-3-3-3-3-3-3-3-3-3--2-2-2-2-2-2-2-2-2-2-|
D|4-4-4-4-4-4-4-4-4-4--2-2-2-2-2-2-2-2-2-2-|
A|4-4-4-4-4-4-4-4-4-4--0-0-0-0-0-0-0-0-0-0-|
E|2-2-2-2-2-2-2-2-2-2--x-x-x-x-x-x-x-x-x-x-|

Guitar 1
Chorus
e|---------------------------------------------------------------------------|
B|--------------------11-1-1-1-1-1-1-1-1------------------11-1-1-1-1-1-1-1-1-|
G|-11-1-1-1-1-1-1-1-1-22-2-2-2-2-2-2-2-2-11-1-1-1-1-1-1-1-22-2-2-2-2-2-2-2-2-|
D|-22-2-2-2-2-2-2-2-2-22-2-2-2-2-2-2-2-2-22-2-2-2-2-2-2-2-22-2-2-2-2-2-2-2-2-|
A|-22-2-2-2-2-2-2-2-2--------------------22-2-2-2-2-2-2-2--------------------|
E|---------------------------------------------------------------------------|

e|---------------------------------------------------------------------------|
B|--------------------11-1-1-1-1-1-1-1-1------------------11-1-1-1-1-1-1-1-1-|
G|-11-1-1-1-1-1-1-1-1-22-2-2-2-2-2-2-2-2-11-1-1-1-1-1-1-1-22-2-2-2-2-2-2-2-2-|
D|-22-2-2-2-2-2-2-2-2-22-2-2-2-2-2-2-2-2-22-2-2-2-2-2-2-2-22-2-2-2-2-2-2-2-2-|
A|-22-2-2-2-2-2-2-2-2--------------------22-2-2-2-2-2-2-2--------------------|
E|---------------------------------------------------------------------------|

Guitar 2
Chorus
e|-------0-------0-----------------------------------------------|
B|-------x-------x--------------9----------9---------------------|
G|-------9-------9--------------9----------9---------------------|
D|-----9---9---9---9---------11--11----11---11-------------------|
A|--11-------11-----11----12--------12---------12----------------|
E|---------------------------------------------------------------|

e|-------0-------0-----------------------------------------------|
B|-------x-------x--------------9----------9---------------------|
G|-------9-------9--------------9----------9---------------------|
D|-----9---9---9---9---------11--11----11---11-------------------|
A|--11-------11-----11----12--------12---------12----------------|
E|---------------------------------------------------------------|

e|-------0-------0-----------------------------------------------|
B|-------x-------x--------------9----------9---------------------|
G|-------9-------9--------------9----------9---------------------|
D|-----9---9---9---9---------11--11----11---11-------------------|
A|--11-------11-----11----12--------12---------12----------------|
E|---------------------------------------------------------------|

e|-------0-------0-----------------------------------------------|
B|-------x-------x--------------9----------9---------------------|
G|-------9-------9--------------9----------9---------------------|
D|-----9---9---9---9---------11--11----11---11-------------------|
A|--11-------11-----11----12--------12---------12----------------|
E|---------------------------------------------------------------|

Guitar 1
Verse
e|---------------------------------------------------------------------------|
B|-------------------1-1-1-1-1-1-1-1-1-----------------1-1-1-1-1-1-1-1-1-----|
G|-1-1-1-1-1-1-1-1-1-2-2-2-2-2-2-2-2-2-1-1-1-1-1-1-1-1-2-2-2-2-2-2-2-2-2-----|
D|-2-2-2-2-2-2-2-2-2-2-2-2-2-2-2-2-2-2-2-2-2-2-2-2-2-2-2-2-2-2-2-2-2-2-2-----|
A|-2-2-2-2-2-2-2-2-2-------------------2-2-2-2-2-2-2-2-----------------------|
E|---------------------------------------------------------------------------|
   x x x x x x x x x x x x x x x x x x x x x x x x x x x x x x x x x x x

e|---------------------------------------------------------------------------|
B|-------------------1-1-1-1-1-1-1-1-1-----------------1-1-1-1-1-1-1-1-1-----|
G|-1-1-1-1-1-1-1-1-1-2-2-2-2-2-2-2-2-2-1-1-1-1-1-1-1-1-2-2-2-2-2-2-2-2-2-----|
D|-2-2-2-2-2-2-2-2-2-2-2-2-2-2-2-2-2-2-2-2-2-2-2-2-2-2-2-2-2-2-2-2-2-2-2-----|
A|-2-2-2-2-2-2-2-2-2-------------------2-2-2-2-2-2-2-2-----------------------|
E|---------------------------------------------------------------------------|
   x x x x x x x x x x x x x x x x x x x x x x x x x x x x x x x x x x x

e|---------------------------------------------------------------------------|
B|-------------------1-1-1-1-1-1-1-1-1-----------------1-1-1-1-1-1-1-1-1-----|
G|-1-1-1-1-1-1-1-1-1-2-2-2-2-2-2-2-2-2-1-1-1-1-1-1-1-1-2-2-2-2-2-2-2-2-2-----|
D|-2-2-2-2-2-2-2-2-2-2-2-2-2-2-2-2-2-2-2-2-2-2-2-2-2-2-2-2-2-2-2-2-2-2-2-----|
A|-2-2-2-2-2-2-2-2-2-------------------2-2-2-2-2-2-2-2-----------------------|
E|---------------------------------------------------------------------------|
   x x x x x x x x x x x x x x x x x x x x x x x x x x x x x x x x x x x


Guitar 2                                                                  x6
Verse
e|--------------------------------------------------------------------------|
B|--------------------------------------------------------------------------|
G|-9-9-9-9-9-9-9-9-9-9-9-9-9-9-9-9-13-13-13-13-13-13-13-13-11-11-13-13-11-11|
D|--------------------------------------------------------------------------|
A|--------------------------------------------------------------------------|
E|--------------------------------------------------------------------------|

Guitar 1 & 2
(Pre-Chorus)
e|2-2-2-2-2-2-2-2-2-2--0-0-0-0-0-0-0-0-0-0-|
B|2-2-2-2-2-2-2-2-2-2--0-0-0-0-0-0-0-0-0-0-|
G|3-3-3-3-3-3-3-3-3-3--2-2-2-2-2-2-2-2-2-2-|
D|4-4-4-4-4-4-4-4-4-4--2-2-2-2-2-2-2-2-2-2-|
A|4-4-4-4-4-4-4-4-4-4--0-0-0-0-0-0-0-0-0-0-|
E|2-2-2-2-2-2-2-2-2-2--x-x-x-x-x-x-x-x-x-x-|


Guitar 1
Chorus
e|---------------------------------------------------------------------------|
B|--------------------11-1-1-1-1-1-1-1-1------------------11-1-1-1-1-1-1-1-1-|
G|-11-1-1-1-1-1-1-1-1-22-2-2-2-2-2-2-2-2-11-1-1-1-1-1-1-1-22-2-2-2-2-2-2-2-2-|
D|-22-2-2-2-2-2-2-2-2-22-2-2-2-2-2-2-2-2-22-2-2-2-2-2-2-2-22-2-2-2-2-2-2-2-2-|
A|-22-2-2-2-2-2-2-2-2--------------------22-2-2-2-2-2-2-2--------------------|
E|---------------------------------------------------------------------------|

e|---------------------------------------------------------------------------|
B|--------------------11-1-1-1-1-1-1-1-1------------------11-1-1-1-1-1-1-1-1-|
G|-11-1-1-1-1-1-1-1-1-22-2-2-2-2-2-2-2-2-11-1-1-1-1-1-1-1-22-2-2-2-2-2-2-2-2-|
D|-22-2-2-2-2-2-2-2-2-22-2-2-2-2-2-2-2-2-22-2-2-2-2-2-2-2-22-2-2-2-2-2-2-2-2-|
A|-22-2-2-2-2-2-2-2-2--------------------22-2-2-2-2-2-2-2--------------------|
E|---------------------------------------------------------------------------|

Guitar 2
Chorus
e|-------0-------0-----------------------------------------------|
B|-------x-------x--------------9----------9---------------------|
G|-------9-------9--------------9----------9---------------------|
D|-----9---9---9---9---------11--11----11---11-------------------|
A|--11-------11-----11----12--------12---------12----------------|
E|---------------------------------------------------------------|

e|-------0-------0-----------------------------------------------|
B|-------x-------x--------------9----------9---------------------|
G|-------9-------9--------------9----------9---------------------|
D|-----9---9---9---9---------11--11----11---11-------------------|
A|--11-------11-----11----12--------12---------12----------------|
E|---------------------------------------------------------------|

e|-------0-------0-----------------------------------------------|
B|-------x-------x--------------9----------9---------------------|
G|-------9-------9--------------9----------9---------------------|
D|-----9---9---9---9---------11--11----11---11-------------------|
A|--11-------11-----11----12--------12---------12----------------|
E|---------------------------------------------------------------|

e|-------0-------0-----------------------------------------------|
B|-------x-------x--------------9----------9---------------------|
G|-------9-------9--------------9----------9---------------------|
D|-----9---9---9---9---------11--11----11---11-------------------|
A|--11-------11-----11----12--------12---------12----------------|
E|---------------------------------------------------------------|

Guitar 1
Verse
e|---------------------------------------------------------------------------|
B|-------------------1-1-1-1-1-1-1-1-1-----------------1-1-1-1-1-1-1-1-1-----|
G|-1-1-1-1-1-1-1-1-1-2-2-2-2-2-2-2-2-2-1-1-1-1-1-1-1-1-2-2-2-2-2-2-2-2-2-----|
D|-2-2-2-2-2-2-2-2-2-2-2-2-2-2-2-2-2-2-2-2-2-2-2-2-2-2-2-2-2-2-2-2-2-2-2-----|
A|-2-2-2-2-2-2-2-2-2-------------------2-2-2-2-2-2-2-2-----------------------|
E|---------------------------------------------------------------------------|
   x x x x x x x x x x x x x x x x x x x x x x x x x x x x x x x x x x x

e|---------------------------------------------------------------------------|
B|-------------------1-1-1-1-1-1-1-1-1-----------------1-1-1-1-1-1-1-1-1-----|
G|-1-1-1-1-1-1-1-1-1-2-2-2-2-2-2-2-2-2-1-1-1-1-1-1-1-1-2-2-2-2-2-2-2-2-2-----|
D|-2-2-2-2-2-2-2-2-2-2-2-2-2-2-2-2-2-2-2-2-2-2-2-2-2-2-2-2-2-2-2-2-2-2-2-----|
A|-2-2-2-2-2-2-2-2-2-------------------2-2-2-2-2-2-2-2-----------------------|
E|---------------------------------------------------------------------------|
   x x x x x x x x x x x x x x x x x x x x x x x x x x x x x x x x x x x

e|---------------------------------------------------------------------------|
B|-------------------1-1-1-1-1-1-1-1-1-----------------1-1-1-1-1-1-1-1-1-----|
G|-1-1-1-1-1-1-1-1-1-2-2-2-2-2-2-2-2-2-1-1-1-1-1-1-1-1-2-2-2-2-2-2-2-2-2-----|
D|-2-2-2-2-2-2-2-2-2-2-2-2-2-2-2-2-2-2-2-2-2-2-2-2-2-2-2-2-2-2-2-2-2-2-2-----|
A|-2-2-2-2-2-2-2-2-2-------------------2-2-2-2-2-2-2-2-----------------------|
E|---------------------------------------------------------------------------|
   x x x x x x x x x x x x x x x x x x x x x x x x x x x x x x x x x x x


Guitar 2                                                                  x6
Verse
e|--------------------------------------------------------------------------|
B|--------------------------------------------------------------------------|
G|-9-9-9-9-9-9-9-9-9-9-9-9-9-9-9-9-13-13-13-13-13-13-13-13-11-11-13-13-11-11|
D|--------------------------------------------------------------------------|
A|--------------------------------------------------------------------------|
E|--------------------------------------------------------------------------|

e|---------------------------------------------------------------------------|
B|---------------------------------------------------------------------------|
G|-9-9-9-9-9-9-9-9-9-9-9-9-9-9-9-9-13-13-13-13-13-13-13-13-16-16-13-13-16-16-|
D|---------------------------------------------------------------------------|
A|---------------------------------------------------------------------------|
E|---------------------------------------------------------------------------|

e|---------------------------------------------|
B|---------------------------------------------|
G|---------------------------------------------|
D|---------------------------------------------|
A|---------------------------------------------|
E|-5--5--4--4--2--0----------------------------|

Solo
                                                                              x2
e|--------------------------------------------------------------------------|
B|---17--16--14---------------17--16--14------------------------------------|
G|---------------15-13--------------------15--------------------------------|
D|----------------------(14)-------------------(14)-------------------------|
A|--------------------------------------------------------------------------|
E|--------------------------------------------------------------------------|

Guitar 1
                                                                                     x1
e|-16-16-16-14-12--16-16-16-16-17-16-17--16-16-16-14-12--16-16-16-16-17-16-17-|
B|----------------------------------------------------------------------------|
G|----------------------------------------------------------------------------|
D|----------------------------------------------------------------------------|
A|----------------------------------------------------------------------------|
E|----------------------------------------------------------------------------|

uitar 2
                                                                                     x2
e|----------------------------------------------------------------------------|
B|-17-17-17-16-13--17-17-17-17-19-17-19--17-17-17-16-13--17-17-17-17-19-17-19-|
G|----------------------------------------------------------------------------|
D|----------------------------------------------------------------------------|
A|----------------------------------------------------------------------------|
E|----------------------------------------------------------------------------|

Guitar 1

e|---16-16---16-16-----13-13---13-13---16-16---16-16---16-16---16------------|
B----------------------------------------------------------------------------|
G|---------------------------------------------------------------------------|
D|---------------------------------------------------------------------------|
A|---------------------------------------------------------------------------|
E|---------------------------------------------------------------------------|

Guitar 2

e|-------------------------------------------------------------------------|
B|---17-17---17-17-----12-12---12-12---17-17---17-17-----17-17---17--------|
G|-------------------------------------------------------------------------|
D|-------------------------------------------------------------------------|
A|-------------------------------------------------------------------------|
E|-------------------------------------------------------------------------|
comments
We did not receive enough feedback on this tab! Please rate:
print report bad tab
1 2 3 4 5
1 comment total.
0 reply
danielr1900 wrote on October 10 2013, 08:29 pm

Brutal la tablatura viejo!! pero me suena mejor el pre-coro así:

e|4-4-4-4-4-4-4-4-4-4----------------------|
B|5-5-5-5-5-5-5-5-5-5----------------------|
G|6-6-6-6-6-6-6-6-6-6--2-2-2-2-2-2-2-2-2-2-|
D|6-6-6-6-6-6-6-6-6-6--2-2-2-2-2-2-2-2-2-2-|
A|4-4-4-4-4-4-4-4-4-4--0-0-0-0-0-0-0-0-0-0-|
E|-----------------------------------------|

I want to post or [tab]
guest
You may want to rate the tab now too:
select rating
Please do not post tabs as comments. Select "correction" instead!