Oops, an error
Loading. Please wait.

New Horizons Tab

670 views 1 this week
no commentswrite comment
1 2 3 4 5
please rate
Autoscroll
+/-
esc
set tempo
stop
WARNING: You are trying to view
                                    content from Ultimate-Guitar.com
                                    in an unauthorized application,
                                    which is prohibited.

                                    Please use an official Ultimate
                                    Guitar Tabs application for iPhone,
                                    iPad or Android to access legitimate
                                    chords, guitar, bass, and drum tabs
                                    from Ultimate-Guitar.com database.

                                    Type "ultimate guitar tabs" in Apple
                                    App Store's or Android Market's
                                    search to find the application.
Labyrinth - New Horizons
from the "Return To Heaven Denied" CD

Tabbed by Giacomo Fusetti (facethefall@supereva.it or hobbiville@libero.it)

I know it's incomplete and surely wrong in some parts, but here it is. I tabbed it at least 
6/7 months ago, and now I haven't enough time to correct it, but it's not bad. 

tune down one half step (Eb Ab Db Gb Bb Eb)



Keyboards' intro 0:00 - 0:22



 Riff 1
 0:22 - 0:32
|---------------------------------|gtrs. 1&2
|---------------------------------|
|-7----5----------7---------------|
|-7----5---5--3-5-7----3---5--3-5-|
|-5----3---5--1-3-5----3---5--1-3-|
|----------3-----------1---3------|


 Riff 2/a
 0:33 - 0:56
|--------------------------------------------------------------|gtrs. 1&2
|--------------------------------------------------------------|
|--------------------------------------------------------------|
|-7-----7-----7---7-----7-----7---5-----5-----5-5---------3--5-|
|-5-5-5-5-5-5-5-5-5-5-5-5-5-5-5-5-3-3-3-3-3-3-3-3-5-------1--3-|
|-------------------------------------------------3-3-3-3------|
    pm.   pm.   pm  pm.   pm.   pm  pm.   pm.       pm...


|--------------------------------------------------------------|gtrs. 1&2
|--------------------------------------------------------------|
|--------------------------------------------------------------|
|-7-----7-----7---7-----7-----7---------------------------3--5-|
|-5-5-5-5-5-5-5-5-5-5-5-5-5-5-5-5-3-----3-----3---5-------1--3-|
|---------------------------------1-1-1-1-1-1-1-1-3-3-3-3------|
    pm.   pm.   pm  pm.   pm.   pm  pm.   pm.   pm  pm...


|--------------------------------------------------------------|gtrs. 1&2
|--------------------------------------------------------------|
|--------------------------------------------------------------|
|-7-----7-----7---7-----7-----7---5-----5-----5-5---------3--5-|
|-5-5-5-5-5-5-5-5-5-5-5-5-5-5-5-5-3-3-3-3-3-3-3-3-5-------1--3-|
|-------------------------------------------------3-3-3-3------|
    pm.   pm.   pm  pm.   pm.   pm  pm.   pm.       pm...


|--------------------------------------------------------------|gtr. 1
|--------------------------------------------------------------|
|--------------------------------------------------------------|
|-7-----7-----7---7-----7-----7--------------------------------|
|-5-5-5-5-5-5-5-5-5-5-5-5-5-5-5-5-3---------------5----5--7--8-|
|---------------------------------1-1-1-1-1-1-1-1-3------------|
|   pm.   pm.   pm  pm.   pm.   pm  pm...........              |
|							       |
|							       |
|--------------------------------------------------------------|gtr. 2
|--------------------------------------------------------------|
|--------------------------------------------------------------|
|-7-----7-----7---7-----7-----7------------------------3--5-7--|
|-5-5-5-5-5-5-5-5-5-5-5-5-5-5-5-5-3---------------5----1--3-5--|
|---------------------------------1-1-1-1-1-1-1-1-3------------|
    pm.   pm.   pm  pm.   pm.   pm  pm...........



 Keyboard (0:56 - 1:01)


 Riff 2/b
 1:01 - 1:08
  pickscratch
|-------------------------------------|
|-------------------------------------|
|--------------7----------------------|
|--------------7----------------------|
|-////////////-5----7-8---------------|
|-------------------------------------|
|				      |		
|				      |
|		                      |
|-------------------------------------|
|-------------------------------------|
|--------------7--------------------7-|
|--------------7----5-7---7-7-7-7-7-7-|
|-////////////-5----3-5---5-5-5-5-5-5-|
|-------------------------------------|




 
 Riff 3
 1:08 - 1:19
|-----------------------------------------------------------------------------------------|gtrs.
|-----------------------------------------------------------------------------------------|1&2
|-7--------7--------7--------7-------7--------7--------7--------7-------3-----------------|
|-7--------7--------7--------7-------7--------7--------7--------7-------3--3--2-----------|
|-5-555555-5-555555-5-555555-5-------5-555555-5-555555-5-555555-5-------1--------3--5---7-|
|------------------------------1-1-1------------------------------1-1-1-------------3---5-|
    pm....   pm....   pm....   pm...   pm....   pm....   pm....   pm...  		  	




 Riff 4/a
 1:19 - 1:42
|--------------------------------------------------------------------------------------|gtr. 1
|--------------------------------------------------------------------------------------|
|-------------------------------------------------------------------3------------------|
|-------------------------------------------------------------------3--3--2------------|
|-5-55555555555555-5-55555555333-3-5-55555555555555-5-55555555333-3-1--------3--5---7--|
|-------------------------------------------------------------------------------3---5--|
| pm................................................................		       |	
|										       |
|										       |	
|--------------------------------------------------------------------------------------|gtr. 2
|--------------------------------------------------------------------------------------|
|-------------------------------------------------------------------3------------------|
|-------------------------------------------------------------------3--3--2------------|
|-5-55555555555555-5-55555555333-3-5555555555555555-5-55555555333-3-1--------3--5---7--|
|-------------------------------------------------------------------------------3---5--|
  pm.............................................................



 Riff 4/b
 
|--------------------------------------------------------------------------------------|gtr. 1
|--------------------------------------------------------------------------------------|
|--------------------------------------------------------------------------------------|
|--------------------------------------------------------------------7--5--------------|
|-8-888888888888888888888888777-7-88888888888888888888888888777-7-5--------7--1-1/3-3--|
|--------------------------------------------------------------------------------------|
| pm................................................................		       |	
|										       |
|										       |	|--------------------------------------------------------------------------------------|gtr. 2
|--------------------------------------------------------------------------------------|
|-----------------------------------------------------------------3--------------------|
|---------------------------------7-------------------------------3--3--2--------------|
|-55555555555555555555555555333-3-5-555555555555555555555555333-3-1--------3--5-----7--|
|-----------------------------------------------------------------------------3-----5--|
  pm.............................................................



 Riff 5 (probably not right)
 1:42 - 2:05
|----1-0-------1----1-0-----------1----1-0-----------1----1-0-----------1-|gtr. 1 (clean)
|----------1------------------1------------------1------------------1-----|
|---------0---2------------0-----2------------0-----2------------0-----2--|
|-0------2---3----0-----2-------3---0------2-------3---0------2-------3---|
|-------------------------------------------------------------------------|
|-------------------------------------------------------------------------|
| let ring								  |
|									  |
|          								  |     
|-------------------------------------------------------------------------|gtr. 2 (clean)
|-------------------------------------------------------------------------|
|---------p---p--------------p---p--------------p---p--------------p---p--|
|-0------5-3-5-3-0------5/7\5-3-5-3-0------5/7\5-3-5-3-0------5/7\5-3-5-3-|
|-------------------------------------------------------------------------|
|-------------------------------------------------------------------------|




|----1-0-------1----1-0-----------1----1-0-----------1----1-0-----1-------3-|gtr. 1 (clean)
|----------1------------------1------------------1------------------1---0---|
|---------0---2------------0-----2------------0-----2-----------2-----0-----|
|-0------2---3----0-----2-------3---0------2-------3---0------3-------------|
|---------------------------------------------------------------------------|
|---------------------------------------------------------------------------|
| let ring								    |
|									    |
|          					                            |     
|---------------------------------------------------------------------------|gtr. 2 (clean)
|---------------------------------------------------------------------------|
|---------p---p--------------p---p--------------p---p-----------------------|
|-0------5-3-5-3-0------5/7\5-3-5-3-0------5/7\5-3-5-3-0--------------------|
|---------------------------------------------------------------------------|
|---------------------------------------------------------------------------|





 Riff 6
 2:05 - 2:28
|-------------------------------------------------------------------------------|gtrs. 1&2
|-------------------------------------------------------------------------------|
|-------------------------------------------------------------------------------|
|-------7---------------------------------------7-------------------------------|
|-8--8--5---5---7---8-8--8-8-8--8-8-8--8-8-8--8-5---5-5--5-5-5--5-5-5--5-5-5--5-|
|-6--6------3---5---6-6--6-6-6--6-6-6--6-6-6--6-----3-3--3-3-3--3-3-3--3-3-3--3-|
		    pm.........................     pm.........................


|-------------------------|gtrs. 1&2
|-------------------------|
|-------------------------|
|-2-2-2-2-2---3-3-3-3-5---|
|-0-0-0-0-0---1-1-1-1-3---|
|-------------------------|
  pm.....     pm.....



 Riff 7
 2:28 - 2:49
|-------------------------------------------------------------------|gtrs. 1&2
|-------------------------------------------------------------------|
|-------------------------------------------------------------------|
|-7-------7-------7----------------7-------7-------7----------------|
|-5-5-5-5-5-5-5-5-5-5-5-3333335555-5-5-5-5-5-5-5-5-5-5-5-3333335555-|
|-------------------------------------------------------------------|
|   pm...   pm...   pm............   pm...   pm...   pm............ |
|								    |
|  								    |
|-------------------------------------------------------------------|gtr. 3
|----vvvvvvvvvv------------------------vvvvvvvvvvv------------------|
|-7--------------------/7--9---10--7--------------------/7--9---10--|
|-------------------------------------------------------------------|
|-------------------------------------------------------------------|
|-------------------------------------------------------------------|
|								    |
|								    |
|  								    |
|---vvvvvvvv-------------------------vvvvvvvvvvv--------------------|gtr. 4
|-6---------------------6--8---10--6---------------------6--8---10--|
|-------------------------------------------------------------------|
|-------------------------------------------------------------------|
|-------------------------------------------------------------------|
|-------------------------------------------------------------------|




|----------------------------------------------------------------------------|gtrs. 1&2
|----------------------------------------------------------------------------|
|----------------------------------------------------------------------------|
|-------------------------------------------------------------------7--------|
|-5-------5-------5----------------7-------7------------------------5--------|
|-3-3-3-3-3-3-3-3-3-3-3-3333335555-5-5-5-5-5-5-5-5-6666666688888888----------|
|   pm...   pm...   pm............   pm...   pm....................          |
|								             |
| 									     |	
|-------------------------------------vvvvvv--------vvv-------vvv--------vvvv|gtr. 3
|--vvvvv--------p-p--------6---8----10----------10/11-----11/13---13/15-15---|
|-9----------9-1097----------------------------------------------------------|
|----------------------------------------------------------------------------|
|----------------------------------------------------------------------------|
|----------------------------------------------------------------------------|
|									     |
|								             |
|          	    		     vvvvvv         vvv	      vvv    	 vvvv|	
|--vvvvv-------------------5---6-----8-----------8/10-----10-12---12/13-13---|gtr. 3
|-8------------1086----------------------------------------------------------|
|----------------------------------------------------------------------------|
|----------------------------------------------------------------------------|
|----------------------------------------------------------------------------|
|----------------------------------------------------------------------------|




     
|-------------------------------------|gtr. 1
|-------------------------------------|
|-----vvvvvvvvv-----------------------|
|--2-3-------------2-0----------------|
|-----------------------------5----7--|
|-----------------------------3----5--|
|				      |
|				      |
|				      |				      
|-------------------------------------|gtr. 2
|-------------------------------------|
|-------------------------------------|
|--5-7-------------5-3----------------|
|--3-5-------------3-1--------5----7--|
|-----------------------------3----5--|





 2:50 - 3:01 : Riff 4/b


 3:01 - 3:24 : Riff 5


 3:24 - 3:46 : Riff 6 


 3:46 - 3:58 
           pickscratch                        slide pickscratch
|--------------------------------------------------------------|gtr. 1
|--------------------------------------------------------------|
|---------------------------------------------------\\\\\\\\\--|
|-7--------------------7---------------------------------------|
|-5----------\\\\\\\\\\5----7-8--------------------------------|
|-------------------------------------8-10-----\\\\\\\\\-------|
|							       |
|							       |
|             slide                           slide pickscratch|
|--------------------------------------------------------------|gtr. 2
|--------------------------------------------------------------|
|---------------------------------------------------\\\\\\\\\--|
|-7--------------------7---------------------------------------|
|-5----------\\\\\\\\\\5---------------------------------------|
|---------------------------5-6/10----3-5------\\\\\\\\\-------|



 3:58 - 4:20 

|-------------------------------------------------------------|gtr. 1
|-------------------------------------------------------------|
|-------------------------------------------------------------|
|-----------------p--------------p--------------p-------------|
|-55555-5555555--35555-5555555--35555-5555555--35555-5555555--|
|-------------------------------------------------------------|
| pm..........     pm........     pm........     pm........   | 
|							      |
|               					      |
|-------------------------------------------------------------|gtr. 2
|-------------------------------------------------------------|
|-------------------------------------------------------------|
|-------------^^^------------^^^------------^^^------------^^^|
|-35555-5555555--35555-5555555--35555-5555555--35555-5555555--|
|-------------------------------------------------------------|
  pm..........   pm..........   pm..........   pm.......... 


|------------------------------------------------------------------|gtrs. 1&2
|------------------------------------------------------------------|
|------------------------------------------------------------------|
|------------------------------------------------------------------|
|-3333333333333333333333333333333333333333333333333333333333333333-|
|------------------------------------------------------------------|
  pm.............................................................. 

  
|-------------------------------------------------------------|gtr. 1
|-------------------------------------------------------------|
|--p--------------p--------------p--------------p-------------|
|-35555-5555555--35555-5555555--35555-5555555--35555-5555555--|
|-------------------------------------------------------------|
|-------------------------------------------------------------|
| pm..........     pm........     pm........     pm........   |
|							      |
| 							      |
|-------------------------------------------------------------|gtr. 2
|-------------------------------------------------------------|
|--p----------^^^-p----------^^^-p----------^^^-p----------^^^|
|-35555-5555555--35555-5555555--35555-5555555--35555-5555555--|
|-------------------------------------------------------------|
|-------------------------------------------------------------|
  pm..........     pm........     pm........     pm........ 



|---------------------------------------------------------|gtrs. 1&2
|---------------------------------------------------------|
|-7----------------7----------------7----------------7----|
|-7----------------7----------------7----------------7----|
|-5-55555555555555-5-55555555555555-5-55555555555555-5----|
|---------------------------------------------------------|
    pm............   pm............   pm............



 4:21 - (Rhythm during the solo)
|-------------
|---------------
|--------------
|-7---7---7---7----
|-5---5---5---5----
|---------------



|-------------
|---------------
|--------------
|---------------
|--------------
|---------------























comments
We did not receive enough feedback on this tab! Please rate:
1 2 3 4 5
I want to post or [tab]
guest
You may want to rate the tab now too:
select rating
Please do not post tabs as comments. Select "correction" instead!