Oops, an error
Loading. Please wait.

Save Me Tab

ver1
ver1

Whole song

Interactive

More versions @911Tabs.com
379 views 1 this week
no commentswrite comment
1 2 3 4 5
please rate
Autoscroll
+/-
esc
set tempo
stop
Contributor
Tuning
D# G# C# F# A# D#
Hey! There's an official Ultimate Guitar app which is ideal
for learning songs when you're away from computer. Get the app
WARNING: You are trying to view
                                    content from Ultimate-Guitar.com
                                    in an unauthorized application,
                                    which is prohibited.

                                    Please use an official Ultimate
                                    Guitar Tabs application for iPhone,
                                    iPad or Android to access legitimate
                                    chords, guitar, bass, and drum tabs
                                    from Ultimate-Guitar.com database.

                                    Type "ultimate guitar tabs" in Apple
                                    App Store's or Android Market's
                                    search to find the application.
#----------------------------------PLEASE NOTE---------------------------------#
#This file is the author's own work and represents their interpretation of the #
#song. You may only use this file for private study, scholarship, or research. #
#------------------------------------------------------------------------------#

SAVE ME
As recorded by Labyrinth
(From the 2000 Album SONS OF THUNDER)

Transcribed by Tomohiro Harada
        

Words and Music by Labyrinth
Arranged by Labyrinth

Gtr I (D# G# C# F# A# D#) - 'Untitled'
Gtr II (D# G# C# F# A# D#) - 'Untitled'
Gtr III (D# G# C# F# A# D#) - 'solo'
Gtr IV (D# G# C# F# A# D#) - 'Untitled'

   Intro
    Q=195
    G#5
   4/4
    Gtr I
                   PM----------------------------|
    Q.   Q.   Q    S S S S S S S S S S S S S S S S
||---------------|----------------------------------||
||o--------------|---------------------------------o||
||---------------|----------------------------------||
||--2----2----2--|----------------------------------||
||o-0----0----0--|-3-3-3-3-2-2-2-2-----------------o||
||---------------|-----------------5-5-5-5-3-3-3-3--||
|
|   Gtr II
|                  PM----------------------------|
|   Q.   Q.   Q    S S S S S S S S S S S S S S S S
||---------------|----------------------------------||
||o--------------|---------------------------------o||
||---------------|----------------------------------||
||--2----2----2--|-2-2-2-2--------------------------||
||o-0----0----0--|---------5-5-5-5-3-3-3-3-2-2-2-2-o||
||---------------|----------------------------------||


    E5
                   PM----------------------------|
    Q.   Q.   Q    S S S S S S S S S S S S S S S S
||---------------|----------------------------------||
||o--------------|---------------------------------o||
||---------------|----------------------------------||
||---------------|----------------------------------||
||o-3----3----3--|-3-3-3-3-2-2-2-2-----------------o||
||--1----1----1--|-----------------5-5-5-5-3-3-3-3--||
|
|                  PM----------------------------|
|   Q.   Q.   Q    S S S S S S S S S S S S S S S S
||---------------|----------------------------------||
||o--------------|---------------------------------o||
||---------------|----------------------------------||
||---------------|-2-2-2-2--------------------------||
||o-3----3----3--|---------5-5-5-5-3-3-3-3-2-2-2-2-o||
||--1----1----1--|----------------------------------||


    G#5
                   PM----------------------------|
    Q.   Q.   Q    S S S S S S S S S S S S S S S S
||---------------|----------------------------------||
||o--------------|---------------------------------o||
||---------------|----------------------------------||
||--2----2----2--|----------------------------------||
||o-0----0----0--|-3-3-3-3-2-2-2-2-----------------o||
||---------------|-----------------5-5-5-5-3-3-3-3--||
|
|                  PM----------------------------|
|   Q.   Q.   Q    S S S S S S S S S S S S S S S S
||---------------|----------------------------------||
||o--------------|---------------------------------o||
||---------------|----------------------------------||
||--2----2----2--|-2-2-2-2--------------------------||
||o-0----0----0--|---------5-5-5-5-3-3-3-3-2-2-2-2-o||
||---------------|----------------------------------||


  E5
                 PM----------------------------|
  Q.   Q.   Q    S S S S S S S S S S S S S S S S
|--------------|---------------------------------|
|--------------|---------------------------------|
|--------------|---------------------------------|
|--------------|---------------------------------|
|-3----3----3--|-3-3-3-3-2-2-2-2-----------------|
|-1----1----1--|-----------------5-5-5-5-3-3-3-3-|
|
|                PM----------------------------|
| Q.   Q.   Q    S S S S S S S S S S S S S S S S
|--------------|---------------------------------|
|--------------|---------------------------------|
|--------------|---------------------------------|
|--------------|-2-2-2-2-------------------------|
|-3----3----3--|---------5-5-5-5-3-3-3-3-2-2-2-2-|
|-1----1----1--|---------------------------------|


  E5        F#5                    F#5B5 Bb5F#5
                             5/4
  Q.   Q.   Q    +W           +Q   Q  Q  Q  Q
|--------------|------------|------------------|
|--------------|------------|------------------|
|--------------|------------|------------------|
|--------------|------------|---------5--4-----|
|-3----3----5--|-(5)--------|-(5)--5--3--2--5--|
|-1----1----3--|-(3)--------|-(3)--3--------3--|
|
| Q.   Q.   Q    +W           +Q   Q  Q  Q  Q
|--------------|------------|------------------|
|--------------|------------|------------------|
|--------------|------------|------------------|
|--------------|------------|---------9--7--5--|
|-3----3----5--|-(5)--------|-(5)--5--7--5--3--|
|-1----1----3--|-(3)--------|-(3)--3-----------|


   Intro
    G#                        D#
   4/4                                 2/4
    PM----|     PM|       PM|     PM    PM   ~~~
    E E E E E E E E   E E E E E E E E   E E +Q
||------------------|-----------------|----------|
||o-----------------|-----------------|----------|
||------------------|-----------------|----------|
||----------9S8-----|-8S7-------------|----------|
||o-0-0-0-0-7S6-0-0-|-6S5-0-0-5-3---2-|----------|
||------------------|-------------0---|-0-3-(3)--|
|
|   PM----|     PM|       PM|     PM    PM   ~~~
|   E E E E E E E E   E E E E E E E E   E E +Q
||------------------|-----------------|----------|
||o-----------------|-----------------|----------|
||------------------|-----------------|----------|
||------------------|---------3-2-----|----------|
||o-0-0-0-0-7S6-0-0-|-6S5-0-0-------5-|---2-(2)--|
||----------5S4-----|-4S3---------0---|-0--------|


  G#                        D#
 4/4                                 2/4
  PM----|     PM|       PM|     PM    PM   ~~~
  E E E E E E E E   E E E E E E E E   E E +Q
|-----------------|-----------------|-----------||
|-----------------|-----------------|----------o||
|-----------------|-----------------|-----------||
|---------9S8-----|-8S7-------------|---5-(5)---||
|-0-0-0-0-7S6-0-0-|-6S5-0-0-5-3---2-|----------o||
|-----------------|-------------0---|-0---------||
|
| PM----|     PM|       PM|     PM    PM   ~~~
| E E E E E E E E   E E E E E E E E   E E +Q
|-----------------|-----------------|-----------||
|-----------------|-----------------|----------o||
|-----------------|-----------------|---4-(4)---||
|-----------------|---------3-2-----|-----------||
|-0-0-0-0-7S6-0-0-|-6S5-0-0-------5-|----------o||
|---------5S4-----|-4S3---------0---|-0---------||


    $
    G#5                                     D#
   4/4                                               2/4
      PM--------|     PM----|       PM----|     PM    PM   ~~~
    E S S S S S S E E S S S S   E E S S S S E E E E   E E +Q
||----------------------------|---------------------|----------|
||o---------------------------|---------------------|----------|
||----------------------------|---------------------|----------|
||--2-------------9S8---------|-8S7-----------------|----------|
||o-0-0-0-0-0-0-0-7S6-0-0-0-0-|-6S5-0-0-0-0-5-3---2-|----------|
||----------------------------|-----------------0---|-0-3-(3)--|
|
|     PM--------|     PM----|       PM----|     PM    PM   ~~~
|   E S S S S S S E E S S S S   E E S S S S E E E E   E E +Q
||----------------------------|---------------------|----------|
||o---------------------------|---------------------|----------|
||----------------------------|---------------------|----------|
||--2-------------9S8---------|-8S7---------3-2-----|----------|
||o-0-0-0-0-0-0-0-7S6-0-0-0-0-|-6S5-0-0-0-0-------5-|---2-(2)--|
||----------------------------|-----------------0---|-0--------|


  G#5                                     D#
 4/4                                               2/4
    PM--------|     PM----|       PM----|     PM    PM   ~~~
  E S S S S S S E E S S S S   E E S S S S E E E E   E E +Q
|---------------------------|---------------------|------------||
|---------------------------|---------------------|-----------o||
|---------------------------|---------------------|------------||
|-2-------------9S8---------|-8S7-----------------|---5-(5)----||
|-0-0-0-0-0-0-0-7S6-0-0-0-0-|-6S5-0-0-0-0-5-3---2-|-----------o||
|---------------------------|-----------------0---|-0----------||
|
|   PM--------|     PM----|       PM----|     PM    PM   ~~~
| E S S S S S S E E S S S S   E E S S S S E E E E   E E +Q
|---------------------------|---------------------|------------||
|---------------------------|---------------------|-----------o||
|---------------------------|---------------------|---4-(4)----||
|-2-------------9S8---------|-8S7---------3-2-----|------------||
|-0-0-0-0-0-0-0-7S6-0-0-0-0-|-6S5-0-0-0-0-------5-|-----------o||
|---------------------------|-----------------0---|-0----------||


    G#m                                         E
   4/4
        PM------------|      PM------------|      PM--------|   PM--------|
     E  S  S  S  S  S  S  E  S  S  S  S  S  S   E S S S S S S E S S S S S S
||--------------------------------------------|------------------------------|
||o-------------------------------------------|------------------------------|
||--------------------------------------------|------------------------------|
||-----------------------10-------------------|---------------7--------------|
||o-12-12-12-12-12-12-12----12-12-12-12-12-12-|-8-8-8-8-8-8-8---8-8-8-8-8-8--|
||--------------------------------------------|------------------------------|
|
|       PM------------|      PM------------|      PM--------|   PM--------|
|    E  S  S  S  S  S  S  E  S  S  S  S  S  S   E S S S S S S E S S S S S S
||--------------------------------------------|------------------------------|
||o-------------------------------------------|------------------------------|
||------------------------9-------------------|---------------5--------------|
||--10-10-10-10-10-10-10----10-10-10-10-10-10-|-7-7-7-7-7-7-7---7-7-7-7-7-7--|
||o-------------------------------------------|------------------------------|
||--------------------------------------------|------------------------------|


                                             1.
  F#                                         B
      PM------------|     PM------------|          PM    PM     ~~~~
   E  S  S  S  S  S  S E  S  S  S  S  S  S    E E  E  E  E  E  +Q
|------------------------------------------|-------------------------||
|------------------------------------------|------------------------o||
|------------------------------------------|-------------------------||
|----------------------9-------------------|-10-9--------------------||
|-10-10-10-10-10-10-10---10-10-10-10-10-10-|---------12----10-(10)--o||
|------------------------------------------|------12----12-----------||
|
|     PM------------|     PM------------|          PM    PM     ~~~~
|  E  S  S  S  S  S  S E  S  S  S  S  S  S    E E  E  E  E  E  +Q
|------------------------------------------|-------------------------||
|------------------------------------------|------------------------o||
|----------------------7-------------------|--9-7--------------------||
|--9--9--9--9--9--9--9----9--9--9--9--9--9-|---------10-----9--(9)---||
|------------------------------------------|------10----10----------o||
|------------------------------------------|-------------------------||


                                     Verse
  2.
  F#
   S  S  S  S  S  S  S  S  E Q  E     W          +W
|---------------------------------||-----------|------------------|
|---------------------------------||o----------|------------------|
|-------------------10-12-14------||-----------|------------------|
|----------10-12-14---------------||--7--------|-(7)--------------|
|-10-12-14------------------------||o-7--------|-(7)--------------|
|---------------------------------||--5--------|-(5)--------------|
|
|  S  S  S  S  S  S  S  S  E Q  E     W           Q.    Q.    Q
|---------------------------------||--5--------|--5----(5)---(5)--|
|-------------------10-12-13------||o-5--------|--------5----(5)--|
|-----------9-10-12---------------||--5--------|--------------5---|
|--9-10-12------------------------||--7--------|------------------|
|---------------------------------||o----------|------------------|
|---------------------------------||-----------|------------------|


  G#E5
     PM--------|    PM--------|      PM--------|    PM--------|
   E S S S S S S  E S S S S S S    E S S S S S S  E S S S S S S
|-------------------------------|-------------------------------|
|-------------------------------|-------------------------------|
|-------------------------------|-------------------------------|
|-10-------------10-------------|-10-------------10-------------|
|--8-8-8-8-8-8-8--8-8-8-8-8-8-8-|--8-8-8-8-8-8-8--8-8-8-8-8-8-8-|
|-------------------------------|-------------------------------|
|
|    PM--------|    PM--------|      PM--------|    PM--------|
|  E S S S S S S  E S S S S S S    E S S S S S S  E S S S S S S
|-------------------------------|-------------------------------|
|-------------------------------|-------------------------------|
|-------------------------------|-------------------------------|
|--7--------------7-------------|--7--------------7-------------|
|--8-8-8-8-8-8-8--8-8-8-8-8-8-8-|--8-8-8-8-8-8-8--8-8-8-8-8-8-8-|
|-------------------------------|-------------------------------|


  G#m                           C#m
                                PM-----------------------
                                |-3-| |-3-| |-3-| |-3-|
  W          +W                 E E E E E E E E E E E E
|----------|------------------|-------------------------|
|----------|------------------|-------------------------|
|----------|------------------|-------------------------|
|-7--------|-(7)--------------|-------------------5-----|
|-7--------|-(7)--------------|-5-5-5-7-5-5-8-5-5-------|
|-5--------|-(5)--------------|---------------------8-8-|
|
|                               PM-----------------------
|                               |-3-| |-3-| |-3-| |-3-|
| W           Q.    Q.    Q     E E E E E E E E E E E E
|-5--------|--5----(5)---(5)--|-------------------------|
|-5--------|--------5----(5)--|-------------------------|
|-5--------|--------------5---|-------------------4-----|
|-7--------|------------------|-3-3-3-5-3-3-7-3-3-------|
|----------|------------------|---------------------7-7-|
|----------|------------------|-------------------------|


  D#m
 -------------------------|
  |-3-| |-3-|  |-3-| |--3--|
  E E E E E E  E E E E  E  E
|-------------------------------||
|------------------------------o||
|-------------------------------||
|--------------------7----------||
|-7-7-7-9-7-7-11-7-7-----------o||
|----------------------10-10----||
|
|-------------------------|
| |-3-| |-3-|  |-3-| |--3--|
| E E E E E E  E E E E  E  E
|-------------------------------||
|------------------------------o||
|--------------------5----------||
|-5-5-5-7-5-5--9-5-5------------||
|-----------------------8--8---o||
|-------------------------------||


   Bridge
    G#         Bbm        G#m
    W          W          S S S S S E. S S S S S E.
||-----------|----------|---------------------------|
||o----------|----------|---------------------------|
||-----------|----------|---------------------------|
||-----------|----------|---------------------------|
||o-7--------|-9--------|---------------------------|
||--5--------|-7--------|-3-5-5-5-5----7-5-5-5-5----|
|
|   W          W          S S S S S E. S S S S S E.
||-----------|----------|---------------------------|
||o----------|----------|---------------------------|
||-----------|----------|---------------------------|
||-----------|----------|---------------------------|
||o-4--------|-5--------|-2-3-3-3-3----5-3-3-3-3----|
||--5--------|-7--------|---------------------------|


  S S S S S E. S S S S S E.
|----------------------------|
|----------------------------|
|----------------------------|
|----------------------------|
|----------------------------|
|-3-5-5-5-5----7-5-5-5-5-----|
|
| S S S S S E. S S S S S E.
|----------------------------|
|----------------------------|
|----------------------------|
|----------------------------|
|-2-3-3-3-3----5-3-3-3-3-----|
|----------------------------|


                        1.
  C#         Ebm        B       C#      Eb          E
  W          W          S S S S S S S S  S  S  S  S S S S S
|----------|----------|-------------------------------------|
|----------|----------|-------------------------------------|
|----------|----------|-------------------------------------|
|-7--------|-9--------|------------------2--2--2--2-3-3-3-3-|
|-5--------|-7--------|-3-3-3-3-5-5-5-5---------------------|
|----------|----------|-------------------------------------|
|
| W          W          S S S S S S S S  S  S  S  S S S S S
|----------|----------|-------------------------------------|
|----------|----------|-------------------------------------|
|----------|----------|-------------------------------------|
|-4--------|-5--------|-----------------------------7-7-7-7-|
|-5--------|-7--------|-7-7-7-7-9-9-9-9-10-10-10-10---------|
|----------|----------|-------------------------------------|


  F#      G#          F#      E
  S S S S  S  S  S  S S S S S S S S S
|---------------------------------------||
|--------------------------------------o||
|----------2--2--2--2-------------------||
|-5-5-5-5-------------5-5-5-5-3-3-3-3---||
|--------------------------------------o||
|---------------------------------------||
|
| S S S S  S  S  S  S S S S S S S S S
|---------------------------------------||
|--------------------------------------o||
|---------------------------------------||
|-9-9-9-9-10-10-10-10-9-9-9-9-7-7-7-7---||
|--------------------------------------o||
|---------------------------------------||


  2.
  E           F#
   W           W
|-----------|-------|
|-----------|-------|
|-----------|-------|
|-10--------|-12----|
|--8--------|-10----|
|-----------|-------|
|
|  W           W
|-----------|-------|
|-----------|-------|
|-----------|-------|
|--7--------|--9----|
|--8--------|-10----|
|-----------|-------|


   Chorus
    B5                  A#5    F#5
     W           +H     H      W          +W
||------------|--------------|----------|--------|
||o-----------|--------------|----------|--------|
||------------|--------------|----------|--------|
||--10--------|-(10)----9----|-5--------|-(5)----|
||o-10--------|-(10)----9----|-5--------|-(5)----|
||---8--------|--(8)----7----|-3--------|-(3)----|
|
|    W           +H     H      W          +W
||------------|--------------|----------|--------|
||o-----------|--------------|----------|--------|
||------------|--------------|----------|--------|
||------------|--------------|----------|--------|
||o-10--------|-(10)----9----|-5--------|-(5)----|
||---8--------|--(8)----7----|-3--------|-(3)----|


                       1.
  G#5        F#5        E5
  W          W          W          +W
|----------|----------|----------|---------||
|----------|----------|----------|--------o||
|----------|----------|----------|---------||
|-7--------|-5--------|-3--------|-(3)-----||
|-7--------|-5--------|-3--------|-(3)----o||
|-5--------|-3--------|-1--------|-(1)-----||
|
| W          W          W          +W
|----------|----------|----------|---------||
|----------|----------|----------|--------o||
|----------|----------|----------|---------||
|----------|----------|----------|---------||
|-7--------|-5--------|-3--------|-(3)----o||
|-5--------|-3--------|-1--------|-(1)-----||


  2.
           D.S.
  E5         F#5
  W          W
|----------|-------||
|----------|-------||
|----------|-------||
|-3--------|-2-----||
|-3--------|-2-----||
|-1--------|-0-----||
|
| W          W
|----------|-------||
|----------|-------||
|----------|-------||
|----------|-------||
|-3--------|-2-----||
|-1--------|-0-----||


 Breakdown
 7/4
  Wx4
|--------|
|--------|
|--------|
|--------|
|--------|
|--------|
|
| Wx4
|--------|
|--------|
|--------|
|--------|
|--------|
|--------|


  G#m
  PM|   PM  PM|   PM  PM|       PM|   PM  PM|   PM  PM|
  E E E E E E E E E E E E E E   E E E E E E E E E E E E E E
|-----------------------------|-----------------------------|
|-----------------------------|-----------------------------|
|-----------------------------|-----------------------------|
|-----------------------------|-----------------------------|
|-0-0-7-0-8-0-0-7-0-5-0-0-2h3-|-0-0-7-0-8-0-0-7-0-5-0-0-3p2-|
|-----------------------------|-----------------------------|
|
| PM|   PM  PM|   PM  PM|       PM|   PM  PM|   PM  PM|
| E E E E E E E E E E E E E E   E E E E E E E E E E E E E E
|-----------------------------|-----------------------------|
|-----------------------------|-----------------------------|
|-----------------------------|-----------------------------|
|-----------------------------|-----------------------------|
|-0-0-7-0-8-0-0-7-0-5-0-0-2h3-|-0-0-7-0-8-0-0-7-0-5-0-0-3p2-|
|-----------------------------|-----------------------------|


  PM|   PM  PM|   PM  PM|       PM|   PM  PM  PM|     PM
  E E E E E E E E E E E E E E   E E E E E E E E E E E E E E
|-----------------------------|-----------------------------|
|-----------------------------|-----------------------------|
|-----------------------------|-----------------------------|
|-----------------------------|-----------------------------|
|-0-0-7-0-8-0-0-7-0-5-0-0-2h3-|-0-0-7-0-8-0-7-0-0-5p3-0-2h3-|
|-----------------------------|-----------------------------|
|
| PM|   PM  PM|   PM  PM|       PM|   PM  PM  PM|     PM
| E E E E E E E E E E E E E E   E E E E E E E E E E E E E E
|-----------------------------|-----------------------------|
|-----------------------------|-----------------------------|
|-----------------------------|-----------------------------|
|-----------------------------|-----------------------------|
|-0-0-7-0-8-0-0-7-0-5-0-0-2h3-|-0-0-7-0-8-0-7-0-0-5p3-0-2h3-|
|-----------------------------|-----------------------------|


    G#m
    E E E E  E E E E E E E E E E   E E E E  E E E E E  E E E  E E
||-------------------------------|--------------------------------|
||o-----8---10-----8---6-----6h8-|-----8---10-----8---------------|
||-------------------------------|--------------------10-----10p9-|
||--7-7---7----7-7---7---7-7-----|-7-7---7----7-7---7----7-7------|
||o------------------------------|--------------------------------|
||-------------------------------|--------------------------------|
|
|   E E E E  E E E E E E E E E E   E E E E  E E E E E  E E E  E E
||-------------------------------|--------------------------------|
||o-----8---10-----8---6-----6h8-|-----8---10-----8---------------|
||-------------------------------|--------------------10-----10p9-|
||--7-7---7----7-7---7---7-7-----|-7-7---7----7-7---7----7-7------|
||o------------------------------|--------------------------------|
||-------------------------------|--------------------------------|


  G#m
  E E E E  E E E E E E E E E E   E E E E  E E E E E E E E E E
|------------------------------|-------------------------------||
|-----8---10-----8---6-----6h8-|-----8---10---8-----8p6---6h8-o||
|------------------------------|-------------------------------||
|-7-7---7----7-7---7---7-7-----|-7-7---7----7---7-7-----7------||
|------------------------------|------------------------------o||
|------------------------------|-------------------------------||
|
| E E E E  E E E E E E E E E E   E E E E  E E E E E E E E E E
|------------------------------|-------------------------------||
|-----8---10-----8---6-----6h8-|-----8---10---8-----8p6---6h8-o||
|------------------------------|-------------------------------||
|-7-7---7----7-7---7---7-7-----|-7-7---7----7---7-7-----7------||
|------------------------------|------------------------------o||
|------------------------------|-------------------------------||


 Guitar Solo
  G#5                            E5
 4/4
  Gtr III
   ~~~~~~~~~~                     ~~
   H     +E   S  S  S  S  S  S    W
|------------------------------|-----------|
|------------------------------|-----------|
|---------------------------12-|-----------|
|------------------------14----|-15--------|
|-12----(12)-14-15-14-15-------|-----------|
|------------------------------|-----------|
|
|  W                              W
|------------------------------|-----------|
|------------------------------|-----------|
|------------------------------|-----------|
|--2---------------------------|-----------|
|--0---------------------------|--3--------|
|------------------------------|--1--------|


  B5
                        |--3--|  |--3--|
   E  S  S  S  S  S  S  E  E  E  E  E  E
|----------------12-20-15----------------|
|-------------13----------17-------------|
|----------12----------------17----------|
|-------14----------------------17-------|
|-12-15----------------------------19-15-|
|----------------------------------------|
|
|  W
|----------------------------------------|
|----------------------------------------|
|----------------------------------------|
|--5-------------------------------------|
|--3-------------------------------------|
|----------------------------------------|


  B5                                 G#5
                                ~~
   |--3---|  |--3--|                 |-3-| |-3-|   |--3--|  |--3--|
   E   E  E  E  E  E  S S  S S  Q    E E E E E E   E  E  E  E  E  E
|-15--12-------------12-8----------|-8-5-------5-/20-12----------12-|
|--------13---------------10-------|-----5---5----------14----14----|
|-----------12---------------9-----|-------5---------------14-------|
|--------------14--------------10--|--------------------------------|
|-----------------15---------------|--------------------------------|
|----------------------------------|--------------------------------|
|
| +W                                 W
|----------------------------------|--------------------------------|
|----------------------------------|--------------------------------|
|----------------------------------|--------------------------------|
|-(5)------------------------------|-2------------------------------|
|-(3)------------------------------|-0------------------------------|
|----------------------------------|--------------------------------|


  E5                            F#5
  |-3-| |-3-|   |-3--| |-3--|    |-3-| |-3-|  |--3--|  |--3--|
  E E E E E E   E E  E E  E E    E E E E E E  E  E  E  E  E  E
|-8-5-------5-/12-8---------8-|-10-7-------7-15-10----------10-|
|-----5---5---------10---10---|------8---8---------12----12----|
|-------5--------------9------|--------7--------------12-------|
|-----------------------------|--------------------------------|
|-----------------------------|--------------------------------|
|-----------------------------|--------------------------------|
|
| W                              W
|-----------------------------|--------------------------------|
|-----------------------------|--------------------------------|
|-----------------------------|--------------------------------|
|-----------------------------|--------------------------------|
|-3---------------------------|--5-----------------------------|
|-1---------------------------|--3-----------------------------|


   |-3--| |-3-|   |--3--|  |--3--|
   E  E E E E E   E  E  E  E  E  E
|-10--7-------7-/19-12----------12---|
|-------8---8----------12----12------|
|---------7---------------13---------|
|------------------------------------|
|------------------------------------|
|------------------------------------|
|
| +W
|------------------------------------|
|------------------------------------|
|------------------------------------|
|------------------------------------|
|-(5)--------------------------------|
|-(3)--------------------------------|


  G#5
   S  S  S  S  S  S  S  S S  S  S S  S  S S  S
|-13-12-10-------------------------------------|
|----------13-12-10----------------------------|
|-------------------12-10-9-----------------12-|
|---------------------------12-10-9------------|
|-----------------------------------12-10-8----|
|----------------------------------------------|
|
|  W
|----------------------------------------------|
|----------------------------------------------|
|----------------------------------------------|
|--2-------------------------------------------|
|--0-------------------------------------------|
|----------------------------------------------|


  E5
   S S  S  S S  S  S S  S  S S S S  S S S
|-----------------------------------------|
|-----------------------------------------|
|-10-9------------------------------------|
|------12-10-9----------------------------|
|--------------12-10-8----------------7-8-|
|----------------------12-10-8-7-8-10-----|
|
|  W
|-----------------------------------------|
|-----------------------------------------|
|-----------------------------------------|
|-----------------------------------------|
|--3--------------------------------------|
|--1--------------------------------------|


  B5
  S  S S S S  S S S  S S  S  S S  S  S  S
|-----------------------------------------|
|-----------------------------------------|
|-----------------------------------------|
|-----------------------------------------|
|-7-------------7-8-10---------8-10-------|
|---10-8-7-8-10--------8-10-12------10-12-|
|
| W
|-----------------------------------------|
|-----------------------------------------|
|-----------------------------------------|
|-5---------------------------------------|
|-3---------------------------------------|
|-----------------------------------------|


   S   S  S  S  S  S  S  S  S  S  S  S  S  S  S  S
|-----------------------------------------12-14-15-|
|--------------------------------12-13-15----------|
|-----------------------10-12-14-------------------|
|--------------10-12-14----------------------------|
|-----10-12-14-------------------------------------|
|-13-----------------------------------------------|
|
| +W
|--------------------------------------------------|
|--------------------------------------------------|
|--------------------------------------------------|
|-(5)----------------------------------------------|
|-(3)----------------------------------------------|
|--------------------------------------------------|


  G#5               E5
    ~~~~             ~~~           ~~~~
    H.       E  E    Q.    Q.      Q
|-/17-------17-19-|-20----20b22---20--|
|-----------------|-------------------|
|-----------------|-------------------|
|-----------------|-------------------|
|-----------------|-------------------|
|-----------------|-------------------|
|
|   W                W
|-----------------|-------------------|
|-----------------|-------------------|
|-----------------|-------------------|
|---2-------------|-------------------|
|---0-------------|--3----------------|
|-----------------|--1----------------|


  F#5
 ~~~~
               |--3---|  |--3--|  |-3-| |-3--|
   W           E   E  E  E  E  E  E E E E E  E
|-19--------|-22--15----15-10----10-7-----------|
|-----------|--------15-------12------8---------|
|-----------|---------------------------7-------|
|-----------|-----------------------------9-----|
|-----------|-------------------------------10--|
|-----------|-----------------------------------|
|
|  W          +W
|-----------|-----------------------------------|
|-----------|-----------------------------------|
|-----------|-----------------------------------|
|-----------|-----------------------------------|
|--5--------|-(5)-------------------------------|
|--3--------|-(3)-------------------------------|


 Guitar Solo
  Bb5
  Gtr I
    W                    +W
|---------------------|----------------------|
|---------------------|----------------------|
|---------------------|----------------------|
|---4-----------------|--(4)-----------------|
|---2-----------------|--(2)-----------------|
|---------------------|----------------------|
|
| Gtr IV
|            ~~~~~~~~~~~~~~~~~~~
|   |--3--|                         |--3--|
|   Q  Q  Q  H           +H         Q  Q  Q
|---------------------|----------------------|
|-/12-14-15-14b15-----|-(14)b15----10----12--|
|---------------------|---------------11-----|
|---------------------|----------------------|
|---------------------|----------------------|
|---------------------|----------------------|


  Gb
   PM-----------------------------------------------------|
   |-3--| |-3-| |-3-|  |--3---|    |-3-| |-3-|  |-3-| |-3-|
   E  E E E E E E E E  E E    E    E E E E E E  E E E E E E
|-------------------------------|----------------------------|
|-------------------------------|----------------------------|
|-------------------------------|----------------------------|
|-------------------------------|----------------------------|
|-------------------------------|----------------------------|
|--3--3-3-3-3-3-3-3-3--3-3----3-|--3-3-3-3-3-3--3-3-3-3-3-3--|
|
|  ~~~                             ~~~~~~~~~~~~~~~
|  H.                  E    E      H            H
|-------------------------------|----------------------------|
|-12------------------12h==14---|-14-----------15------------|
|-------------------------------|----------------------------|
|-------------------------------|----------------------------|
|-------------------------------|----------------------------|
|-------------------------------|----------------------------|


  Db5
   W                +W
|-----------------|-----------------------|
|-----------------|-----------------------|
|-----------------|-----------------------|
|--7--------------|-(7)-------------------|
|--5--------------|-(5)-------------------|
|-----------------|-----------------------|
|
|  ~~~               ~~~
|                           |-----3-----|
|  H.       Q        H      Q  S  S  E  Q
|-17-------17b18--|-17\----15-14-15-14-12-|
|-----------------|-----------------------|
|-----------------|-----------------------|
|-----------------|-----------------------|
|-----------------|-----------------------|
|-----------------|-----------------------|


  Ab
   PM---------------------------------------------------------------|
   |---3---| |--3---|  |-3-| |--3---|    |-3--| |-3-| |-3-|   |--3---|
   E     E E E E    E  E E E E E    E    E  E E E E E E E E   E   E  E
|-------------------------------------|----------------------------------|
|-------------------------------------|----------------------------------|
|-------------------------------------|----------------------------------|
|-------------------------------------|----------------------------------|
|-------------------------------------|----------------------------------|
|--5-----5-5-5-5----5--5-5-5-5-5----5-|--5--5-5-5-5-5-5-5-5---5---5--5---|
|
|                 T    ~~~               ~~~
|                                                             |--3---|
|  Q.             E    Q.         E      H.                  +E   E  E
|-14b15==========16---14r========10---|-12------------------(12)-14p10---|
|-------------------------------------|----------------------------------|
|-------------------------------------|----------------------------------|
|-------------------------------------|----------------------------------|
|-------------------------------------|----------------------------------|
|-------------------------------------|----------------------------------|


  Bb5
   W
|-----------------------------------------|
|-----------------------------------------|
|-----------------------------------------|
|--4--------------------------------------|
|--2--------------------------------------|
|-----------------------------------------|
|
|  |--3--|  |--3--|               |--3--|
|  E  E  E  E  E  E   S  S  S  S  E  E  E
|-14p10----------10-/19p14----------14p10-|
|-------12----12-----------15-------------|
|----------11-----------------16----------|
|--------------------------------16-------|
|-----------------------------------------|
|-----------------------------------------|


  +W
|-----------------------------------------|
|-----------------------------------------|
|-----------------------------------------|
|-(4)-------------------------------------|
|-(2)-------------------------------------|
|-----------------------------------------|
|
|  |--3--|  |--3--|               |-3--|
|  E  E  E  E  E  E   S  S  S  S  E  E E
|-14p10----------10-/19p14----------10p7--|
|-------12----12-----------15-------------|
|----------11-----------------16----------|
|--------------------------------16-------|
|-----------------------------------------|
|-----------------------------------------|


  Gb
   PM-----------------------------------
   |-3-| |-3-|  |----3----|     |-3--|
   E E E E E E  E    E    E     E  E E
|--------------------------------------|
|--------------------------------------|
|--------------------------------------|
|--------------------------------------|
|--------------------------------------|
|--3-3-3-3-3-3--3----3----3-----3--3-3-|
|
|  |-3-| |-3-|                  |-3--|
|  E E E E E E  S  S    S    S  E  E E
|-10p7-------7-14p10--------------10p7-|
|------7---7-----------12--------------|
|--------7------------------11---------|
|------------------------------12------|
|--------------------------------------|
|--------------------------------------|


 ------------------------------------|
   |-3-| |-3-|  |----3----|     |--3--|
   E E E E E E  E    E    E     E  E  E
|----------------------------------------|
|----------------------------------------|
|----------------------------------------|
|----------------------------------------|
|----------------------------------------|
|--3-3-3-3-3-3--3----3----3-----3--3--3--|
|
|  |-3-| |-3-|                  |--3--|
|  E E E E E E  S  S    S    S  E  E  E
|-10p7-------7-14p10--------------17p14--|
|------7---7-----------12----------------|
|--------7------------------11-----------|
|------------------------------12--------|
|----------------------------------------|
|----------------------------------------|


  Db5
   W
|-----------------------------------------|
|-----------------------------------------|
|-----------------------------------------|
|--7--------------------------------------|
|--5--------------------------------------|
|-----------------------------------------|
|
|  |--3--|  |--3--|               |--3--|
|  E  E  E  E  E  E   S  S  S  S  E  E  E
|-17p14----------14-/22p17----------17p14-|
|-------15----15-----------19-------------|
|----------14-----------------19----------|
|--------------------------------19-------|
|-----------------------------------------|
|-----------------------------------------|


  +W
|-----------------------------------------|
|-----------------------------------------|
|-----------------------------------------|
|-(7)-------------------------------------|
|-(5)-------------------------------------|
|-----------------------------------------|
|
|  |--3--|  |--3--|               |-3--|
|  E  E  E  E  E  E   S  S  S  S  E  E E
|-17p14----------14-/22p17----------12p9--|
|-------15----15-----------19-------------|
|----------14-----------------19----------|
|--------------------------------19-------|
|-----------------------------------------|
|-----------------------------------------|


  Ab5
   W                                 W
|---------------------------------|---------------------------------|
|---------------------------------|---------------------------------|
|---------------------------------|---------------------------------|
|---------------------------------|---------------------------------|
|--7------------------------------|--7------------------------------|
|--5------------------------------|--5------------------------------|
|
|                             ~~                             ~~~~~~
|  |-3--| |-3--|
|  E E  E E  E E  S  S  S  S  E E    S  S  S  S  S  S  S  S  Q   Q
|-12p9---------9-17p12------------|---------------------------------|
|------10---10---------14---------|-----------------------------15--|
|---------9---------------14------|-------------------12-13-14------|
|----------------------------14---|----------12-14-16---------------|
|---------------------------------|-12-14-16------------------------|
|---------------------------------|---------------------------------|


   Chorus
    C#5                 C5      G#5
     W           +H      H      W          +W
||------------|---------------|----------|--------|
||o-----------|---------------|----------|--------|
||------------|---------------|----------|--------|
||--12--------|-(12)----11----|-7--------|-(7)----|
||o-12--------|-(12)----11----|-7--------|-(7)----|
||--10--------|-(10)-----9----|-5--------|-(5)----|
|
|   Gtr II
|    W           +H      H      W          +W
||------------|---------------|----------|--------|
||o-----------|---------------|----------|--------|
||------------|---------------|----------|--------|
||------------|---------------|----------|--------|
||o-12--------|-(12)----11----|-7--------|-(7)----|
||--10--------|-(10)-----9----|-5--------|-(5)----|


                       1.
  A#5        G#5        F#5
  W          W          W          +W
|----------|----------|----------|---------||
|----------|----------|----------|--------o||
|----------|----------|----------|---------||
|-9--------|-7--------|-5--------|-(5)-----||
|-9--------|-7--------|-5--------|-(5)----o||
|-7--------|-5--------|-3--------|-(3)-----||
|
| W          W          W          +W
|----------|----------|----------|---------||
|----------|----------|----------|--------o||
|----------|----------|----------|---------||
|----------|----------|----------|---------||
|-9--------|-7--------|-5--------|-(5)----o||
|-7--------|-5--------|-3--------|-(3)-----||


  2.
  F#5        F5         E5                  F#5
  W          W          W          +H     E Q.
|----------|----------|----------|---------------|
|----------|----------|----------|---------------|
|----------|----------|----------|---------------|
|-5--------|-4--------|-3--------|-(3)----3-5----|
|-5--------|-4--------|-3--------|-(3)----3-5----|
|-3--------|-2--------|-1--------|-(1)----1-3----|
|
| W          W          W          +H     E Q.
|----------|----------|----------|---------------|
|----------|----------|----------|---------------|
|----------|----------|----------|---------------|
|----------|----------|----------|---------------|
|-5--------|-4--------|-3--------|-(3)----3-5----|
|-3--------|-2--------|-1--------|-(1)----1-3----|


   Intro
    G#                        D#
                                       2/4
    PM----|     PM|       PM|     PM    PM   ~~~
    E E E E E E E E   E E E E E E E E   E E +Q
||------------------|-----------------|----------|
||o-----------------|-----------------|----------|
||------------------|-----------------|----------|
||----------9S8-----|-8S7-------------|----------|
||o-0-0-0-0-7S6-0-0-|-6S5-0-0-5-3---2-|----------|
||------------------|-------------0---|-0-3-(3)--|
|
|   PM----|     PM|       PM|     PM    PM   ~~~
|   E E E E E E E E   E E E E E E E E   E E +Q
||------------------|-----------------|----------|
||o-----------------|-----------------|----------|
||------------------|-----------------|----------|
||------------------|---------3-2-----|----------|
||o-0-0-0-0-7S6-0-0-|-6S5-0-0-------5-|---2-(2)--|
||----------5S4-----|-4S3---------0---|-0--------|


                                      1.,2.,3.    4.
  G#                        D#                     D#     G#5
 4/4                                 2/4          4/4
  PM----|     PM|       PM|     PM    PM   ~~~     PM~~
  E E E E E E E E   E E E E E E E E   E E +Q    4x E Q.   E E +Q
|-----------------|-----------------|-----------||-------------------*|
|-----------------|-----------------|----------o||-------------------*|
|-----------------|-----------------|-----------||-------------------*|
|---------9S8-----|-8S7-------------|---5-(5)---||-------------------*|
|-0-0-0-0-7S6-0-0-|-6S5-0-0-5-3---2-|----------o||--------7-7-(7)\---*|
|-----------------|-------------0---|-0---------||-0-3----5-5-(5)\---*|
|
| PM----|     PM|       PM|     PM    PM   ~~~     PM~~
| E E E E E E E E   E E E E E E E E   E E +Q    4x E Q.   E E +Q
|-----------------|-----------------|-----------||-------------------*|
|-----------------|-----------------|----------o||-------------------*|
|-----------------|-----------------|---4-(4)---||-------------------*|
|-----------------|---------3-2-----|-----------||-------------------*|
|-0-0-0-0-7S6-0-0-|-6S5-0-0-------5-|----------o||---2----3-3-(3)\---*|
|---------5S4-----|-4S3---------0---|-0---------||-0------5-5-(5)\---*|



Duration Legend
---------------
W - whole; H - half; Q - quarter; E - 8th; S - 16th; T - 32nd; X - 64th; a - acciaccatura
+ - note tied to previous; . - note dotted; .. - note double dotted
Uncapitalized letters represent notes that are staccato (1/2 duration)
Irregular groupings are notated above the duration line
Duration letters will always appear directly above the note/fret number it represents the
duration for.  Duration letters with no fret number below them represent rests.  Multi-
bar rests are notated in the form Wxn, where n is the number of bars to rest for.  Low
melody durations appear below the staff

Tablature Legend
----------------
 h   - hammer-on
 p   - pull-off
 b   - bend
 pb  - pre-bend
 r   - bend release (if no number after the r, then release immediately)
 /\  - slide into or out of (from/to "nowhere")
 s   - legato slide
 S   - shift slide
 - natural harmonic
[n]  - artificial harmonic
n(n) - tapped harmonic
 ~   - vibrato
 tr  - trill
 T   - tap
 TP  - trem. picking
 PM  - palm muting
\n/  - tremolo bar dip; n = amount to dip
 \n  - tremolo bar down
 n/  - tremolo bar up
/n\  - tremolo bar inverted dip
 =   - hold bend; also acts as connecting device for hammers/pulls
 <> - volume swell (louder/softer)
 x   - on rhythm slash represents muted slash
 o   - on rhythm slash represents single note slash

Misc Legend
-----------
 |  - bar
||  - double bar
||o - repeat start
o|| - repeat end
*|  - double bar (ending)
 :  - bar (freetime)
 $  - Segno
 &  - Coda
Tempo markers -  = BPM(8/16=s8/s16), where s8 = swing 8ths, s16 = swing 16ths

comments
We did not receive enough feedback on this tab! Please rate:
print report bad tab
1 2 3 4 5
I want to post or [tab]
guest
You may want to rate the tab now too:
select rating
Please do not post tabs as comments. Select "correction" instead!