Oops, an error
Loading. Please wait.

Trip The Darkness Tab

ver1
ver1

Whole song

More versions @911Tabs.com
8,010 views 12 this week
4 commentsread comments
1 2 3 4 5
not so good
x 3
Autoscroll
+/-
esc
set tempo
stop
Contributor
Difficulty
Tuning
intermediate
B F# B E G# C#
WARNING: You are trying to view
                                    content from Ultimate-Guitar.com
                                    in an unauthorized application,
                                    which is prohibited.

                                    Please use an official Ultimate
                                    Guitar Tabs application for iPhone,
                                    iPad or Android to access legitimate
                                    chords, guitar, bass, and drum tabs
                                    from Ultimate-Guitar.com database.

                                    Type "ultimate guitar tabs" in Apple
                                    App Store's or Android Market's
                                    search to find the application.
----------------------------------------------------------------------------
                             Trip the Darkness
                               Lacuna Coil
----------------------------------------------------------------------------
It is amazing what you can find on the radio. I just happened to flip to this song and
Lacuna Coil just stunned me. This song is so intense, and the guitar work is nice and
heavy. I’m glad I ran across this band, because now I’m hooked. Hopefully the tab will 
show you what I mean. Enjoy!

Username: dkm817 (same on X box live)
Youtube Cover: http://www.youtube.com/watch?v=vcMv2a5tSb4
Email: guitardrums@rockfan.com

Guitar 1 Rhythmic (B F# B E G# C#)
Guitar 2 Lead     (B F# B E G# C#)


Tab Guide...

===========================================================================
(end of measures)

===========================================================================
===========================================================================
(end of parts)

===========================================================================
===========================================================================
===========================================================================
(end of song)

(If there is a “continued” it is because the numbers could not
fit on 1 line.)


Intro 1

Guitar 1
C#-------------------------------------------------------------------------|
G#-------------------------------------------------------------------------|
E -------------------------------------------------------------------------|
B -------------------------------------------------------------------------|
F#-------------------------------------------------------------------------|
B -0--1~~~-1~~~-1~~~-0--1--2--1--0--1--0--1~~~-1~~~-1~~~-0--1--4~~~~-4~~~~-|

===========================================================================

Guitar 1
C#-------------------------------------------------------------------------|
G#-------------------------------------------------------4*~~~~~~~~~~~~~~~-|
E -------------------------------------------------------4*~~~~~~~~~~~~~~~-|
B -------------------------------------------------------------------------|
F#-------------------------------------------------------------------------|
B -0--1~~~-1~~~-1~~~-0--1--2--1--0--1--0--1~~~-1~~~-1~~~-------------------|

Guitar 2
C#-------------------------------------14~~~-------14~~~-16~~~~~~~~~~~~~~~-|
G#-------------------------------------------16~~~-------------------------|
E -------------------------------------------------------------------------|
B -------------------------------------------------------------------------|
F#-------------------------------------------------------------------------|
B -------------------------------------------------------------------------|

===========================================================================
===========================================================================


Intro 2

Guitar 1 & 2
C#-------------------------------------------------------------------------|
G#-------------------------------------------------------------------------|
E -------------------------------------------------------------------------|
B -0--1~~~-1~~~-1~~~-0--1--2--1--0--1--0--1~~~-1~~~-1~~~-0--1--4~~~~-4~~~~-|
F#-0--1~~~-1~~~-1~~~-0--1--2--1--0--1--0--1~~~-1~~~-1~~~-0--1--4~~~~-4~~~~-|
B -0--1~~~-1~~~-1~~~-0--1--2--1--0--1--0--1~~~-1~~~-1~~~-0--1--4~~~~-4~~~~-|

===========================================================================

Guitar 1 & 2
C#-------------------------------------------------------------------------|
G#-------------------------------------------------------------------------|
E -------------------------------------------------------------------------|
B -0--1~~~-1~~~-1~~~-0--1--2--1--0--1--0--1~~~-1~~~-1~~~-0--1--------------|
F#-0--1~~~-1~~~-1~~~-0--1--2--1--0--1--0--1~~~-1~~~-1~~~-0--1--4~~~~-------|
B -0--1~~~-1~~~-1~~~-0--1--2--1--0--1--0--1~~~-1~~~-1~~~-0--1--------4~~~~-|

===========================================================================

Guitar 1 & 2
C#-------------------------------------------------------------------------|
G#-------------------------------------------------------------------------|
E -------------------------------------------------------------------------|
B -0--1~~~-1~~~-1~~~-0--1--2--1--0--1--0--1~~~-1~~~-1~~~-0--1--4~~~~-4~~~~-|
F#-0--1~~~-1~~~-1~~~-0--1--2--1--0--1--0--1~~~-1~~~-1~~~-0--1--4~~~~-4~~~~-|
B -0--1~~~-1~~~-1~~~-0--1--2--1--0--1--0--1~~~-1~~~-1~~~-0--1--4~~~~-4~~~~-|

===========================================================================

Guitar 1 & 2
C#-------------------------------------------------------------------------|
G#-------------------------------------------------------------------------|
E -------------------------------------------------------------------------|
B -0--1~~~-1~~~-1~~~-0--1--2--1--0--1--0--1~~~-1~~~-1~~~-------------------|
F#-0--1~~~-1~~~-1~~~-0--1--2--1--0--1--0--1~~~-1~~~-1~~~-------------------|
B -0--1~~~-1~~~-1~~~-0--1--2--1--0--1--0--1~~~-1~~~-1~~~-0--1--------------|

===========================================================================
===========================================================================


Verse 1

(x2)

Guitar 1 & 2
C#-------------------------------------------------------------------------|
G#-------------------------------------------------------------------------|
E -------------------------------------------------------------------------|
B -0--1----1----1----0--1-----------0--1--1----1----1----0--1-----------0--|
F#-0--1----1----1----0--1-----------0--1--1----1----1----0--1-----------0--|
B -0--1----1----1----0--1-----1~b~r-0--1--1----1----1----0--1-----2~b~r-0--|
pm .  .    .    .    .  .           .  .  .    .    .    .  .           .

===========================================================================

Guitar 1 & 2
C#-------------------------------------------------------------------------|
G#-------------------------------------------------------------------------|
E -------------------------------------------------------------------------|
B -0--1----1----1----0--1-----------0--1--1----1----1----------------------|
F#-0--1----1----1----0--1-----------0--1--1----1----1----4--0--4--0--------|
B -0--1----1----1----0--1-----1~b~r-0--1--1----1----1----------------4~~~~-|
pm .  .    .    .    .  .           .  .  .    .    .

===========================================================================
===========================================================================


Pre Chorus

Guitar 1
C#-------------------------------------------------------------------------|
G#-------------------------------------------------------------------------|
E -3--3--3--3--3--3--4--4--4--4--4--4--6--6--6--6--6--6--4--4--4--4--4--4--|
B -3--3--3--3--3--3--4--4--4--4--4--4--6--6--6--6--6--6--4--4--4--4--4--4--|
F#-1--1--1--1--1--1--2--2--2--2--2--2--4--4--4--4--4--4--2--2--2--2--2--2--|
B -------------------------------------------------------------------------|
pm .  .  .  .  .  .  .  .  .  .  .  .  .  .  .  .  .  .  .  .  .  .  .  .

===========================================================================

Guitar 1 (Gradually let off palm mute)
C#-------------------------------------------------------------------------|
G#-------------------------------------------------------------------------|
E -3--3--3--3--3--3--4--4--4--4--4--4--6--6--6--6--6--6--7--7--7--7--7--7--|
B -3--3--3--3--3--3--4--4--4--4--4--4--6--6--6--6--6--6--7--7--7--7--7--7--|
F#-1--1--1--1--1--1--2--2--2--2--2--2--4--4--4--4--4--4--5--5--5--5--5--5--|
B -------------------------------------------------------------------------|
pm .  .  .  .  .  .  .  .  .  .  .  .

Guitar 2
C#-------------------------------------------------------------------------|
G#-6--6--6--6--6--6--7--7--7--7--7--7--6--6--6--6--6--6--------------------|
E -x--x--x--x--x--x--x--x--x--x--x--x--x--x--x--x--x--x--7--7--7--7--7--7--|
B -3--3--3--3--3--3--4--4--4--4--4--4--3--3--3--3--3--3--x--x--x--x--x--x--|
F#-------------------------------------------------------5--5--5--5--5--5--|
B -------------------------------------------------------------------------|

===========================================================================
===========================================================================


Chorus

Guitar 1 & 2
C#-------------------6~~~~~~~~~~~~~~~~-------------------------------------|
G#-------------------6~~~~~~~~~~~~~~~~-------------------------------------|
E -8--8~~~-8~~~-8~~~-8~~~~~~~~~~~~~~~~-4--4~~~-4~~~-4~~~-------------------|
B -8--8~~~-8~~~-8~~~-8~~~~~~~~~~~~~~~~-4--4~~~-4~~~-4~~~-6~~~~-6~~~~-6~~~~-|
F#-6--6~~~-6~~~-6~~~-6~~~~~~~~~~~~~~~~-2--2~~~-2~~~-2~~~-6~~~~-6~~~~-6~~~~-|
B -------------------------------------------------------6~~~~-6~~~~-6~~~~-|

===========================================================================

Guitar 1 & 2
C#-------------------------------------------------------------------------|
G#-------------------------------------------------------------------------|
E -------------------------------------------------------------------------|
B -1--1~~~-1~~~-1~~~-4~~~~-4~~~~-4~~~~~-6--6~~~-6~~~-6---6~~~~-6~~~~-6~~~~-|
F#-1--1~~~-1~~~-1~~~-4~~~~-4~~~~-4~~~~~-6--6~~~-6~~~-6---6~~~~-6~~~~-6~~~~-|
B -1--1~~~-1~~~-1~~~-4~~~~-4~~~~-4~~~~~-6--6~~~-6~~~-6---6~~~~-6~~~~-6~~~~-|

===========================================================================

Guitar 1 & 2
C#-------------------6~~~~~~~~~~~~~~~~-------------------------------------|
G#-------------------6~~~~~~~~~~~~~~~~-------------------------------------|
E -8--8~~~-8~~~-8~~~-8~~~~~~~~~~~~~~~~-4--4~~~-4~~~-4~~~-------------------|
B -8--8~~~-8~~~-8~~~-8~~~~~~~~~~~~~~~~-4--4~~~-4~~~-4~~~-3~~~~-3~~~~-3~~~~-|
F#-6--6~~~-6~~~-6~~~-6~~~~~~~~~~~~~~~~-2--2~~~-2~~~-2~~~-3~~~~-3~~~~-3~~~~-|
B -------------------------------------------------------3~~~~-3~~~~-3~~~~-|

===========================================================================

Guitar 1 & 2
C#-------------------------------------------------------------------------|
G#-------------------------------------------------------------------------|
E -------------------------------------------------------------------------|
B -1--1~~~-1~~~-1~~~-4~~~~-4~~~~-4~~~~-4--6--6--6--6--6--4--6--6--6--6--6--|
F#-1--1~~~-1~~~-1~~~-4~~~~-4~~~~-4~~~~-4--6--6--6--6--6--4--6--6--6--6--6--|
B -1--1~~~-1~~~-1~~~-4~~~~-4~~~~-4~~~~-4--6--6--6--6--6--4--6--6--6--6--6--|

===========================================================================
===========================================================================


Bridge 1

Guitar 1 & 2
C#-------------------------------------------------------------------------|
G#-------------------------------------------------------------------------|
E -------------------------------------------------------------------------|
B -0--1~~~-1~~~-1~~~-0--1--2--1--0--1--0--1~~~-1~~~-1~~~-0--1--4~~~~-4~~~~-|
F#-0--1~~~-1~~~-1~~~-0--1--2--1--0--1--0--1~~~-1~~~-1~~~-0--1--4~~~~-4~~~~-|
B -0--1~~~-1~~~-1~~~-0--1--2--1--0--1--0--1~~~-1~~~-1~~~-0--1--4~~~~-4~~~~-|

===========================================================================

Guitar 1
C#-------------------------------------------------------------------------|
G#-------------------------------------------------------------------------|
E -------------------------------------------------------------------------|
B -0--1~~~-1~~~-1~~~-0--1--2--1--0--1--0--1~~~-1~~~-1~~~-------------------|
F#-0--1~~~-1~~~-1~~~-0--1--2--1--0--1--0--1~~~-1~~~-1~~~-------------------|
B -0--1~~~-1~~~-1~~~-0--1--2--1--0--1--0--1~~~-1~~~-1~~~-0--1--------------|

Guitar 2
C#-------------------------------------------------------------------------|
G#-------------------------------------------------------------------------|
E ----------------------------------------------------------------------3--|
B -0--1~~~-1~~~-1~~~-0--1--2--1--0--1--0--1~~~-1~~~-1~~~-------------------|
F#-0--1~~~-1~~~-1~~~-0--1--2--1--0--1--0--1~~~-1~~~-1~~~-------------------|
B -0--1~~~-1~~~-1~~~-0--1--2--1--0--1--0--1~~~-1~~~-1~~~-0--1--------------|

===========================================================================
===========================================================================


Verse 2

Guitar 1
C#-------------------------------------------------------------------------|
G#-------------------------------------------------------------------------|
E -------------------------------------------------------------------------|
B -0--1----1----1----0--1-----------0--1--1----1----1----0--1-----------0--|
F#-0--1----1----1----0--1-----------0--1--1----1----1----0--1-----------0--|
B -0--1----1----1----0--1-----1~b~r-0--1--1----1----1----0--1-----2~b~r-0--|
pm .  .    .    .    .  .           .  .  .    .    .    .  .           .

Guitar 2 (Clean) Most of this is improvised
C#-------------------------------------------------------------------------|
G#-------------------------------------------------------------------------|
E ----------3~~~~~~~~~~~~~~~~-3~~~~~~~-4~~~~~~~~~~~~~~~~-4~~~~~~~~~~~~~~~~-|
B -------6~~~~~~~~6~~~~~~~-6~~~~~~-6~~-------6~~~~~~~~~~~~~~~~-6~~~~~~~~~~-|
F#-6~~~~~~~~~~~~~~~~-6~~~~~~~~~~~~~~~~-------------7~~~~~~~~~~~~~~~~-7~~~~-|
B -------------------------------------------------------------------------|

Guitar 1
C#-------------------------------------------------------------------------|
G#-------------------------------------------------------------------------|
E -------------------------------------------------------------------------|
B -0--1----1----1----0--1-----------0--1--1----1----1----------------------|
F#-0--1----1----1----0--1-----------0--1--1----1----1----4--0--4--0--------|
B -0--1----1----1----0--1-----1~b~r-0--1--1----1----1----------------4~~~~-|
pm .  .    .    .    .  .           .  .  .    .    .

Guitar 2
C#-------------------------------------------------------------------------|
G#-------------------------------------------------------------------------|
E ----------3~~~~~~~~~~~~~~~~-3~~~~~~~-------------------------------------|
B -------6~~~~~~~~6~~~~~~~-6~~~~~~-6~~-6~~~~~~~~~~~~~~~~-6~~~~~~~~~~~~~~~~-|
F#-6~~~~~~~~~~~~~~~~-6~~~~~~~~~~~~~~~~-------7~~~~~~~~~~~~~~~~-7~~~~~~~~~~-|
B -------------------------------------------------8~~~~~~~~~~~~~~~~-8~~~~-|

===========================================================================
===========================================================================

Pre Chorus

Guitar 1
C#-------------------------------------------------------------------------|
G#-------------------------------------------------------------------------|
E -3--3--3--3--3--3--4--4--4--4--4--4--6--6--6--6--6--6--4--4--4--4--4--4--|
B -3--3--3--3--3--3--4--4--4--4--4--4--6--6--6--6--6--6--4--4--4--4--4--4--|
F#-1--1--1--1--1--1--2--2--2--2--2--2--4--4--4--4--4--4--2--2--2--2--2--2--|
B -------------------------------------------------------------------------|
pm .  .  .  .  .  .  .  .  .  .  .  .  .  .  .  .  .  .  .  .  .  .  .  .

===========================================================================

Guitar 1 (Gradually let off palm mute)
C#-------------------------------------------------------------------------|
G#-------------------------------------------------------------------------|
E -3--3--3--3--3--3--4--4--4--4--4--4--6--6--6--6--6--6--7--7--7--7--7--7--|
B -3--3--3--3--3--3--4--4--4--4--4--4--6--6--6--6--6--6--7--7--7--7--7--7--|
F#-1--1--1--1--1--1--2--2--2--2--2--2--4--4--4--4--4--4--5--5--5--5--5--5--|
B -------------------------------------------------------------------------|
pm .  .  .  .  .  .  .  .  .  .  .  .

Guitar 2
C#-------------------------------------------------------------------------|
G#-6--6--6--6--6--6--7--7--7--7--7--7--6--6--6--6--6--6--------------------|
E -x--x--x--x--x--x--x--x--x--x--x--x--x--x--x--x--x--x--7--7--7--7--7--7--|
B -3--3--3--3--3--3--4--4--4--4--4--4--3--3--3--3--3--3--x--x--x--x--x--x--|
F#-------------------------------------------------------5--5--5--5--5--5--|
B -------------------------------------------------------------------------|

===========================================================================
===========================================================================


Chorus

Guitar 1 & 2
C#-------------------6~~~~~~~~~~~~~~~~-------------------------------------|
G#-------------------6~~~~~~~~~~~~~~~~-------------------------------------|
E -8--8~~~-8~~~-8~~~-8~~~~~~~~~~~~~~~~-4--4~~~-4~~~-4~~~-------------------|
B -8--8~~~-8~~~-8~~~-8~~~~~~~~~~~~~~~~-4--4~~~-4~~~-4~~~-6~~~~-6~~~~-6~~~~-|
F#-6--6~~~-6~~~-6~~~-6~~~~~~~~~~~~~~~~-2--2~~~-2~~~-2~~~-6~~~~-6~~~~-6~~~~-|
B -------------------------------------------------------6~~~~-6~~~~-6~~~~-|

===========================================================================

Guitar 1 & 2
C#-------------------------------------------------------------------------|
G#-------------------------------------------------------------------------|
E -------------------------------------------------------------------------|
B -1--1~~~-1~~~-1~~~-4~~~~-4~~~~-4~~~~~-6--6~~~-6~~~-6---6~~~~-6~~~~-6~~~~-|
F#-1--1~~~-1~~~-1~~~-4~~~~-4~~~~-4~~~~~-6--6~~~-6~~~-6---6~~~~-6~~~~-6~~~~-|
B -1--1~~~-1~~~-1~~~-4~~~~-4~~~~-4~~~~~-6--6~~~-6~~~-6---6~~~~-6~~~~-6~~~~-|

===========================================================================

Guitar 1 & 2
C#-------------------6~~~~~~~~~~~~~~~~-------------------------------------|
G#-------------------6~~~~~~~~~~~~~~~~-------------------------------------|
E -8--8~~~-8~~~-8~~~-8~~~~~~~~~~~~~~~~-4--4~~~-4~~~-4~~~-------------------|
B -8--8~~~-8~~~-8~~~-8~~~~~~~~~~~~~~~~-4--4~~~-4~~~-4~~~-3~~~~-3~~~~-3~~~~-|
F#-6--6~~~-6~~~-6~~~-6~~~~~~~~~~~~~~~~-2--2~~~-2~~~-2~~~-3~~~~-3~~~~-3~~~~-|
B -------------------------------------------------------3~~~~-3~~~~-3~~~~-|

===========================================================================

Guitar 1 & 2
C#-------------------------------------------------------------------------|
G#-------------------------------------------------------------------------|
E -------------------------------------------------------------------------|
B -1--1~~~-1~~~-1~~~-4~~~~-4~~~~-4~~~~-4--6--6--6--6--6--4--6--6--6--6--6--|
F#-1--1~~~-1~~~-1~~~-4~~~~-4~~~~-4~~~~-4--6--6--6--6--6--4--6--6--6--6--6--|
B -1--1~~~-1~~~-1~~~-4~~~~-4~~~~-4~~~~-4--6--6--6--6--6--4--6--6--6--6--6--|

===========================================================================
===========================================================================


Interlude

Guitar 1
C#-------------------------------------------------------------------------|
G#-------------------------------------------------------------------------|
E -------------------------------------------------------------------------|
B -1~~~~~~~~~~~~~~~~~~~~~~~~~~~~~~~~~~~~~~~~~~~~~~~~~~~~~~~~~~~~~~~~~~~~~~-
F#-1~~~~~~~~~~~~~~~~~~~~~~~~~~~~~~~~~~~~~~~~~~~~~~~~~~~~~~~~~~~~~~~~~~~~~~-
B -1~~~~~~~~~~~~~~~~~~~~~~~~~~~~~~~~~~~~~~~~~~~~~~~~~~~~~~~~~~~~~~~~~~~~~~-

Guitar 2 (Clean)
C#-11~~~~~~~~~~~~~~~-7--7--7--7--7--7--11~~~~~~~~~~~~~~~-7--7--7--11-11-11-|
G#------7~~~~~~~~~~~------------------------7~~~~~~~~~~~-------------------|
E -----------10~~~~~-----------------------------10~~~~~-------------------|
B -------------------------------------------------------------------------|
F#-------------------------------------------------------------------------|
B -------------------------------------------------------------------------|

===========================================================================

Guitar 2
C#-11~~~~~~~~~~~~~~~-7--7--7--7--------11~~~~~~~~~~~~~~~-7--7--7--9--9--11-|
G#------7~~~~~~~~~~~----------9--9--9-------7~~~~~~~~~~~-------------------|
E -----------10~~~~~-----------------------------10~~~~~-------------------|
B -------------------------------------------------------------------------|
F#-------------------------------------------------------------------------|
B -------------------------------------------------------------------------|

===========================================================================

Rest

===========================================================================
===========================================================================


Breakdown

Guitar 1
C#-------------------------------------------------------------------------|
G#-------------------------------------------------------------------------|
E -------------------------------------------------------------------------|
B -1--1~~~-1~~~-1--1-------------------------------------------------------|
F#-1--1~~~-1~~~-1--1-------------------------------------------------------|
B -1--1~~~-1~~~-1--1-------------------------------------------------------|

Guitar 2
C#-------------------------------------------------------------------------|
G#-7--7--7--7--7--7--6--6--6--6--6--6--12-12-12-12-12-12-11-11-11-11-11-11-|
E -x--x--x--x--x--x--x--x--x--x--x--x--x--x--x--x--x--x--x--x--x--x--x--x--|
B -4--4--4--4--4--4--3--3--3--3--3--3--9--9--9--9--9--9--8--8--8--8--8--8--|
F#-------------------------------------------------------------------------|
B -------------------------------------------------------------------------|

===========================================================================

Guitar 1
C#-------------------------------------------------------------------------|
G#-------------------------------------------------------------------------|
E -----------------8~~~~~~~~~~~~~~~~~~-10-10~~-10~~-10---------------------|
B -1--1~~~-1~~~-1--8~~~~~~~~~~~~~~~~~~-10-10~~-10~~-10---------------------|
F#-1--1~~~-1~~~-1--6~~~~~~~~~~~~~~~~~~-8--8~~~-8~~~-8----------------------|
B -1--1~~~-1~~~-1----------------------------------------------------------|

Guitar 2
C#-------------------------------------------------------------------------|
G#-7--7--7--7--7--7--6--6--6--6--6--6--12-12-12-12-12-12-9--9--9--9--9--9--|
E -x--x--x--x--x--x--x--x--x--x--x--x--x--x--x--x--x--x--x--x--x--x--x--x--|
B -4--4--4--4--4--4--3--3--3--3--3--3--9--9--9--9--9--9--6--6--6--6--6--6--|
F#-------------------------------------------------------------------------|
B -------------------------------------------------------------------------|

===========================================================================
===========================================================================

Chorus

Guitar 1 & 2
C#-------------------6~~~~~~~~~~~~~~~~-------------------------------------|
G#-------------------6~~~~~~~~~~~~~~~~-------------------------------------|
E -8--8~~~-8~~~-8~~~-8~~~~~~~~~~~~~~~~-4--4~~~-4~~~-4~~~-------------------|
B -8--8~~~-8~~~-8~~~-8~~~~~~~~~~~~~~~~-4--4~~~-4~~~-4~~~-6~~~~-6~~~~-6~~~~-|
F#-6--6~~~-6~~~-6~~~-6~~~~~~~~~~~~~~~~-2--2~~~-2~~~-2~~~-6~~~~-6~~~~-6~~~~-|
B -------------------------------------------------------6~~~~-6~~~~-6~~~~-|

===========================================================================

Guitar 1 & 2
C#-------------------------------------------------------------------------|
G#-------------------------------------------------------------------------|
E -------------------------------------------------------------------------|
B -1--1~~~-1~~~-1~~~-4~~~~-4~~~~-4~~~~~-6--6~~~-6~~~-6---6~~~~-6~~~~-6~~~~-|
F#-1--1~~~-1~~~-1~~~-4~~~~-4~~~~-4~~~~~-6--6~~~-6~~~-6---6~~~~-6~~~~-6~~~~-|
B -1--1~~~-1~~~-1~~~-4~~~~-4~~~~-4~~~~~-6--6~~~-6~~~-6---6~~~~-6~~~~-6~~~~-|

===========================================================================

Guitar 1 & 2
C#-------------------6~~~~~~~~~~~~~~~~-------------------------------------|
G#-------------------6~~~~~~~~~~~~~~~~-------------------------------------|
E -8--8~~~-8~~~-8~~~-8~~~~~~~~~~~~~~~~-4--4~~~-4~~~-4~~~-------------------|
B -8--8~~~-8~~~-8~~~-8~~~~~~~~~~~~~~~~-4--4~~~-4~~~-4~~~-3~~~~-3~~~~-3~~~~-|
F#-6--6~~~-6~~~-6~~~-6~~~~~~~~~~~~~~~~-2--2~~~-2~~~-2~~~-3~~~~-3~~~~-3~~~~-|
B -------------------------------------------------------3~~~~-3~~~~-3~~~~-|

===========================================================================

Guitar 1 & 2
C#-------------------------------------------------------------------------|
G#-------------------------------------------------------------------------|
E -------------------------------------------------------------------------|
B -1--1~~~-1~~~-1~~~-4~~~~-4~~~~-4~~~~-4--6--6--6--6--6--4--6--6--6--6--6--|
F#-1--1~~~-1~~~-1~~~-4~~~~-4~~~~-4~~~~-4--6--6--6--6--6--4--6--6--6--6--6--|
B -1--1~~~-1~~~-1~~~-4~~~~-4~~~~-4~~~~-4--6--6--6--6--6--4--6--6--6--6--6--|

===========================================================================
===========================================================================

Bridge 2

Guitar 1 & 2
C#-------------------6~~~~~~~~~~~~~~~~-------------------------------------|
G#-------------------6~~~~~~~~~~~~~~~~-------------------------------------|
E -8--8~~~-8~~~-8~~~-8~~~~~~~~~~~~~~~~-4--4~~~-4~~~-4~~~-------------------|
B -8--8~~~-8~~~-8~~~-8~~~~~~~~~~~~~~~~-4--4~~~-4~~~-4~~~-6~~~~-6~~~~-6~~~~-|
F#-6--6~~~-6~~~-6~~~-6~~~~~~~~~~~~~~~~-2--2~~~-2~~~-2~~~-6~~~~-6~~~~-6~~~~-|
B -------------------------------------------------------6~~~~-6~~~~-6~~~~-|

===========================================================================

Guitar 1 & 2
C#-------------------------------------------------------------------------|
G#-------------------------------------------------------------------------|
E -------------------------------------------------------------------------|
B -1--1~~~-1~~~-1~~~-4~~~~-4~~~~-4~~~~~-6--6~~~-6~~~-6---6~~~~-6~~~~-6~~~~-|
F#-1--1~~~-1~~~-1~~~-4~~~~-4~~~~-4~~~~~-6--6~~~-6~~~-6---6~~~~-6~~~~-6~~~~-|
B -1--1~~~-1~~~-1~~~-4~~~~-4~~~~-4~~~~~-6--6~~~-6~~~-6---6~~~~-6~~~~-6~~~~-|

===========================================================================

Guitar 1 & 2
C#-------------------6~~~~~~~~~~~~~~~~-------------------------------------|
G#-------------------6~~~~~~~~~~~~~~~~-------------------------------------|
E -8--8~~~-8~~~-8~~~-8~~~~~~~~~~~~~~~~-4--4~~~-4~~~-4~~~-------------------|
B -8--8~~~-8~~~-8~~~-8~~~~~~~~~~~~~~~~-4--4~~~-4~~~-4~~~-3~~~~-3~~~~-3~~~~-|
F#-6--6~~~-6~~~-6~~~-6~~~~~~~~~~~~~~~~-2--2~~~-2~~~-2~~~-3~~~~-3~~~~-3~~~~-|
B -------------------------------------------------------3~~~~-3~~~~-3~~~~-|

===========================================================================

Guitar 1 & 2
C#-------------------------------------------------------------------------|
G#-------------------------------------------------------------------------|
E -------------------------------------------------------------------------|
B -1--1~~~-1~~~-1~~~-4~~~~-4~~~~-4~~~~-4--6--6--6--6--6--4--6--6--6--6--6--|
F#-1--1~~~-1~~~-1~~~-4~~~~-4~~~~-4~~~~-4--6--6--6--6--6--4--6--6--6--6--6--|
B -1--1~~~-1~~~-1~~~-4~~~~-4~~~~-4~~~~-4--6--6--6--6--6--4--6--6--6--6--6--|

===========================================================================
===========================================================================


Outro

Guitar 1 & 2
C#-------------------------------------------------------------------------|
G#-------------------------------------------------------------------------|
E -------------------------------------------------------------------------|
B -0--1~~~-1~~~-1~~~-0--1--2--1--0--1--0--1~~~-1~~~-1~~~-0--1--4~~~~-4~~~~-|
F#-0--1~~~-1~~~-1~~~-0--1--2--1--0--1--0--1~~~-1~~~-1~~~-0--1--4~~~~-4~~~~-|
B -0--1~~~-1~~~-1~~~-0--1--2--1--0--1--0--1~~~-1~~~-1~~~-0--1--4~~~~-4~~~~-|

===========================================================================

Guitar 1 & 2
C#-------------------------------------------------------------------------|
G#-------------------------------------------------------------------------|
E -------------------------------------------------------------------------|
B -0--1~~~-1~~~-1~~~-0--1--2--1--0--1--0--1~~~-1~~~-1~~~-0--1--------------|
F#-0--1~~~-1~~~-1~~~-0--1--2--1--0--1--0--1~~~-1~~~-1~~~-0--1--4~~~~-------|
B -0--1~~~-1~~~-1~~~-0--1--2--1--0--1--0--1~~~-1~~~-1~~~-0--1--------4~~~~-|

===========================================================================

Guitar 1 & 2
C#-------------------------------------------------------------------------|
G#-------------------------------------------------------------------------|
E -------------------------------------------------------------------------|
B -0--1~~~-1~~~-1~~~-0--1--2--1--0--1--0--1~~~-1~~~-1~~~-0--1--4~~~~-4~~~~-|
F#-0--1~~~-1~~~-1~~~-0--1--2--1--0--1--0--1~~~-1~~~-1~~~-0--1--4~~~~-4~~~~-|
B -0--1~~~-1~~~-1~~~-0--1--2--1--0--1--0--1~~~-1~~~-1~~~-0--1--4~~~~-4~~~~-|

===========================================================================

Guitar 1
C#-------------------------------------------------------------------------|
G#-------------------------------------------------------------------------|
E -------------------------------------------------------------------------|
B -0--1~~~-1~~~-1~~~-0--1--2--1--0--1--0--1~~~-1~~~-1~~~-------------------|
F#-0--1~~~-1~~~-1~~~-0--1--2--1--0--1--0--1~~~-1~~~-1~~~-------------------|
B -0--1~~~-1~~~-1~~~-0--1--2--1--0--1--0--1~~~-1~~~-1~~~-0--1--------------|

Guitar 2
C#-------------------------------------14~~~-------14~~~-16~~~~~~~~~~~~~~~-|
G#-------------------------------------------16~~~-------------------------|
E -------------------------------------------------------------------------|
B -0--1~~~-1~~~-1~~~-0--1--2--1--0--1--------------------------------------|
F#-0--1~~~-1~~~-1~~~-0--1--2--1--0--1--------------------------------------|
B -0--1~~~-1~~~-1~~~-0--1--2--1--0--1--------------------------------------|

===========================================================================
===========================================================================
===========================================================================

Tab Legend
h  -  hammer-on
p  -  pull-off
/  -  slide up
\  -  slide down
ps/-  pickslide up
ps\-  pickslide down
~  -  let ring
pm.-  palm mute
b  -  bend
r  -  return from bend
*  -  harmonic
x  -  dead note
^  -  Whammy bar
^\ -  Whammy bar (hold down)

There you have it. I hope the tab was helpful, and if you’ve got any problems be sure to
check out my cover for visual support. Thanks, oh and one last thing... ROCK OUT!!!!
comments
We did not receive enough feedback on this tab! Please rate:
1 2 3 4 5
4 comments total. Showing first comments.
0 reply
MrFlibble wrote on January 13 2012, 10:06 pm

Notes sound right to me, but it won't be Drop B. Lacuna Coil use 7-strings tuned B Standard, or occasionally Drop A/A Standard.

+1 reply
skygoneblue wrote on February 17 2012, 12:07 pm

I'm pretty sure this song is in Bb minor, which means the main riff would look like this:

Bb:-0h2-2-0h2h3p2-0h2-0h2-2-2-5-5-5

The previous comment may very well be correct as well. I see them in the video hanging around frets 1 and 3 a lot, which would exactly Bb and C, as I suggested above.

+1 reply
NimbleThee_Pope wrote on February 22 2012, 07:45 pm

They're right. It's tuned to Bb, or A# if your brain's wired like mine :P

I want to post or [tab]
guest
You may want to rate the tab now too:
select rating
Please do not post tabs as comments. Select "correction" instead!