Oops, an error
Loading. Please wait.

You Go Down Smooth Tab

3,260 views 51 this week
no commentswrite comment
1 2 3 4 5
excellent!
x 1
add to favorites launch autoscroll
font size
0
reset
Autoscroll
+/-
esc
set tempo
stop
Contributor
WARNING: You are trying to view
                                    content from Ultimate-Guitar.com
                                    in an unauthorized application,
                                    which is prohibited.

                                    Please use an official Ultimate
                                    Guitar Tabs application for iPhone,
                                    iPad or Android to access legitimate
                                    chords, guitar, bass, and drum tabs
                                    from Ultimate-Guitar.com database.

                                    Type "ultimate guitar tabs" in Apple
                                    App Store's or Android Market's
                                    search to find the application.
-----------------------------------------------------------------
You Go Down Smooth - Lake Street Dive
-----------------------------------------------------------------
Tabbed by: Emmett Mills
Email: emills29@gmail.com
Tuning: Standard
Song by: Mike "McDuck" Olson

Note: Fun song!  This is the version from the album "Live at the 
Lizard Lounge."  Play all of the chords open.  Listen to the 
recording a couple times to get the rhythm down.  I like to throw
an Esus4 into the mix ocasionally when I am on the open E.  Let
me know if you want to request any other Lake Street Dive tabs
and I will be more than happy to do it for you!


Intro: Vamp on open E chord

E           D                A         E
Would it be true to say that I ordered you?
         D        A       E
Or is it you that ordered me? 
        D               A          E
I could say you are the only one I see
            D       A      E
But I can't stop at two or three... 


       And I       am afraid to need you so 
e|---------------------------------------------------------------|
B|---------------------------------------------------------------|
G|---------------------------------------------------------------|
D|---------------------------------------------------------------|
A|--------------------------------------2-4----------------------|
E|-0-0-2-4-5-5-5-5-4-4-4-4-2-2-2-2-0-2/4-------------------------|

And I?     am too sober not to know 
e|-----------------------------0---------------------------------|
B|-----------------------------0---------------------------------|
G|-----------------------------1---------------------------------|
D|-----------------------------2---------------------------------|
A|-5-5-5-5-4-4-4-4-2-2-2-2-----2---------------------------------|
E|-----------------------------0---------------------------------|

That you may be my problem, not my love... 
e|---x-----------------------------2-2-2-2-3---------------------|
B|---1-----------------------------0-0-0-0-0---------------------|
G|---2-----------------------------2-2-2-2-2---------------------|
D|---2-----------------------------1-1-1-1-1---------------------|
A|---x-----------------------------2-2-2-2-2---------------------|
E|---2-----------------------------------------------------------|


E          D          A                 E
Would I be lying if I said you were too sweet? 
           D          A            E
Though I'm quite sure you've got a bite 
        D                 A              E
I could say that you were just a special treat 
               D         A          E   
Though we both know that that's not right...


       And I       am afraid to need you so 
e|---------------------------------------------------------------|
B|---------------------------------------------------------------|
G|---------------------------------------------------------------|
D|---------7-7-7-7-6-6-6-6-4-4-4-4-------------------------------|
A|---------x-x-x-x-x-x-x-x-x-x-x-x------2-4----------------------|
E|-0-0-2-4-5-5-5-5-4-4-4-4-2-2-2-2-0-2/4-------------------------|

And I?     am too sober not to know 
e|-----------------------------0---------------------------------|
B|-----------------------------0---------------------------------|
G|-7-7-7-7-6-6-6-6-4-4-4-4-----1---------------------------------|
D|-x-x-x-x-x-x-x-x-x-x-x-x-----2---------------------------------|
A|-5-5-5-5-4-4-4-4-2-2-2-2-----2---------------------------------|
E|-----------------------------0---------------------------------|

That you may be my problem, not my love... 
e|---x-----------------------------2-2-2-2-3---------------------|
B|---1-----------------------------0-0-0-0-0---------------------|
G|---2-----------------------------2-2-2-2-2---------------------|
D|---2-----------------------------1-1-1-1-1---------------------|
A|---x-----------------------------2-2-2-2-2---------------------|
E|---2-----------------------------------------------------------|


Cause you go down
   smooth....
e|---------------------------------0-----------------------------|
B|---------------------------------2-----------------------------|
G|---------------------------------2-----------------------------|
D|---------------------------------2-----------------------------|
A|-7-7-7-7-6-6-----4-4-4-4-2-2-2-2-0-----------------------------|
E|-------------4-4-----------------------------------------------|

E           D               A        E
Would it be true to say you go to my head
           D    A        E
Or is that sentiment too frank?
        D               A              E
I could say you make it sweet to go to bed
              D        A          E
But then it's you that breaks the bank...

       And I       am afraid to need you so 
e|---------------------------------------------------------------|
B|---------------------------------------------------------------|
G|---------------------------------------------------------------|
D|---------7-7-7-7-6-6-6-6-4-4-4-4-------------------------------|
A|---------x-x-x-x-x-x-x-x-x-x-x-x------2-4----------------------|
E|-0-0-2-4-5-5-5-5-4-4-4-4-2-2-2-2-0-2/4-------------------------|

And I?     am too sober not to know 
e|-----------------------------0---------------------------------|
B|-----------------------------0---------------------------------|
G|-7-7-7-7-6-6-6-6-4-4-4-4-----1---------------------------------|
D|-x-x-x-x-x-x-x-x-x-x-x-x-----2---------------------------------|
A|-5-5-5-5-4-4-4-4-2-2-2-2-----2---------------------------------|
E|-----------------------------0---------------------------------|

That you may be my problem, not my love... 
e|---x-----------------------------2-2-2-2-3---------------------|
B|---1-----------------------------0-0-0-0-0---------------------|
G|---2-----------------------------2-2-2-2-2---------------------|
D|---2-----------------------------1-1-1-1-1---------------------|
A|---x-----------------------------2-2-2-2-2---------------------|
E|---2-----------------------------------------------------------|


Cause you go down
   smooth....
e|---------------------------------0-----------------------------|
B|---------------------------------2-----------------------------|
G|---------------------------------2-----------------------------|
D|---------------------------------2-----------------------------|
A|-7-7-7-7-6-6-----4-4-4-4-2-2-2-2-0-----------------------------|
E|-------------4-4-----------------------------------------------|

Cause you go down
   smooth....
e|---------------------------------0-----------------------------|
B|---------------------------------2-----------------------------|
G|---------------------------------2-----------------------------|
D|---------------------------------2-----------------------------|
A|-7-7-7-7-6-6-----4-4-4-3-2-2-2-2-0-----------------------------|
E|-------------4-4-----------------------------------------------|

Cause you go down
   smooth....
e|---------------------------------0-----------------------------|
B|---------------------------------2-----------------------------|
G|-9-9-9-9-8-8-----6-6-6-6-4-4-4-4-2-----------------------------|
D|-x-x-x-x-x-x-6-6-x-x-x-x-x-x-x-x-2-----------------------------|
A|-7-7-7-7-6-6-x-x-4-4-4-4-2-2-2-2-0-----------------------------|
E|-------------4-4-----------------------------------------------|

Cause you go down
   smooth....
e|---------------------------------0-----------------------------|
B|---------------------------------2-----------------------------|
G|-9-9-9-9-8-8-----6-6-6-5-4-4-4-4-2-----------------------------|
D|-x-x-x-x-x-x-6-6-x-x-x-x-x-x-x-x-2-----------------------------|
A|-7-7-7-7-6-6-x-x-4-4-4-3-2-2-2-2-0-----------------------------|
E|-------------4-4-----------------------------------------------|

Vamp on E

e|---------------------------------------------------------------|
B|---------------------------------------------------------------|
G|---------------------------------------------------------------|
D|----------------0-1-2------------------------------------------|
A|--------0-1-2--------------------------------------------------|
E|-2-3-4---------------------------------------------------------|


E                                  D      A       E     
Ohhh Would it be true, would it be true?  Ohhhh
                             D       A      E           
You go down smooth, yeah you go down smooth
                    D    A    E
Would it be true...
E     D

e|---------------------------------------------------------------|
B|---------------------------------------------------------------|
G|---------------------------------------------------------------|
D|----------------0-1-2------------------------------------------|
A|--------0-1-2--------------------------------------------------|
E|-2-3-4---------------------------------------------------------|



| /  slide up
| \  slide down
| h  hammer-on
| p  pull-off
| ~  vibrato
| +  harmonic
| x  Mute note
comments
We did not receive enough feedback on this tab! Please rate:
print report bad tab
1 2 3 4 5
I want to post or [tab]
guest
You may want to rate the tab now too:
select rating
Please do not post tabs as comments. Select "correction" instead!