Oops, an error
Loading. Please wait.

Bury Me Under The Sun Tab

350 views 12 this week
no commentswrite comment
1 2 3 4 5
excellent!
x 1
add to favorites launch autoscroll
font size
0
reset
Autoscroll
+/-
esc
set tempo
stop
Contributor
Difficulty
Tuning
intermediate
D A D G B E
WARNING: You are trying to view
                                    content from Ultimate-Guitar.com
                                    in an unauthorized application,
                                    which is prohibited.

                                    Please use an official Ultimate
                                    Guitar Tabs application for iPhone,
                                    iPad or Android to access legitimate
                                    chords, guitar, bass, and drum tabs
                                    from Ultimate-Guitar.com database.

                                    Type "ultimate guitar tabs" in Apple
                                    App Store's or Android Market's
                                    search to find the application.
-------------------------------------------------------------------------------
                   Bury Me Under the Sun - Lamb of God
-------------------------------------------------------------------------------



Tuning: D-A-D-G-B-e

Guitar 2 is the same as Guitar 1, unless otherwise shown


Intro/Verse

   Guitar 1
e|--------------------------------------|----------------------------------------|
B|--------------------------------------|----------------------------------------|
G|--------------------------------------|----------------------------------------|
D|--------------------------------------|----------------------------------------|
A|-7-------------7-------------7--------|------7-------------7---------7h12p7----|
D|---12-7-0-7-12---12-7-0-7-12---12-7-0-|-7-12---12-7-0-7-12---12h7p12--------12-|
                                                                                 |
                                                                                 |
                                                                                 |
   Guitar 2                                                                      |
e|--------------------------------------|----------------------------------------|
B|--------------------------------------|----------------------------------------|
G|--------------------------------------|----------------------------------------|
D|--------------------------------------|----------------------------------------|
A|-0-0-0-0---0-0------------------------|--------------------7---------7h12p7----|
D|-0-0-0-0---0-0------------------------|----------------------12h7p12--------12-|


e|--------------------------------------|----------------------------------------|
B|--------------------------------------|----------------------------------------|
G|--------------------------------------|----------------------------------------|
D|--------------------------------------|----------------------------------------|
A|-8-------------8-------------8--------|------8-------------8h12p8----8---------|
D|---12-8-0-8-12---12-8-0-8-12---12-8-0-|-8-12---12-8-0-8-12--------12---12p8h12-|
                                                                                 |
                                                                                 |
                                                                                 |
                                                                                 |
e|--------------------------------------|----------------------------------------|
B|--------------------------------------|----------------------------------------|
G|--------------------------------------|----------------------------------------|
D|--------------------------------------|----------------------------------------|
A|--1-1-1-1---1-1-----------------------|--------------------8h12p8----8---------|
D|--0-0-0-0---0-0-----------------------|---------------------------12---12p8h12-|


e|--------------------------------------|----------------------------------------|
B|--------------------------------------|----------------------------------------|
G|--------------------------------------|----------------------------------------|
D|--------------------------------------|----------------------------------------|
A|-7-------------7-------------7--------|------7-------------7---------7h12p7----|
D|---12-7-0-7-12---12-7-0-7-12---12-7-0-|-7-12---12-7-0-7-12---12h7p12--------12-|
                                                                                 |
                                                                                 |
                                                                                 |
                                                                                 |
e|--------------------------------------|----------------------------------------|
B|--------------------------------------|----------------------------------------|
G|--------------------------------------|----------------------------------------|
D|--------------------------------------|----------------------------------------|
A|--0-0-0-0---0-0-----------------------|--------------------7---------7h12p7----|
D|--0-0-0-0---0-0-----------------------|----------------------12h7p12--------12-|


e|---------------------------------|--------------------------------------|
B|---------------------------------|--------------------------------------|
G|---------------------------------|--------------------------------------|
D|---------------------------------|--------------------------------------|
A|-5-----------5-----------5-------|-7-5--------------8h12p8----8---------|
D|---8-7-0-7-8---8-7-0-7-8---7-8-0-|-----8-7-0-7-8-12--------12---12p8h12-|
                                                                          |
                                                                          |
                                                                          |
                                                                          |
e|---------------------------------|--------------------------------------|
B|---------------------------------|--------------------------------------|
G|---------------------------------|--------------------------------------|
D|---------------------------------|--------------------------------------|
A|--1-1-1-1---1-1------------------|-7-5--------------8h12p8----8---------|
D|--0-0-0-0---0-0------------------|-----8-7-0-7-8-12--------12---12p8h12-|


e|--------------------------------------|----------------------------------------|
B|--------------------------------------|----------------------------------------|
G|--------------------------------------|----------------------------------------|
D|--------------------------------------|----------------------------------------|
A|-7-------------7-------------7--------|------7-------------7---------7h12p7----|
D|---12-7-0-7-12---12-7-0-7-12---12-7-0-|-7-12---12-7-0-7-12---12h7p12--------12-|


e|--------------------------------------|----------------------------------------|
B|--------------------------------------|----------------------------------------|
G|--------------------------------------|----------------------------------------|
D|--------------------------------------|----------------------------------------|
A|-8-------------8-------------8--------|------8-------------8h12p8----8---------|
D|---12-8-0-8-12---12-8-0-8-12---12-8-0-|-8-12---12-8-0-8-12--------12---12p8h12-|


e|--------------------------------------|----------------------------------------|
B|--------------------------------------|----------------------------------------|
G|--------------------------------------|----------------------------------------|
D|--------------------------------------|----------------------------------------|
A|-7-------------7-------------7--------|------7-------------7---------7h12p7----|
D|---12-7-0-7-12---12-7-0-7-12---12-7-0-|-7-12---12-7-0-7-12---12h7p12--------12-|


e|---------------------------------|--------------------------------------|
B|---------------------------------|--------------------------------------|
G|---------------------------------|--------------------------------------|
D|---------------------------------|--------------------------------------|
A|-5-----------5-----------5-------|-7-5--------------8h12p8----8---------|
D|---8-7-0-7-8---8-7-0-7-8---7-8-0-|-----8-7-0-7-8-12--------12---12p8h12-|




Chorus

e||--------------------------|--------------------------|--------------------------|
B||o-------------------------|--------------------------|--------------------------|
G||--------------------------|--------------------------|--------------------------|
D||--------------------------|--------------------------|--------------------------|
A||o-7--7--7--7--7--7--7--8--|--8--8--8--7--7--7--7--7--|--7--7--7--7--7--7--7--8--|
D||--8--8--8--8--8--8--8--8--|--8--8--8--8--8--8--8--8--|--7--7--7--7--7--7--7--7--|

e|--------------------------||--------------------------|--------------------------|
B|-------------------------o||o-------------------------|--------------------------|
G|--------------------------||--------------------------|--------------------------|
D|--------------------------||--------------------------|--------------------------|
A|--8--8--8--7--7--7--7--7-o||o-7-----7-----8--7-----7--|-----7-----8--7--------7--|
D|--7--7--7--7--7--7--7--7--||-----8-----8--------8-----|--8-----8--------8--8-----|
PM                                 .     .        .        .     .        .  .              
                        
  ______________________________________________________ _______________________
 |1.                                                    |2. 
e|--------------------------|--------------------------||-----------------------|
B|--------------------------|-------------------------o||-----------------------|
G|--------------------------|--------------------------||-----------------------|
D|--------------------------|--------------------------||--1--------------------|
A|--7-----7-----8--7-----7--|-----7-----8--7--------7-o||--1--------------------|
D|-----7-----7--------7-----|--7-----7--------7--7-----||--1--------------------|
PM     .     .        .        .     .        .  .


Verse


e|--------------------------------------|----------------------------------------|
B|--------------------------------------|----------------------------------------|
G|--------------------------------------|----------------------------------------|
D|--------------------------------------|----------------------------------------|
A|-7-------------7-------------7--------|------7-------------7---------7h12p7----|
D|---12-7-0-7-12---12-7-0-7-12---12-7-0-|-7-12---12-7-0-7-12---12h7p12--------12-|
                                                                                 |
                                                                                 |
                                                                                 |
                                                                                 |
e|--------------------------------------|----------------------------------------|
B|--------------------------------------|----------------------------------------|
G|--------------------------------------|----------------------------------------|
D|--------------------------------------|----------------------------------------|
A|-0-0-0-0---0-0------------------------|--------------------7---------7h12p7----|
D|-0-0-0-0---0-0------------------------|----------------------12h7p12--------12-|


e|--------------------------------------|----------------------------------------|
B|--------------------------------------|----------------------------------------|
G|--------------------------------------|----------------------------------------|
D|--------------------------------------|----------------------------------------|
A|-8-------------8-------------8--------|------8-------------8h12p8----8---------|
D|---12-8-0-8-12---12-8-0-8-12---12-8-0-|-8-12---12-8-0-8-12--------12---12p8h12-|
                                                                                 |
                                                                                 |
                                                                                 |
                                                                                 |
e|--------------------------------------|----------------------------------------|
B|--------------------------------------|----------------------------------------|
G|--------------------------------------|----------------------------------------|
D|--------------------------------------|----------------------------------------|
A|--1-1-1-1---1-1-----------------------|--------------------8h12p8----8---------|
D|--0-0-0-0---0-0-----------------------|---------------------------12---12p8h12-|


e|--------------------------------------|----------------------------------------|
B|--------------------------------------|----------------------------------------|
G|--------------------------------------|----------------------------------------|
D|--------------------------------------|----------------------------------------|
A|-7-------------7-------------7--------|------7-------------7---------7h12p7----|
D|---12-7-0-7-12---12-7-0-7-12---12-7-0-|-7-12---12-7-0-7-12---12h7p12--------12-|
                                                                                 |
                                                                                 |
                                                                                 |
                                                                                 |
e|--------------------------------------|----------------------------------------|
B|--------------------------------------|----------------------------------------|
G|--------------------------------------|----------------------------------------|
D|--------------------------------------|----------------------------------------|
A|--0-0-0-0---0-0-----------------------|--------------------7---------7h12p7----|
D|--0-0-0-0---0-0-----------------------|----------------------12h7p12--------12-|


e|---------------------------------|--------------------------------------|
B|---------------------------------|--------------------------------------|
G|---------------------------------|--------------------------------------|
D|---------------------------------|--------------------------------------|
A|-5-----------5-----------5-------|-7-5--------------8h12p8----8---------|
D|---8-7-0-7-8---8-7-0-7-8---7-8-0-|-----8-7-0-7-8-12--------12---12p8h12-|
                                                                          |
                                                                          |
                                                                          |
                                                                          |
e|---------------------------------|--------------------------------------|
B|---------------------------------|--------------------------------------|
G|---------------------------------|--------------------------------------|
D|---------------------------------|--------------------------------------|
A|--1-1-1-1---1-1------------------|-7-5--------------8h12p8----8---------|
D|--0-0-0-0---0-0------------------|-----8-7-0-7-8-12--------12---12p8h12-|


e|--------------------------------------|----------------------------------------|
B|--------------------------------------|----------------------------------------|
G|--------------------------------------|----------------------------------------|
D|--------------------------------------|----------------------------------------|
A|-7-------------7-------------7--------|------7-------------7---------7h12p7----|
D|---12-7-0-7-12---12-7-0-7-12---12-7-0-|-7-12---12-7-0-7-12---12h7p12--------12-|


e|--------------------------------------|----------------------------------------|
B|--------------------------------------|----------------------------------------|
G|--------------------------------------|----------------------------------------|
D|--------------------------------------|----------------------------------------|
A|-8-------------8-------------8--------|------8-------------8h12p8----8---------|
D|---12-8-0-8-12---12-8-0-8-12---12-8-0-|-8-12---12-8-0-8-12--------12---12p8h12-|


e|--------------------------------------|----------------------------------------|
B|--------------------------------------|----------------------------------------|
G|--------------------------------------|----------------------------------------|
D|--------------------------------------|----------------------------------------|
A|-7-------------7-------------7--------|------7-------------7---------7h12p7----|
D|---12-7-0-7-12---12-7-0-7-12---12-7-0-|-7-12---12-7-0-7-12---12h7p12--------12-|


e|---------------------------------|--------------------------------------|
B|---------------------------------|--------------------------------------|
G|---------------------------------|--------------------------------------|
D|---------------------------------|--------------------------------------|
A|-5-----------5-----------5-------|-7-5--------------8h12p8----8---------|
D|---8-7-0-7-8---8-7-0-7-8---7-8-0-|-----8-7-0-7-8-12--------12---12p8h12-|



Chorus

e||--------------------------|--------------------------|--------------------------|
B||o-------------------------|--------------------------|--------------------------|
G||--------------------------|--------------------------|--------------------------|
D||--------------------------|--------------------------|--------------------------|
A||o-7--7--7--7--7--7--7--8--|--8--8--8--7--7--7--7--7--|--7--7--7--7--7--7--7--8--|
D||--8--8--8--8--8--8--8--8--|--8--8--8--8--8--8--8--8--|--7--7--7--7--7--7--7--7--|

e|--------------------------||--------------------------|--------------------------|
B|-------------------------o||o-------------------------|--------------------------|
G|--------------------------||--------------------------|--------------------------|
D|--------------------------||--------------------------|--------------------------|
A|--8--8--8--7--7--7--7--7-o||o-7-----7-----8--7-----7--|-----7-----8--7--------7--|
D|--7--7--7--7--7--7--7--7--||-----8-----8--------8-----|--8-----8--------8--8-----|
PM                                 .     .        .        .     .        .  .
 
  ______________________________________________________ _______________________
 |1.                                                    |2. 
e|--------------------------|--------------------------||-----------------------|
B|--------------------------|-------------------------o||-----------------------|
G|--------------------------|--------------------------||-----------------------|
D|--------------------------|--------------------------||--1---------------12\--|
A|--7-----7-----8--7-----7--|-----7-----8--7--------7-o||--1---------------12\--|
D|-----7-----7--------7-----|--7-----7--------7--7-----||--1---------------12\--|
PM     .     .        .        .     .        .  .



Bridge


e||---------------------------------|---------------------------------|
B||o--------------------------------|---------------------------------|
G||---------------------------------|---------------------------------|
D||---------------------------------|---------------------------------|
A||o--------------------------------|---------------------------------|
D||-5-4-3-0-1-2-3-3-3-3-3-3-3-3-3-3-|-3-3-3-3-3-3-3-3-3-3-3-3-3-3-3-3-|
                                   

e|---------------------------------|------------------------------------||
B|---------------------------------|-----------------------------------o||
G|---------------------------------|------------------------------------||
D|---------------------------------|------------------------------------||
A|---------------------------------|-----------------------------------o||
D|-5-4-3-0-1-2-3-3-3-3-3-3-3-3-3-3-|-3-3-3-3-3-3b-3b-3b-1-1-1-1-1-1-1-1-||
                                                
                                                slight bend



e||---------------------------------|---------------------------------|
B||o--------------------------------|---------------------------------|
G||---------------------------------|---------------------------------|
D||---------------------------------|---------------------------------|
A||o--------------------------------|---------------------------------|
D||-5-4-3-0-1-2-3-3-3-3-3-3-3-3-3-3-|-3-3-3-3-3-3-3-3-3-3-3-3-3-3-3-3-|
PM  . . . . . . .                                  

e|---------------------------------|------------------------------------||
B|---------------------------------|-----------------------------------o||
G|---------------------------------|------------------------------------||
D|---------------------------------|------------------------------------||
A|---------------------------------|-----------------------------------o||
D|-5-4-3-0-1-2-3-3-3-3-3-3-3-3-3-3-|-3-3-3-3-3-3b-3b-3b-1-1-1-1-1-1-1-1-||
PM . . . . . . .
                                                slight bend


e||---------------------------------|---------------------------------|
B||o--------------------------------|---------------------------------|
G||---------------------------------|---------------------------------|
D||---------------------------------|---------------------------------|
A||o--------------------------------|---------------------------------|
D||-0-0-0-0-0-0-0-0-1-1-1-1-1-1-1-1-|-5-5-5-5-5-5-5-5-4-4-4-4-4-4-4-4-|
                
                                    __________________________________             
                                   |1.
e|---------------------------------|---------------------------------||
B|---------------------------------|--------------------------------o||
G|---------------------------------|---------------------------------||
D|---------------------------------|---------------------------------||
A|---------------------------------|--------------------------------o||
D|-8-8-8-8-8-8-8-8-7-7-7-7-7-7-7-7-|-1-1-1-1-1-1-1-1-4-3-2-0-5-4-0-8-||
PM                                                   . . . . . . . .

  _________________________________                
 |2.
e|---------------------------------|
B|---------------------------------|
G|---------------------------------|
D|---------------------------------|
A|---------------------------------|
D|-4-3-2-0-5-4-0-8-4-3-2-0-5-4-0-8-|
PM . . . . . . . . . . . . . . . .



e||---------------------------------|----------------------------------|
B||o--------------------------------|----------------------------------|
G||---------------------------------|----------------------------------|
D||---------------------------------|----------------------------------|
A||o--------------------------------|-----------------8-7-----8p11h8-7-|
D||-1p0-0-0-0-0-0-0-1p0-0-0-0-0-0-0-|-6-0-0-1-0-0-6-0-----8-7----------|
PM      . . . . . .     . . . . . .     . .   . .   .     . .


e|---------------------------------|----------------------------------|
B|---------------------------------|----------------------------------|
G|---------------------------------|----------------------------------|
D|---------------------------------|-----------------------------10-9-|
A|---------------------------------|-----------------8-7-6-5-7-8------|
D|-1p0-0-0-0-0-0-0-1p0-0-0-0-0-0-0-|-6-0-0-1-0-0-6-0------------------|
PM     . . . . . .     . . . . . .     . .   . .   . . . . . . .

e|---------------------------------|----------------------------------|
B|---------------------------------|----------------------------------|
G|---------------------------------|----------------------------------|
D|---------------------------------|----------------------------------|
A|---------------------------------|-----------------8-7-----8p11h8-7-|
D|-1p0-0-0-0-0-0-0-1p0-0-0-0-0-0-0-|-6-0-0-1-0-0-6-0-----8-7----------|
PM     . . . . . .     . . . . . .     . .   . .   .     . .

                                    _________________________________  _________________
                                   |1.                                |2.
e|---------------------------------|---------------------------------||-----------------|
B|---------------------------------|--------------------------------o||-----------------|
G|---------------------------------|---------------------------------||-----------------|
D|---------------------------------|---------------------------------||-----------------|
A|---------------------------------|--------------------------------o||-----------------|
D|-1p0-0-0-0-0-0-0-1p0-0-0-0-0-0-0-|-6-0-0-1-0-0-6-0-1-1-1-1-1-1-1-1-||-6-0-0-1-0-0-6-0-|
PM     . . . . . .     . . . . . .     . .   . .   .                      . .   . .   .



e||---------------------------------|-------------------------------------|
B||o--------------------------------|-------------------------------------|
G||---------------------------------|-------------------------------------|
D||---------------------------------|-------------------------------------|
A||o----------------7-----8---------|-----8-7----7-------------7-8-10-8-7-|
D||-8-8-8-8-8-8-8-8---8-8---8-8-8-8-|-8-8-----10---10-8-7-8-10------------|
PM  . . . . . . . .   . .   . . . .   . .                                               

e|---------------------------------|---------------------------------|
B|---------------------------------|---------------------------------|
G|---------------------------------|---------------------------------|
D|---------------------------------|---------------------------------|
A|-----------------7-----8---------|-----8-7-5---5-----------5-7-5---|
D|-5-5-5-5-5-5-5-5---5-5---5-5-5-5-|-5-5-------8---8-7-5-7-8-------7-|
PM . . . . . . . .   . .   . . . .   . .

e||---------------------------------|-------------------------------------|
B||o--------------------------------|-------------------------------------|
G||---------------------------------|-------------------------------------|
D||---------------------------------|-------------------------------------|
A||o----------------7-----8---------|-----8-7----7-------------7-8-10-8-7-|
D||-8-8-8-8-8-8-8-8---8-8---8-8-8-8-|-8-8-----10---10-8-7-8-10------------|
PM  . . . . . . . .   . .   . . . .   . .                                               

e|---------------------------------|----------------------------------||------------|
B|---------------------------------|---------------------------------o||------------|
G|---------------------------------|----------------------------------||------------|
D|---------------------------------|----------------------------------||------------|
A|-----------------7-----8---------|---------5---------------3-------o||------------|
D|-5-5-5-5-5-5-5-5---5-5---5-5-5-5-|-3-3-3-3---3-3-3-2-2-2-2---2-2-2--||--<2>/<12>--|
PM . . . . . . . .   . .   . . . .   . . . .   . . . . . . .   . . .                            
                                                               play the 2 harmonic and
                                                               pick 16th notes sliding up to 12


Verse


e|--------------------------------------|----------------------------------------|
B|--------------------------------------|----------------------------------------|
G|--------------------------------------|----------------------------------------|
D|--------------------------------------|----------------------------------------|
A|-7-------------7-------------7--------|------7-------------7---------7h12p7----|
D|---12-7-0-7-12---12-7-0-7-12---12-7-0-|-7-12---12-7-0-7-12---12h7p12--------12-|
                                                                                 |
                                                                                 |
                                                                                 |
                                                                                 |
e|--------------------------------------|----------------------------------------|
B|--------------------------------------|----------------------------------------|
G|--------------------------------------|----------------------------------------|
D|--------------------------------------|----------------------------------------|
A|-0-0-0-0---0-0------------------------|--------------------7---------7h12p7----|
D|-0-0-0-0---0-0------------------------|----------------------12h7p12--------12-|


e|--------------------------------------|----------------------------------------|
B|--------------------------------------|----------------------------------------|
G|--------------------------------------|----------------------------------------|
D|--------------------------------------|----------------------------------------|
A|-8-------------8-------------8--------|------8-------------8h12p8----8---------|
D|---12-8-0-8-12---12-8-0-8-12---12-8-0-|-8-12---12-8-0-8-12--------12---12p8h12-|
                                                                                 |
                                                                                 |
                                                                                 |
                                                                                 |
e|--------------------------------------|----------------------------------------|
B|--------------------------------------|----------------------------------------|
G|--------------------------------------|----------------------------------------|
D|--------------------------------------|----------------------------------------|
A|--1-1-1-1---1-1-----------------------|--------------------8h12p8----8---------|
D|--0-0-0-0---0-0-----------------------|---------------------------12---12p8h12-|


e|--------------------------------------|----------------------------------------|
B|--------------------------------------|----------------------------------------|
G|--------------------------------------|----------------------------------------|
D|--------------------------------------|----------------------------------------|
A|-7-------------7-------------7--------|------7-------------7---------7h12p7----|
D|---12-7-0-7-12---12-7-0-7-12---12-7-0-|-7-12---12-7-0-7-12---12h7p12--------12-|
                                                                                 |
                                                                                 |
                                                                                 |
                                                                                 |
e|--------------------------------------|----------------------------------------|
B|--------------------------------------|----------------------------------------|
G|--------------------------------------|----------------------------------------|
D|--------------------------------------|----------------------------------------|
A|--0-0-0-0---0-0-----------------------|--------------------7---------7h12p7----|
D|--0-0-0-0---0-0-----------------------|----------------------12h7p12--------12-|


e|---------------------------------|--------------------------------------|
B|---------------------------------|--------------------------------------|
G|---------------------------------|--------------------------------------|
D|---------------------------------|--------------------------------------|
A|-5-----------5-----------5-------|-7-5--------------8h12p8----8---------|
D|---8-7-0-7-8---8-7-0-7-8---7-8-0-|-----8-7-0-7-8-12--------12---12p8h12-|
                                                                          |
                                                                          |
                                                                          |
                                                                          |
e|---------------------------------|--------------------------------------|
B|---------------------------------|--------------------------------------|
G|---------------------------------|--------------------------------------|
D|---------------------------------|--------------------------------------|
A|--1-1-1-1---1-1------------------|-7-5--------------8h12p8----8---------|
D|--0-0-0-0---0-0------------------|-----8-7-0-7-8-12--------12---12p8h12-|


e|--------------------------------------|----------------------------------------|
B|--------------------------------------|----------------------------------------|
G|--------------------------------------|----------------------------------------|
D|--------------------------------------|----------------------------------------|
A|-7-------------7-------------7--------|------7-------------7---------7h12p7----|
D|---12-7-0-7-12---12-7-0-7-12---12-7-0-|-7-12---12-7-0-7-12---12h7p12--------12-|


e|--------------------------------------|----------------------------------------|
B|--------------------------------------|----------------------------------------|
G|--------------------------------------|----------------------------------------|
D|--------------------------------------|----------------------------------------|
A|-8-------------8-------------8--------|------8-------------8h12p8----8---------|
D|---12-8-0-8-12---12-8-0-8-12---12-8-0-|-8-12---12-8-0-8-12--------12---12p8h12-|


e|--------------------------------------|----------------------------------------|
B|--------------------------------------|----------------------------------------|
G|--------------------------------------|----------------------------------------|
D|--------------------------------------|----------------------------------------|
A|-7-------------7-------------7--------|------7-------------7---------7h12p7----|
D|---12-7-0-7-12---12-7-0-7-12---12-7-0-|-7-12---12-7-0-7-12---12h7p12--------12-|


e|---------------------------------|--------------------------------------|
B|---------------------------------|--------------------------------------|
G|---------------------------------|--------------------------------------|
D|---------------------------------|--------------------------------------|
A|-5-----------5-----------5-------|-7-5--------------8h12p8----8---------|
D|---8-7-0-7-8---8-7-0-7-8---7-8-0-|-----8-7-0-7-8-12--------12---12p8h12-|



Chorus

e||--------------------------|--------------------------|--------------------------|
B||o-------------------------|--------------------------|--------------------------|
G||--------------------------|--------------------------|--------------------------|
D||--------------------------|--------------------------|--------------------------|
A||o-7--7--7--7--7--7--7--8--|--8--8--8--7--7--7--7--7--|--7--7--7--7--7--7--7--8--|
D||--8--8--8--8--8--8--8--8--|--8--8--8--8--8--8--8--8--|--7--7--7--7--7--7--7--7--|

e|--------------------------||--------------------------|--------------------------|
B|-------------------------o||o-------------------------|--------------------------|
G|--------------------------||--------------------------|--------------------------|
D|--------------------------||--------------------------|--------------------------|
A|--8--8--8--7--7--7--7--7-o||o-7-----7-----8--7-----7--|-----7-----8--7--------7--|
D|--7--7--7--7--7--7--7--7--||-----8-----8--------8-----|--8-----8--------8--8-----|
PM                                 .     .        .        .     .        .  .
 
  ______________________________________________________ _______________________
 |1.                                                    |2. 
e|--------------------------|--------------------------||-----------------------|
B|--------------------------|-------------------------o||-----------------------|
G|--------------------------|--------------------------||-----------------------|
D|--------------------------|--------------------------||--1--------------------|
A|--7-----7-----8--7-----7--|-----7-----8--7--------7-o||--1--------------------|
D|-----7-----7--------7-----|--7-----7--------7--7-----||--1--------------------|
PM     .     .        .        .     .        .  .






************************************

| /   slide up
| \   slide down
| h   hammer-on
| p   pull-off
| ~   vibrato
| <>  natural harmonic
| *   pinch harmonic
| x   Mute note
| b   Bend
| pb  Pre-bend
| br  Bend release
| pbr Pre-bend release
| brb Bend release bend

************************************
comments
We did not receive enough feedback on this tab! Please rate:
1 2 3 4 5
I want to post or [tab]
guest
You may want to rate the tab now too:
select rating
Please do not post tabs as comments. Select "correction" instead!