Oops, an error
Loading. Please wait.

Sacrament Tab

15,368 views 12 this week
no commentswrite comment
1 2 3 4 5
excellent!
x 4
add to favorites launch autoscroll
font size
0
reset
Autoscroll
+/-
esc
set tempo
stop
Contributor
Difficulty
Tuning
advanced
D A D G B E
WARNING: You are trying to view
                                    content from Ultimate-Guitar.com
                                    in an unauthorized application,
                                    which is prohibited.

                                    Please use an official Ultimate
                                    Guitar Tabs application for iPhone,
                                    iPad or Android to access legitimate
                                    chords, guitar, bass, and drum tabs
                                    from Ultimate-Guitar.com database.

                                    Type "ultimate guitar tabs" in Apple
                                    App Store's or Android Market's
                                    search to find the application.
Credit this to some of my work and other tabbers' work...
I took the some of the higher rated sacrament song tabs and combined them
for ones with lower ratings i corrected my self..Awesome F'ing album..
btw everything in this tab is repeat as necessary..all pieces are here
but there are missing repeat indicators..some places u have to figure out 
the # of times and order by yourself..

This took a ton of work and a lot of time, so a rate here and there would be 
greatly appreciated..thank you


Tuning- All Drop D

Just about all of these songs are hard as hell...and it took for Fucking 
ever..(pat's self on the back) Whooooooooo!!!

1. Walk With Me In Hell

|----------------------------------------------------|
|----------------------------------------------------|
|----14-13--------------14-13---------------14-13----|
|-12-------12-14-15--12-------12-14-15---12-------14-|
|----------------------------------------------------|
|----------------------------------------------------|
                                                                          
|----------------------------------------------------|
|----------------------------------------------------|
|----14-13--------------14-13------------------12----|
|-12-------12-14-15--12-------12-14-15------14----14-|
|----------------------------------------15----------|
|----------------------------------------------------|

|----------------------------------------------------------|
|----------------------------------------------------------|
|------15-14----------------15-14----------------15-14-----|
|-------------12-14-15------------12-14-15-------------15--|
|--13--------------------13-------------------13-----------|
|----------------------------------------------------------|

|----------------------------------------------------|
|----------------------------------------------------|
|----15-14--------------15-14------------------12----|
|----------12-14-15-----------12-14-15------14----14-|
|-13-----------------13------------------15----------|
|----------------------------------------------------|
                                                                              
|-------|
|-------|
|-------|
|-------|
|-------|
|-0-10V~|   

|------------------------------------------------|
|------------------------------------------------|
|------------------------------------------------|
|------------------------------------------------|
|------------------------------------------------|
|-0-10-12--0-10-12--0-10-12-13-12-10--0-10-12-13-|
                                                                         
|----------------------------------------|
|----------------------------------------|
|----------------------------------------|
|----------------------------------------|
|----------------------------------------|
|-0-12-10--0-10-8--0-8-7--0-7-5--0-5-3-1-|

|---------------------------------------------------------------------------|
|---------------------------------------------------------------------------|
|---------------------------------------------------------------------------|
|---------------------------------------------------------------------------|
|---------------------------------------------------------------------------|
|-0-0-0-0-0-0---0-0-0-0--1-0--0-0-0-0-0-0---0-12-10--0-10-8--0-8-7--0-7-5--0|
                                                                              
|-------|
|-------|
|-------|
|-------|
|-------|
|-5-3-1-|

|-----------------------------------------------------------------------|
|-----------------------------------------------------------------------|
|-----------------------------------------------------------------------|
|-----------------------------------------------------------------------|
|-----------------------------------------5-3-1-3-1-0-1-----------------|
|-6-6-6-6-6-6-6-6--7-6-7-6--6-6-6-6-6---6---------------7-5-7-5-3-5-3-1-|

|------------------------------------------------------------------------|
|------------------------------------------------------------------------|
|------------------------------------------------------------------------|
|-------------------------------------------------5\4----4h5h7h8p7p5-4h5-|
|----------------------1--------------------6\5--------------------------|
|0-0-0-0-0-0--0-0-0-0--1--0-0-0-0-0-0-0--0------0------0-----------------|

|------------------------------------------------------------------|
|------------------------------------------------------------------|
|------------------------------------------------------------------|
|--------------------------------------------5\4---4-5-7-8-7-5-4-5-|
|---------1----------------1----------6\5--------------------------|
|-0-0-0-0-1-0-0-0--0-0-0-0-1-0-0-0-0------0------0-----------------|

|-----------------------------------------------------------------|
|-----------------------------------------------------------------|
|---------------------------------------------------------7-5-3-5-|
|------------------------------------------5\4----4-5-7-8---------|
|--------1----------------1----------6\5--------------------------|
|0-0-0-0-1-0-0-0--0-0-0-0-1-0-0-0-0------0-----0------------------|

|---------------------------------------------------------------------------|
|---------------------------------------------------------------------------|
|---------------------------------------------------------------------------|
|---------------------------------------------------------------------------|
|---------------------------------------------------------------------------|
|-8-8-8-8-8-8--8-8-8-8--10-8-10-8--8-8-8-8-8--12-10-8-10-8-7-8-7-5-7-5-3-5-3|

|-------|
|-------|
|-------|
|-------|
|-------|
|-1-0---|

|---------------------------------------------------------------------------|
|---------------------------------------------------------------------------|
|---------------------------------------------------------------------------|
|---------------------------------------------------------------------------|
|---------------------------------------------------------------------------|
|0-0--0-0-0-0--0--0-0--0-0-0-0--0--0-0--0-0-0-0--0--0-0---0-0-0--3-1-4-3-1-4|

|------|
|------|
|------|
|------|
|------|
|-3-1--|
                                             
|---------------------------------------------------------------------------|
|---------------------------------------------------------------------------|
|---------------------------------------------------------------------------|
|--------15-14-----------14-13-----------------15-14----------14-13-------8-|
|------12--------------11--------10-13-12----12-------------11-------10-9---|
|-0-0----------0-0-0-0---------0----------0-0--------0-0-0-0-------0--------|

|-------------------------------------------------------|
|-------------------------------------------------------|
|-------------------------------------------------------|
|--------15-14---------14-13---------------------15-14--|
|-----12-------------11----------10-13-12------12-------|
|-0-0---------0-0-0-0----------0-----------0-0----------|

|-----------------------|
|-----------------------|
|-----------------------|
|-----------------------|
|-----------------------|
|-0-0-0-3-1-4-3-1-4-3-1-|

|-----------------------------------------------|
|-----------------------------5h6p5--5----------|
|-------------------------5-7------7--7-5--5-7V~|
|---3h5p3-5b-5-3------5-7-----------------7-----|
|-5V~-----------5-5-8---------------------------|
|-----------------------------------------------|

|-------------------------------------|
|-------------------------------------|
|7-5----7b-5---5-7b-5---5-7b-5---5-7V~|
|---7-5------7--------7--------7------|
|-------------------------------------|
|-------------------------------------|

|---------------------------------------------------------------------------|
|-8b-6-8-6\5-6-5--5-------------------------------------------------------8b|
|---------------7--7-6--6--------------------------6h7p6-6----------6-7p6---|
|----------------------8--8-7-5--5------------5-7-8-----8--8-7-5-7-8--------|
|-------------------------------8--8-7-5-4-5-7------------------------------|
|---------------------------------------------------------------------------|

|---------------------------------------------------------------|
|-8p6-8B~---15--15---13b-13b--10h13p10--10----------------------|
|---------14--14--14------------------13--13-12-10--12*B-12b-12b|
|-------------------------------------------------12------------|
|---------------------------------------------------------------|
|---------------------------------------------------------------|

|-------------------------------------------------------------------------|
|-------------------------------------------------------------------------|
|-10--10-12h13p12\10h12p10--10-----------------------------------10--10-12|
|---12--------------------12--12-10--10--------------10--10-11-12--12-----|
|----------------------------------12--12-11-10-11-12--12-----------------|
|-------------------------------------------------------------------------|

|-------------------------------------------------------------------------|
|----------------------------------10-------------------------------------|
|-12b-10--12-10b--10---------------10-12-10-12h13p12p10-12-10--10---------|
|-------12------12--12-10b--0-12V~---------------------------12--12-12----|
|-------------------------12------------------------------------------10V~|
|-------------------------------------------------------------------------|

|-------------------------------------------------------------------------------|
|-------------------------------------------------------14-17-15-14-------------|
|-------------------12-15-14-12----------------12-14-15-------------15-14-14-15-|
|-12-14-15-12-14-15-------------15-14-12-14-15----------------------------------|
|-------------------------------------------------------------------------------|
|-------------------------------------------------------------------------------|

-----------------------------|
15-14-15-17-20-20-17-20b~~~~-|
-----------------------------|
-----------------------------|
-----------------------------|
-----------------------------|

|---------------------------------------------------------------------------|
|---------------------------------------------------------------------------|
|---------------------------------------------------------------------------|
|---------------------------------------------------------------------------|
|---------------------------------------------------------------------------|
|-0-0-0-0-0-0-0-0-0--0-0-0--0-0-0-0--7-7-7-7-7--7-7-7--7-7-7-7-7-7-7-7--3-3-|

|---------------------------------------------------------------------|
|---------------------------------------------------------------------|
|---------------------------------------------------------------------|
|---------------------------------------------------------------------|
|---------------------------------------------------------------------|
|-3-3-6-6-6-6-6--6-6-6--6-6-6-6--7-7-7-7--3--3-3-3--3-3-3-3-3--5-5-5-5|
^Also is rhythm under solo

|----------------------------------------------------|
|----------------------------------------------------|
|----14-13--------------14-13---------------14-13----|
|-12-------12-14-15--12-------12-14-15---12-------14-|
|----------------------------------------------------|
|----------------------------------------------------|
^repeat as necessary
                
|------------------------------------|
|------------------------------------|
|------------------------------------|
|------------------------------------|
|------------------------------------|
|--0------7-----3--3/6----7-3------5-|


2. Again We Rise

|--------------------------------------------------------------------------|
|----15-15---15-15----15-15----15-15----14-14----14-14---14-14---14-14-----|
|--------------------------------------------------------------------------|
|--------------------------------------------------------------------------|
|-17------17-------17-------17-------17-------17-------17------17----------|
|--------------------------------------------------------------------------|

|-------------------------------------|---------|
|-/17-17-17-17-17-17-18-18-18-18-18-18|---------|
|-------------------------------------|---------|
|-------------------------------------|-0~------|
|-------------------------------------|-0~------|                                
|-------------------------------------|-0~-0-0-0| repeat as necessary 
 
|---------------------------------------------|     
|---------------------------------------------|
|---------------------------------------------|
|---------------------------------------------|
|---------------------------------------------|
|-12-15-12-0-0-0-11-15-11-0-0-0-13-17-13-0-0-0|

|--------------------------|
|--------------------------|
|--------------------------|
|---7-5-4-----8-7----------|
|--------5-4-----5-6h9p6-10|
|-4------------------------|ending

|----------------------------------------------|
|----------------------------------------------|
|----------------------------------------------|
|----------------------------------------------|
|----------------13-12--------------13-12------|
|-0-0-0-0-0-0-12------0-0-0-0-0-0-11-----0-0-0-|

                                      
|--------------------------------|-----------------------------|
|--------------------------------|-----------------------------|
|--------------------------------|-----------------------------|
|--------------------------------|-----------------------------|
|----15-12-----------------13-12-|------------------3-----3----|
|-13--------0-0-0-0-0-0-12-------|0-0-0-6-0-6-0-3-6---6-3---6-2|end 1

|------------------------------|
|------------------------------|
|------------------------------|
|-9-9-9-9-9-9-9/-10-10-10-10-10|
|-5-5-5-5-5-5-5/--6--6--6--6--6|
|-5-5-5-5-5-5-5/--6--6--6--6--6|end 2

|--------------------------------------------------------|
|--------------------------------------------------------|
|--------------------------------------------------------|
|-/12-------------7*-8*--------------7*-8--7h8p7p5--5----|
|-/12--5-5-5-5-5-5-----5-5-5-5-5-5-5------5-------8--8-7-|
|--------------------------------------------------------|

|-----------------------------------------------------|
|-----------------------------------------------------|
|-----------------------------------------------------|
|-------------7*--8*------------7*--8-7h8p7p5---5-----|
|-4-4-4-4-4-4---4---4-4-4-4-4-4---4-----------8---8-7-|
|-----------------------------------------------------|



|----------------------------------------------------------------------|
|-------5h6p5--5-----------5---6-8b---8--6h8p6\5-6p5---5---------------|
|-7b-/7-------7-7-6--6-------7-----------------------7---7-6---6-7*b---|
|-------------------8---8-8----------------------------------8---------|
|----------------------------------------------------------------------|
|----------------------------------------------------------------------|

|-------------------------------------------|
|---------------5h6p5---5----------------8b-|
|--7\2----7-6-7-------7---7-6---6-----------|
|-----------------------------8---8-7-5-----|
|---------------------------------------8---|
|-------------------------------------------|

|-------------------------|
|-------------------------|
|--10V~--6-9V~------------|
|-7-----------8-5-8V~--7V~|
|-------------------------|
|-------------------------|

3.Redneck

|------------------------------------------------------------------------|
|------------------------------------------------------------------------|
|------------------------------------------------------------------------|
|--\---------------------------------------------------------------------|
|--\---------------------------------------------------------------------|
|--\-3p0-0-0---0-0-0-0—-10-12-10--0-0-3p0-0-0---0-0-0-0-3-1-0-3-1-0-5-6--|

|----------------------------------|
|----------------------------------|
|----------------------------------|
|----------------------------------|
|---------------0-3-0-----0-------0|
|-0-3-5-6-3-5-6-------6-5---6-5-3-0|

|-------------------------------------------------------------|
|-------------------------------------------------------------|
|-------------------------------------------------------------|
|-------------------------------------------------------------|
|-------------------------------------------------------------|
|---0-0-0-0---10-12-10*-0-0-3p0-0-0---0-0-0-0-3-1-0-3-1-0-5-6-|


|--------------------------------------------------|
|--------------------------------------------------|
|--------------------------------------------------|
|-------------------------------------------------5|
|-------------------------------------------------3|
|-3p0-0-0---0-0-0-0---10-12-10--3-0-5-3-0-3-7-6-5--|
                                
|--------------------------------------------------------------------|
|--------------------------------------------------------------------|
|--------------------------------------------------------------------|
|--------------------------------------------------------------------|
|--------------------------------------------------------------------|
|-3p0-0-0---0-0-0-0---10-12-10---0-0-7-6-0-6-5-0-5-3-0-3-5-6-0-3-5-6-|


|------------------|
|------------------|
|------------------|
|------------------|
|-3--------------0-|
|--7-6-5-7-6-5-3-0-|


|-----------------------------------------------------------|
|-----------------------------------------------------------|
|-----------------------------------------------------------|
|-----------------------------------------------------------|
|1-0-----------------------------------------------3--------|
|1-0--0-0-0—-0—-0--0--0-0-0-0-0—-0--0-0-0—-0—-0--0---0-1-3--|


|--------------------------------------------------|
|--------------------------------------------------|
|--------------------------------------------------|
|------------------------------------------------5-|
|-1-0--------------------------------------------3-|
|-1-0--0-0-0—-0—-0--0--0-0-0-0---0-0-0—-7--6--5----|

|---------------------------------------------------------------------|
|---------------------------------------------------------------------|
|---------------------------------------------------------------------|
|---------------------------------------------------------------------|
|---------------------------------------------------------------------|
|--0-7-6-0-7-6-0-0-1p0-0-0-0-0-0-0--0-7-6-0-7-6-0-6-5-0-6-5-3-6-3-5---|

|---------------------------------|
|---------------------------------|
|---------------------------------|
|---------------------------------|
|-5-----------6-----------6-------|
|---6-5-0-5-6---7-5-0-5-7---7-6-3-|

|---------------------------------------------------------------|
|---------------------------------------------------------------|
|---------------------------------------------------------------|
|---------------------------------------------------------------|
|-0-------------------------------------------------------------|
|-0--0-0-0-0---10-12-10*-0-0--3p0-0-0---0-0-0-0-3-1-0-3-1-0-5-6-|


|------------------------------------------------------|
|------------------------------------------------------|
|------------------------------------------------------|
|----------------------------------------------------5-|
|----------------------------------------------------3-|
|-3p0-0-0---0-0-0-0---10-12-10---0-0--3-0-0-3-7-6--5---|

|------------------------------------------------------------------------|
|------------------------------------------------------------------------|
|------------------------------------------------------------------------|
|------------------------------------------------------------------------|
|------------------------------------------------------------------------|
|-3p0-0-0---0-0-0-0---10-12-10---0-0--3p0-0-0---0-0-0-0-3-1-0-3-1-0-5-6--|

|---------------------------------------------------------------------|
|---------------------------------------------------------------------|
|---------------------------------------------------------------------|
|---------------------------------------------------------------------|
|---------------------------------------------------------------------|
|-3p0-0-0---0-0-0-0---10-12-10---0-0-7-6-0-6-5-0-5-3-0-3-5-6-0-3-5-6--|

|-------------------|
|-------------------|
|-------------------|
|-------------------|
|-3-0-----0--------0|
|-----6-5---6-5-3--0|

|--------------------------------|
|--------10-------12-----13------|
|--------12b14----14b16---15b17--|
|--------------------------------|
|--------------------------------|
|--------------------------------|

|----------------------------------------------|
|----------------------------------------------|
|----------------------------------------------|
|----------------------------------------------|
|-0--------11-13-------------------------------|
|-0--12-13-------12-13-10-13-11-13-10-13-11-14-|

|---------------------------------|
|---------------------------------|
|---------------------------------|
|---------------------------------|
|---------------------------------|
|-0-0-0-0-0-0-0-0-0-0-0-0-0-0-0-0-| this bar coincides w/ bar above



|------------------------------------------------------------------------|
|------------------------------------------------------------------------|
|------------------------------------------------------------------------|
|------------------------------------------------------------------------|
|------------------------------------------------------------------------|
|-3p0-0-0---0-0-0-0---10-12-10---0-0--3p0-0-0---0-0-0-0-3-1-0-3-1-0-5-6--|


|----------------------------------------------------------------------|
|----------------------------------------------------------------------|
|----------------------------------------------------------------------|
|----------------------------------------------------------------------|
|---------------------------------------------------0-3-0--------------|
|-3p0-0-0---0-0-0-0---10-12-10---0-0--0-3-5-6-3-5-6-------6-5-7-6-5-0--|


|-------------------------------------------------------17---|
|--------10-------12------13-------10------12----17b20--20b22|
|--------12b14----14b16---15b17----12b14---14b16-------------|
|------------------------------------------------------------|
|------------------------------------------------------------|
|------------------------------------------------------------|

4.Pathetic 

|---------------------------------------------------------------------|
|---------------------------------------------------------------------|
|---------------------------------------------------------------------|
|---------------------------------------------------------------------|
|---------------------------------------------------------------------|
|-0-0-0--0-0-0-17b-15-12-0-12-13~---0-0-0--0-0-0-17b-15-12-0-1-3-3-2-2|


|-----------------------------------------------------------------|
|-----------------------------------------------------------------|
|-----------------------------------------------------------------|
|-----------------------------------------------------------------|
|-----------------------------------------------------------------|
|-0-0-0--0-0-0-17b-15-12-0-12-13~--7-7-7-8-8-8-2-2-8-2-2-2-7-1-1-1|


|--------------------------------------------------------------------------|
|--------------------------------------------------------------------------|
|--------------------------------------------------------------------------|
|--------------------------------------------------------------------------|
|--------------------------------------------------------------------------|
|-0-0-0--0-0-0-17b-15-12-0-15-14~---0-0-0--0-0-0-17b-15-12-0-15-14-14-13-13|

|---------------------------------------------------------------------------|
|---------------------------------------------------------------------------|
|---------------------------------------------------------------------------|
|---------------------------------------------------------------------------|
|---------------------------------------------------------------------------|
|-0-0-0-0-0-0-17b-15-12-0-15-14-14-13-13-7-7-7-8-8-8-2-2-8-2-2-2-7-7-7-1-1-1|

Last time:
|---------------------|
|---------------------|
|---------------------|
|---------------------|
|---------------------|
|-7-7-7-8-8-8-2-2-2-1b|

|-----------------------------------------------------------|
|-----------------------------------------------------------|
|-----------------------------------------------------------|
|-----------------------------------------------------------|
|-----------------------------------------------------------|
|-0-0-0--0-0--0-0-0--0-0---0-0-0--0-0---0-0-4-3-0-0-7-6-3-6-|
   
|----------------------------------------------------------|
|----------------------------------------------------------|
|----------------------------------------------------------|
|----------------------------------------------------------|
|----------------------------------------------------------|
|-0--0--0--0--0-0-0--0-0---0-0-0--0-0--0-4-0-1-0-4-0-5-0-1-|
   


|-------------------------------------------------------------------------|
|-------------------------------------------------------------------------|
|-------------------------------------------------------------------------|
|-------------------------------------------------------------------------|
|-------------------------------------------------------------------------|
|-0-0-0-0--0-0-0-0--0-0-0-0--0-0--0-0-0-0-0--0-0-0-0-0-0-0-4*b-0-0-6b-3-6-|
   
|---------------------------------------------------------------------------|
|---------------------------------------------------------------------------|
|---------------------------------------------------------------------------|
|---------------------------------------------------------------------------|
|---------------------------------------------------------------------------|
|-0-0-0-0--0-0-0-0--0-0-0-0--0-0--0-0-0-0-0--0-0-0-0-0-0-0-4-0-1-0-4-0-5-0-1|
   
|------------------------------------------------------|
|------------------------------------------------------|
|------------------------------------------------------|
|------------------------------------------------------|
|------------------------------------------------------|
|-2--3--1--2--3-2-1--3-2-2-5-2-2-6-3-3-7-5-5-8-7-10/12-|

|----------------------------------------------------------------------|
|----------------------------------------------------------------------|
|----------------------------------------------------------------------|
|----------------------------------------------------------------------|
|----------------------------------------------------------------------|
|-2-2-2-3-3-3-1-1-1-2-2-2-3-2-1-1-1--3-2-2-5-2-2-6-3-3-7-5-5-8-7-10/12-|
   
|--------------------------------------------------------------------------|
|--------------------------------------------------------------------------|
|--------------------------------------------------------------------------|
|--------------------------------------------------------------------------|
|---8*\7---8*\7---7*\6---7*\6--------------------------------------------8-|
|-0------0------0------0------15-14-12-13--0-6-5-0-2-3-0-3-5-0-3-6-5-6-7---|
   .      .      .      .


|--------------------------------------------------------------------------|
|--------------------------------------------------------------------------|
|--------------------------------------------------------------------------|
|--------------------------------------------------------------------------|
|--------------------------------------------------------------------------|
|-0-15-14-0-15-14-0-18-17-0-18-17-15-14-12-13--0--0--0--0--0--0--0-0-0--0-0|

|-------------------------------------------------| 
|-15b-15bh~-15br-p12---12-------------------------| 
|-------------------15---15-14-12-15gb-r-p12------| 
|-------------------------------------------------| 
|-------------------------------------------14-13-| 
|-------------------------------------------------| 


|-----------------------------------------------------| 
|-----------------------------------------------------| 
|-----------------------------------------------------| 
|-----------------------------------------------5-----| 
|--14-15-14-12-14-12-10-12-10-9-10-9-7-9-7-5-7-----7~-| 
|-----------------------------------------------------| 
                                                


|15p12----12h15p12-15p12----12h15p12-15p12----12h15p12-15p12---12h15p12| 
|------15----------------15----------------15----------------15--------| 
|----------------------------------------------------------------------| 
|----------------------------------------------------------------------| 
|----------------------------------------------------------------------| 
|----------------------------------------------------------------------| 

|17p12----12h17p12-17p12----12h17p12-17p12----12h17p12-17p12---12h15h17| 
|------15----------------15----------------15----------------15--------| 
|----------------------------------------------------------------------| 
|----------------------------------------------------------------------| 
|----------------------------------------------------------------------| 
|----------------------------------------------------------------------| 


|-17p15p12-15p12----12---------------------------------------------------| 
|----------------15----15p12-15p12----12---------------------------------| 
|----------------------------------14----14p12-14p12----12---------------| 
|----------------------------------------------------14----14p12-14p12---| 
|----------------------------------------------------------------------14| 
|------------------------------------------------------------------------| 

|-----------------------------------------------------------|
|-----------------------------------------------------------|
|--------------------------------------12b-10--10-------10b~|
|-12------------------------5----------------12--12-10------|
|----14p12-14p12\10h12p10\7---7p5-6*~-----------------12----|
|-----------------------------------------------------------|

|------------------------------------------------------------------------| 
|------------------------------------------------------------------------| 
|-10\9-9-9-7-7-7-5-5/7-7/9-9/10-10\9-9/10-10/12-12/10-10/12-12-----------| 
|------------------------------------------------------------------------| 
|------------------------------------------------------------------------| 
|------------------------------------------------------------------------| 

|-17-------20gbf-20b-20b-20b-20br-b-20br-17----17---------------| 
|----20-17----------------------------------20----20-17-18-17~--| 
|---------------------------------------------------------------| 
|---------------------------------------------------------------| 
|---------------------------------------------------------------| 
|---------------------------------------------------------------|

|------------------------------------13-15-13--------20b~|
|---------------------13-15-13--13-15--------15/18-20----|
|------10-12-10--12-14--------14-------------------------|
|-10-12--------12----------------------------------------|
|--------------------------------------------------------|
|--------------------------------------------------------|

outro:
|------------------------------------------------------|
|------------------------------------------------------|
|------------------------------------------------------|
|------------------------------------------------------|
|------------------------------------------------------|
|-0-0-0--0--0-0-0--0--0-0-0--0-0-0--0--0-0-0--0--0-0-0-|

|-----------------------------------------------|
|-----------------------------------------------|
|-----------------------------------------------|
|-----------------------------------------------|
|-----------------------------------------------|
|0--0-0-0--0-0-0--0--0-0-0--0-5-3-1-0-1-3-3-2-2-|

5.Foot To The Throat (basically all from jerbaul's tab)

|------------------------------------------------------------------|
|------------------------------------------------------------------|
|------------------------------------------------------------------|
|--7\-----------------------------10\------------------------------|
|--5\-------------------------5-4--8\--------------6-------3-------|
|-----000-000-000-000-000-000---------000-000-000--6--000--3--000--|

|---------------------------------------------------------------------------|
|---------------------------------------------------------------------------|
|---------------------------------------------------------------------------|
|---7\----------------------------------------------------------------------|
|---5\--------------------------------9-------8-----------------------------|
|------000-000-000-000-000-000--12-11---11-10---9-6-7-6-9h10p9-7-9-7/4-6-3--|

|------------------------------------|
|------------------------------------|
|------------------------------------|
|-------------------------------8\5--|
|--2-2-2-2-2-2-2--2/3--3-3-3-3--6\3--|
|--2-2-2-2-2-2-2--2/3--3-3-3-3-------|


(1st Ending)
e|----------------------------------------------|
B|----------------------------------------------|
G|----------------------------------------------|
D|----------------------------------------------|
A|--------9-------8-----------------------------|
D|--12-11---11-10---9-6-7-6-9h10p9-7-9-7/4-6-3--|

(2nd Ending)
|-----------------------------------------------|
|-----------------------------------------------|
|-----------------------------------------------|
|------------------------------------------8----|
|--------9-------8--------------------10-9-6-5--|
|--12-11---11-10---9-6-7-6-9h10p9-7-9-10-9---0--|

|--------------------------------------------------------------------------------------|
|--------------------------------------------------------------------------------------|
|--------------------------------------------------------------------------------------|
|-------------4h5p4--------------------12----------------------------------------------|
|--5-5-5--3-5-------6--5-5-5-5--5/11-8-----4(/8)--10-12-12h13h12-9\--3-3--5-7-7h8p7-4--|
|--0-0-0---------------0-0-0-0-------------4(/8)---------------------3-3---------------|

|-----------------------------------------------------------------------|
|-----------------------------------------------------------------------|
|-----------------------------------------------------------------------|
|-------------4h5p4---------------------12------------------------------|
|--5-5-5--3-5-------6--5-5-5-5--5/11\8-----4(/8)--10-12-12h13h12-9--3-3-|
|--0-0-0---------------0-0-0-0-------------4(/8)--------------------3-3-|

|--------------|
|--------------|
|--------------|
|--------------|
|-5-7-7h8p7-4--|
|--------------|
                   
|-------------------------------------------------------------------|
|-------------------------------------------------------------------|
|-------------------------------------------------------------------|
|-------------------------------------------------------------------|
|--8-8-------------7-7-------------4-4-------------5-5-----3-3------|
|------0-0-0-0-0-0-----0-0-0-0-0-0-----0-0-0-0-0-0-----0-0-----0-0--|
 
 
(3rd Time)
|-------------------------------------------------------------------|
|--10-10-----------8-8-------------5-5-------------6-6--------------|
|--10-10-----------9-9-------------6-6-------------7-7--------------|
|-------------------------------------------------------------------|
|-------------------------------------------------------------------|
|-------------------------------------------------------------------|

|--------------------------------------|
|--------------------------------------|
|--------------------------------------|
|-----------------------------------0--|
|--8-8-------------7-7--------7-3-6-0--|
|------0-0-0-0-0-0-----0-0-0--7-3-6-0--|

 
|--------------------------------------|
|--10-10-----------8-8-----------------|
|--10-10-----------9-9-----------------|
|--------------------------------------|
|--------------------------------------|
|--------------------------------------|

|--------------------------------------------------------------------------------------|
|--------------------------------------------------------------------------------------|
|--------------------------------------------------------------------------------------|
|-------------4h5p4--------------------12----------------------------------------------|
|--5-5-5--3-5-------6--5-5-5-5--5/11-8-----4(/8)--10-12-12h13h12-9\--3-3--5-7-7h8p7-4--|
|--0-0-0---------------0-0-0-0-------------4(/8)---------------------3-3---------------|

|-----------------------------------------------------------------------|
|-----------------------------------------------------------------------|
|-----------------------------------------------------------------------|
|-------------4h5p4---------------------12------------------------------|
|--5-5-5--3-5-------6--5-5-5-5--5/11\8-----4(/8)--10-12-12h13h12-9--3-3-|
|--0-0-0---------------0-0-0-0-------------4(/8)--------------------3-3-|

|-------------|
|-------------|
|-------------|
|-------------|
|5-7-7h8p7-4--|
|-------------|

|--------------------------------------------------------------|
|--------------------------------------------------------------|
|--------------------------------------------------------------|
|---------------------------------------------12------------0--|
|--3-3--4-5-7h8p7--8-8--10-12-12h13h12-10--10----10-11\3-2--0--|
|--3-3-------------8-8---------------------10----10-11\3-2--0--|
     
|---------------|
|---------------|
|---------------|
|----6-6h7p6----|
|--8---------8--|
|---------------|
 
|------------------------------------------------------------|
|------------------------------------------------------------|
|------------------------------------------------------------|
|------6-6h7p6--------6-6h7p6--------6-6h7p6-----------------|
|----8---------8----8---------8----8---------8---------------|
|------------------------------------------------------------|
      
|------------------------------------------------------------|
|------------------------------------------------------------|
|------------------------------------------------------------|
|-------------------------------------------------3-2-----3--|
|--0--------------0--------------0--------------1-----4-5----|
|--0--------------0--------------0---------------------------|
    
|------------------------------------------------------------|
|------------------------------------------------------------|
|------------------------------------------------------------|
|------6-6h7p6--------6-6h7p6--------6-6h7p6-----------------|
|----8---------8----8---------8----8---------8---------------|
|------------------------------------------------------------|
          
|------------------------------------------------------------|
|------------------------------------------------------------|
|------------------------------------------------------------|
|--0--------------0-------------------------------3-2-----3--|
|--0--------------0--------------0--------------1-----4-5----|
|--0--------------0--------------0---------------------------|
                                  .
|---------------------------------------------------------|
|---------------------------------------------------------|
|---------------------------------------------------------|
|------6-6h7p6--------6-6h7p6-----------------------------|
|----8---------8----8---------8---------------------------|
|---------------------------------------------------------|


|--------------------------------------------------------|
|---------------------------------------------------------|
|---------------------------------------------------------|
|---------------------------------------------------------|
|--0--------------0---------------------------------------|
|--0--------------0--------------3-2-4-3-2-3-7-6-4-7-6-3--|
    
|--------------------------------------------------|
|--------------------------------------------------|
|--------------------------------------------------|
|---------------------------------------3-2-----3--|
|-------------------------------------1-----4-5----|
|--0--0-0-0-0-0-0-0--000--0-0-0-0-0-0--------------|
      
|-----------------------------------------------------------------------|
|-----------------------------------------------------------------------|
|-----------------------------------------------------------------------|
|------6-6h7p6--------6-6h7p6--------6-6h7p6----------------------------|
|----8---------8----8---------8----8---------8--------------------------|
|-----------------------------------------------------------------------|
            
|-----------------------------------------------------------------------|
|-----------------------------------------------------------------------|
|-----------------------------------------------------------------------|
|-------------------------------------------------3-2-----3-------------|
|--0--------------0--------------0--------------1-----4-5----0----X\\\--|
|--0--------------0--------------0---------------------------0----X\\\--|
  
|---------------------------|
|---------------------------|
|---------------------------|
|---------------------------|
|---------------------------|
|--3-2-4-3-2-3-7-6-4-7-6-3--|

|+ Sharpen Wah
|- Broaden Wah

  (start from broadest wah then sharpen gradually)
    + + + + + + + +  +++  + + + + + + + + + + + +
|-------------------------------------------------|
|-------------------------------------------------|
|-------------------------------------------------|
|--------------------------------------3-2-----3--|
|------------------------------------1-----4-5----|
|--0-0-0-0-0-0-0-0--000--0-0-0-0-0-0--------------|
    . . . . . . . .  ...  . . . . . .

   +  + + + + + + +  +++  + + + + + + + + + + + +
|--------------------------------------------------|
|--------------------------------------------------|
|--------------------------------------------------|
|---------------------------------------3-2-----3--|
|-------------------------------------1-----4-5----|
|--0--0-0-0-0-0-0-0--000--0-0-0-0-0-0--------------|
     

    +  + + + + + + +  +++  + + + + + + + + + + + +
|--------------------------------------------------|
|--------------------------------------------------|
|--------------------------------------------------|
|---------------------------------------3-2-----3--|
|-------------------------------------1-----4-5----|
|--0--0-0-0-0-0-0-0--000--0-0-0-0-0-0--------------|
       . . . . . . .  ...  . . . . . .

([+]sharpest point of wah, now begin to broaden wah)
  +  + + + + + + +  +++  + + +  + +[+]- - - - - - - - -
|---------------------------------------------------------|
|---------------------------------------------------------|
|---------------------------------------------------------|
|---------------------------------------------------------|
|---------------------------------------------------------|
|--0--0-0-0-0-0-0-0--000--0-0-0--3-2-4-3-2-3-7-6-4-7-6-3--|
       . . . . . . .  ...  . . .

|--------------------------------------------------------------|
|--------------------------------------------------------------|
|--------------------------------------------------------------|
|--------------------------------------------------------------|
|--5~-------------8~-------------7~-------------4~-------------|
|--------------------------------------------------------------|
                                                               |
|--------------------------------------------------------------|
|--------------------------------------------------------------|
|--------------------------------------------------------------|
|------6-6h7p6-------------------------------------------------|
|----8---------8-------------------4-7-7h8p7-8----1-4-4h5p4-5--|
|--0--------------0-3-6-6h7p6-3--0--------------0--------------|
    . . .          . . .          . . .          . . .

|--------------------------------------------------------------|
|--------------------------------------------------------------|
|-----------------------------------------------6~-------------|
|--------------------------------------------------------------|
|--5~-------------8~-------------7~----------------------------|
|--------------------------------------------------------------|
                                                               |
|--------------------------------------------------------------|
|--------------------------------------------------------------|
|--------------------------------------------------------------|
|------6-6h7p6-------------------------------------------------|
|----8---------8-------------------4-7-7h8p7-8----1-4-4h5p4-5--|
|--0--------------0-3-6-6h7p6-3--0--------------0--------------|
    . . .          . . .          . . .          . . .

|--------------------------------------------------------------|
|-----------------------------------------------14~------------|
|--7~-------------10~-----------9~-----------------------------|
|--------------------------------------------------------------|
|--------------------------------------------------------------|
|--------------------------------------------------------------|
                                                          
|--------------------------------------------------------------|
|--------------------------------------------------------------|
|--------------------------------------------------------------|
|------6-6h7p6-------------------------------------------------|
|----8---------8-------------------4-7-7h8p7-8----1-4-4h5p4-5--|
|--0--------------0-3-6-6h7p6-3--0--------------0--------------|
    . . .          . . .          . . .          . . .

|--------------------------------------------------------------|
|--15b--(hold-bend)-------------------------------(hold bend)--|
|--------------------------------------------------------------|
|--------------------------------------------------------------|
|--------------------------------------------------------------|
|--------------------------------------------------------------|
                                                               |
|--------------------------------------------------------------|
|--------------------------------------------------------------|
|--------------------------------------------------------------|
|------6-6h7p6-------------------------------------------------|
|----8---------8-------------------4-7-7h8p7-8----1-4-4h5p4-5--|
|--0--------------0-3-6-6h7p6-3--0--------------0--------------|
   

|------------------------|
|--15~-------------------|
|------------------------|
|------------------------|
|------------------------|
|------------------------|
 
|------------------------|
|------------------------|
|------------------------|
|--0----------(0)--X\\\--|
|--0----------(0)--X\\\--|
|--0----------(0)--------|

|-------------------------------------|
|-------------------------------------|
|-------------------------------------|
|--7\-------------------------7-6--0--|
|--5\-------------------------5-4--0--|
|-----000-000-000-000-000-000------0--|
     
6.Descending

|--------------------------------------------------------------------|
|--------------------------------------------------------------------|
|--------------------------------------------------------------------|
|--------------------------------------------------------------------|
|-13-----------12-13-----------12-13-----------12-13-----------13-12-|
|----12-0-12-0-------12-0-12-0-------12-0-12-0-------12-0-12-0-------|
                                                                      ]
|--------------------------------------------------------------------|
|--------------------------------------------------------------------|
|--------------------------------------------------------------------|
|--------------------------------------------------------------------|
|--------------12------------12------------12------------------------|
|---12-0-12-0-----12-0-12-0-----12-0-12-0-----12-0-12-0--------------|2x

|--------------------------------------------------------------------|
|--------------------------------------------------------------------|
|--------------------------------------------------------------------|
|--------------------------------------------------------------------|
|-13-----------12-13-----------12-13-----------12-13-----------13-12-|
|----12-0-12-0-------12-0-12-0-------12-0-12-0-------12-0-12-0-------|
                                                                      ]
|--------------------------------------------------------------------|
|--------------------------------------------------------------------|
|--------------------------------------------------------------------|
|--------------------------------------------------------------------|
|------------12-------------12-------------12------------------------|
|-12-0-12-0------12-0-12-0------12-0-12-0------12-0-12-0-------------|2x

|--------------------------------------------------------------------|
|--------------------------------------------------------------------|
|--------------------------------------------------------------------|
|-888888\77777\55555\3333\1------------------------------------------|
|-888888\77777\55555\3333\1---------------------------1--------------|
|-888888\77777\55555\3333\1--0-0-35-0-0-36-1-0-35-0-0-1-0------------|



Palm muted...
|--------------------------------------------------------------------|
|--------------------------------------------------------------------|
|--------------------------------------------------------------------|
|--------------------------------------------------------------------|
|-13-----------12-13-----------12-13-----------12-13-----------13-12-|
|----12-0-12-0-------12-0-12-0-------12-0-12-0-------12-0-12-0-------|

|--------------------------------------------------------------------|
|--------------------------------------------------------------------|
|--------------------------------------------------------------------|
|--------------------------------------------------------------------|
|------------12-------------12-------------12------------------------|
|-12-0-12-0------12-0-12-0------12-0-12-0------12-0-12-0-------------|4x

while guitar 2 plays..(joins in on the 3rd time)
                                         (let ring in to next part)
|--------------------------------------------------------------------|
|--2/333333/555555/66666--5-6-8-6h8p6-5-6-5-2-3-333333333333~--------|
|--------------------------------------------------------------------|
|--------------------------------------------------------------------|
|--------------------------------------------------------------------|
|--------------------------------------------------------------------|2x

|-----------------------------------------------------------------|
|-----------------------------------------------------------------|
|-----------------------------------------------------------------|
|-888888\77777\55555\33333\1--------------------------------------|
|-888888\77777\55555\33333\1---------------------------1----------|
|-888888\77777\55555\33333\1--0-0-35-0-0-36-1-0-35-0-0-1-0--------|

|--------------------------------|
|--------------------------------|
|--------------------------------|
|-888888\77777\55555\3333\1------|
|-888888\77777\55555\3333\1------|
|-888888\77777\55555\3333\1------|

|--------------------------------------------------------------------|
|--------------------------------------------------------------------|
|--------------------------------------------------------------------|
|--------------------------------------------------------------------|
|-13-----------12-13-----------12-13-----------12-13-----------13-12-|
|----12-0-12-0-------12-0-12-0-------12-0-12-0-------12-0-12-0-------|

|--------------------------------------------------------------------|
|--------------------------------------------------------------------|
|--------------------------------------------------------------------|
|--------------------------------------------------------------------|
|------------12-------------12-------------12------------------------|
|-12-0-12-0------12-0-12-0------12-0-12-0------12-0-12-0-------------|2x

Palm muted...
|--------------------------------------------------------------------|
|--------------------------------------------------------------------|
|--------------------------------------------------------------------|
|--------------------------------------------------------------------|
|-13-----------12-13-----------12-13-----------12-13-----------13-12-|
|----12-0-12-0-------12-0-12-0-------12-0-12-0-------12-0-12-0-------|

|--------------------------------------------------------------------|
|--------------------------------------------------------------------|
|--------------------------------------------------------------------|
|--------------------------------------------------------------------|
|------------12-------------12-------------12------------------------|
|--12-0-12-0-----12-0-12-0------12-0-12-0------12-0-12-0-------------|4x


while guitar 2 plays..(joins in on the 3rd time)
                                         (let ring in to next part)
|--------------------------------------------------------------------|
|--2/3333/5555/66--5-6-8-6h8p6-5h6p5-2/3-333-3h5p3-3h5p3-------------|
|--------------------------------------------------------------------|
|--------------------------------------------------------------------|
|--------------------------------------------------------------------|
|--------------------------------------------------------------------|2x

|----------------------------------------------------------------|
|----------------------------------------------------------------|
|----------------------------------------------------------------|
|-888888\77777\55555\3333\1--------------------------------------|
|-888888\77777\55555\3333\1---------------------------1----------|
|-888888\77777\55555\3333\1--0-0-35-0-0-36-1-0-35-0-0-1-0--------|

|-----------------------------------------------------------------|
|-----------------------------------------------------------------|
|-----------------------------------------------------------------|
|-888888\77777\55555\3333\1---------------------------------------|
|-888888\77777\55555\3333\1---------------------------------------|
|-888888\77777\55555\3333\1---------------------------------------|

|--------------------------------------------------------------------|
|--------------------------------------------------------------------|
|--------------------------------------------------------------------|
|-7----7h8p7----7h8--------------------------------------------------|
|-7----7h8p7----7h8--------------------------------------------------|
|-7-77-7h8p7-77-7h8-10-8h10p8-8-7-5-7-5-3-5-8------------------------|2x
    pm       pm
|--------------------------------------------------------------------|
|--------------------------------------------------------------------|
|--------------------------------------------------------------------|
|-0----10h12-0----10h12----------------------------------------------|
|-0----10h12-0----10h12----------------------------------------------|
|-0-00-10h12-0-00-10h12-16-13h16p13-13-12-13-16-17-16-10-12----------|2x
    pm         pm   

|-----------------------------------------------------------------|
|-----------------------------------------------------------------|
|-----------------------------------------------------------------|
|-888888\77777\55555\3333\1---------------------------------------|
|-888888\77777\55555\3333\1---------------------------1-----------|
|-888888\77777\55555\3333\1--0-0-35-0-0-36-1-0-35-0-0-1-0---------|

|-----------------------------------------------------------------|
|-----------------------------------------------------------------|
|-----------------------------------------------------------------|
|-888888\77777\55555\3333\1---------------------------------------|
|-888888\77777\55555\3333\1---------------------------------------|
|-888888\77777\55555\3333\1---------------------------------------|

|--------------------------------------------------------------------|
|--------------------------------------------------------------------|
|--------------------------------------------------------------------|
|--------------------------------------------------------------------|
|--------------------------------------------------------------------|
|-88888888877777777555555533333331-0---------------------------------|

|--------------------------------------------------------------------|
|--------------------------------------------------------------------|
|--------------------------------------------------------------------|
|--------------------------------------------------------------------|
|-12-----------12-----------12------------12-----------13------------|
|----12-0-12-0----12-0-12-0-----12-0-12-0----12-0-12-0----12-0-12-0--|

|--------------------------------------------------------------------|
|--------------------------------------------------------------------|
|--------------------------------------------------------------------|
|--------------------------------------------------------------------|
|-12-13-----------12-13-----------12-13-----------13-12--------------|
|-------12-0-12-0-------12-0-12-0-------12-0-12-0-------12-0-12-0----|

|--------------------------------------------------------------------|
|--------------------------------------------------------------------|
|--------------------------------------------------------------------|
|--------------------------------------------------------------------|
|-12-----------12-----------12---------------------------------------|
|----12-0-12-0----12-0-12-0----12-0-12-0-----------------------------|

then guitar 2 comes in with the part below...
|--------------------------------------------------------------------|
|--------------------------------------------------------------------|
|--------------------------------------------------------------------|
|--------------------------------------------------------------------|
|-13-----------12-13-----------12-13-----------12-13-----------13-12-|
|----12-0-12-0-------12-0-12-0-------12-0-12-0-------12-0-12-0-------|
                                                                      ]2x
|--------------------------------------------------------------------|
|--------------------------------------------------------------------|
|--------------------------------------------------------------------|
|--------------------------------------------------------------------|
|-------------12-------------12-------------12-----------------------|
|--12-0-12-0------12-0-12-0------12-0-12-0------12-0-12-0------------|

guitar 2
|--------------------------------------------------------------------|
|--2/3333/5555/66--5-6-8-6h8p6-5h6p5-2/3-333-3h5p3-3h5p3-------------|
|--------------------------------------------------------------------|
|--------------------------------------------------------------------|
|--------------------------------------------------------------------|
|--------------------------------------------------------------------|2x

(Slight pinch harmonics on part below)
|--------------------------------------------------------------------|
|--------------------------------------------------------------------|
|--------------------------------------------------------------------|
|--------------------------------------------------------------------|
|-------------12*-----------12*------------12*------------12*--------|
|--12-0-12-0-----12-0-12-0------12-0-12-0------12-0-12-0-----12-0-12-|2x

end on..
|-------|
|-------|
|-------|
|0~-----|
|0~-----|
|0~-----|

7.Blacken The Cursed Sun

|-------------------------------------------------------------------------|
|-------------------------------------------------------------------------|
|-------------------------------------------------------------------------|
|-------------------------------------------------------------------------|
|-------------------------------------------------------------------------|
|-11/12-12-12-12-12-12-12-12-12-12-12-12/15-15-15-15-15-15-15-15-15-15-15-|

|-------------------------------------------------------------------|
|-------------------------------------------------------------------|
|-------------------------------------------------------------------|
|-------------------------------------------------------------------|
|-------------------------------------------------------------------|
|-15\14-14-14-14-14-14-14-14-14-14-14-14\8-8-8-8-8-8/11-11-11-11-11-|


|-------------------------------------------------------------------------|
|-------------------------------------------------------------------------|
|-------------------------------------------------------------------------|
|-------------------------------------------------------------------------|
|-------------------------------------------------------------------------|
|-11/12-12-12-12-12-12-12-12-12-12-12-12/15-15-15-15-15-15-15-15-15-15-15-|

|-------------------------------------------------------------------------|
|-------------------------------------------------------------------------|
|-------------------------------------------------------------------------|
|-------------------------------------------------------------------------|
|-------------------------------------------------------------------------|
|-15\14-14-14-14-14-14-14-14-14-14-14-14\10-10-10-10-10-10/13-13-13-13-13-|

|--------------------------|
|--------------------------|
|--------------------------|
|--------------------------|
|--------------------------|
|-8-7-5-7-5-4-5-4-1-3-1-4--|

|---------------------------------------------------------------------------|
|---------------------------------------------------------------------------|
|---------------------------------------------------------------------------|
|---------------------------------------------------------------------------|
|-4/5-5-5-5-5-5-5-5-5/8-8-8-8-8-8-8-8-8\7-7-7-7-7-7-7-7-7\1-1-1-1-1/4-4-4-4-|
|-0-0-0-0-0-0-0-0-0-0-0-0-0-0-0-0-0-0-0-0-0-0-0-0-0-0-0-0-0-0-0-0-0-0-0-0-0-|

|---------------------------------------------------------------------------|
|---------------------------------------------------------------------------|
|---------------------------------------------------------------------------|
|---------------------------------------------------------------------------|
|-4/5-5-5-5-5-5-5-5-5/8-8-8-8-8-8-8-8-8\7-7-7-7-7-7-7-7-7\3-3-3-3-3/6-6-6-6-|
|-0-0-0-0-0-0-0-0-0-0-0-0-0-0-0-0-0-0-0-0-0-0-0-0-0-0-0-0-0-0-0-0-0-0-0-0-0-|

|--------------------------------------------------------------------|
|--------------------------------------------------------------------|
|--------------------------------------------------------------------|
|7-7-7-7-7-7-7-7-7-7/12-12-12-12-12-12-12-12\11-11-11-11-11-11-11-11\|
|4/5-5-5-5-5-5-5-5-5/8--8--8--8--8--8--8--8-\7--7--7--7--7--7--7--7-\|
|0-0-0-0-0-0-0-0-0-0-0--0--0--0--0--0--0--0--0--0--0--0--0--0--0--0--|

|--------------------|
|--------------------|
|--------------------|
|\4-4-4-4-4/8-8-8-8-8|
|\1-1-1-1-1/4-4-4-4-4|
|--------------------|


|--------------------------------------------------------------------|
|--------------------------------------------------------------------|
|--------------------------------------------------------------------|
|7-7-7-7-7-7-7-7-7-7/12-12-12-12-12-12-12-12\11-11-11-11-11-11-11-11\|
|4/5-5-5-5-5-5-5-5-5/8--8--8--8--8--8--8--8-\7--7--7--7--7--7--7--7-\|
|0-0-0-0-0-0-0-0-0-0-0--0--0--0--0--0--0--0--0--0--0--0--0--0--0--0--|

|--------------------------|
|--------------------------|
|--------------------------|
|--------------------------|
|--------------------------|
|-8-7-5-7-5-4-5-4-1-3-1-4--|

|-------------------------------------------------------------------------|
|-------------------------------------------------------------------------|
|-------------------------------------------------------------------------|
|-------------------------------------------------------------------------|
|-------------------------------------------------3-3-3-3-3-3-2-2-2-2-2-2-|
|-3p0-0-0-0-0-0-0-0-0-1-4-3/6-6-6-6-6-6-6-6-6-6-6-1-1-1-1-1-1-1-1-1-1-1-1-|

|--------------------------------------------------------------------------|
|--------------------------------------------------------------------------|
|--------------------------------------------------------------------------|
|--------------------------------------------------------------------------|
|---------------------------------------------------6-6-6-6-6-6-5-5-5-5-5-5|
|-3p0-0-0-0-0-0-0-0-0-1-4-3/7-7-7-7-7-7-4/6-6-6-6-6-4-4-4-4-4-4-4-4-4-4-4-4|

Last time:
|----------------------------------------|
|----------------------------------------|
|----------------------------------------|
|----------------------------------------|
|-6-6-6-6-6-5-5-5-5-5-3-3-3-3-3-2-2-2-2-2|
|-4-4-4-4-4-4-4-4-4-4-1-1-1-1-1-1-1-1-1-1|

|--------------------------------------------------------------------|
|--------------------------------------------------------------------|
|--------------------------------------------------------------------|
|-7-7-7-7-7-7-7-7-7-7-7-7-7-7-7-7-0-0-0-0-0-0-0-0--------------------|
|-5-5-5-5-5-5-5-5-5-5-5-5-5-5-5-5-0-0-0-0-0-0-0-0--4/5--8\7--7\1--1/4|
|-4-4-4-4-4-4-4-4-3-3-3-3-3-3-3-3-0-0-0-0-0-0-0-0-0---0----0----0----|


|---------------------------------------------------------------------------|
|---------------------------------------------------------------------------|
|---------------------------------------------------------------------------|
|---------------------------------------------------------------------------|
|-4/5-5-5-5-5-5-5-5-5/8-8-8-8-8-8-8-8-8\7-7-7-7-7-7-7-7-7\1-1-1-1-1/4-4-4-4-|
|-0-0-0-0-0-0-0-0-0-0-0-0-0-0-0-0-0-0-0-0-0-0-0-0-0-0-0-0-0-0-0-0-0-0-0-0-0-|

|---------------------------------------------------------|
|---------------------------------------------------------|
|---------------------------------------------------------|
|---------------------------------------------------------|
|-4/5-5-5-5-5-5-5-5-5/8-8-8-8-8-8-8-8-8\7-7-7-7-7-7-7-7-7-|
|-0-0-0-0-0-0-0-0-0-0-0-0-0-0-0-0-0-0-0-0-0-0-0-0-0-0-0-0-|

|--------------------------|
|--------------------------|
|--------------------------|
|--------------------------|
|--------------------------|
|-8-7-5-7-5-4-5-4-1-3-1-4--|

|-------------------------------------------------------------------------|
|-------------------------------------------------------------------------|
|-------------------------------------------------------------------------|
|-------------------------------------------------------------------------|
|-------------------------------------------------3-3-3-3-3-3-2-2-2-2-2-2-|
|-3p0-0-0-0-0-0-0-0-0-1-4-3/6-6-6-6-6-6-6-6-6-6-6-1-1-1-1-1-1-1-1-1-1-1-1-|


|--------------------------------------------------------------------------|
|--------------------------------------------------------------------------|
|--------------------------------------------------------------------------|
|--------------------------------------------------------------------------|
|---------------------------------------------------6-6-6-6-6-6-5-5-5-5-5-5|
|-3p0-0-0-0-0-0-0-0-0-1-4-3/7-7-7-7-7-7-4/6-6-6-6-6-4-4-4-4-4-4-4-4-4-4-4-4|

|--------------------------------------------------------------------|
|--------------------------------------------------------------------|
|--------------------------------------------------------------------|
|-7-7-7-7-7-7-7-7-7-7-7-7-7-7-7-7-0-0-0-0-0-0-0-0--------------------|
|-5-5-5-5-5-5-5-5-5-5-5-5-5-5-5-5-0-0-0-0-0-0-0-0--4/5--8\7--7\1--1/4|
|-4-4-4-4-4-4-4-4-3-3-3-3-3-3-3-3-0-0-0-0-0-0-0-0-0---0----0----0----|

|-------------------------------------|
|-------------------------------------|
|-------------------------------------|
|-------------------------------------|
|-------------------------------------|
|-0-0--0-0-0-0--0-0--0-0--0-0-0-0--0-0|

|--------------------------------------------------------------------|
|--------------------------------------------------------------------|
|--------------------------------------------------------------------|
|-7-7-7-7-7-7-7-7-7-7-7-7-7-7-7-7-0-0-0-0-0-0-0-0--------------------|
|-5-5-5-5-5-5-5-5-5-5-5-5-5-5-5-5-0-0-0-0-0-0-0-0--4/5--8\7--7\1--1/4|
|-4-4-4-4-4-4-4-4-3-3-3-3-3-3-3-3-0-0-0-0-0-0-0-0-0---0----0----0----|


|---------------------------------------------------------------------------|
|---------------------------------------------------------------------------|
|---------------------------------------------------------------------------|
|---------------------------------------------------------------------------|
|-4/5-5-5-5-5-5-5-5-5/8-8-8-8-8-8-8-8-8\7-7-7-7-7-7-7-7-7\1-1-1-1-1/4-4-4-4-|
|-0-0-0-0-0-0-0-0-0-0-0-0-0-0-0-0-0-0-0-0-0-0-0-0-0-0-0-0-0-0-0-0-0-0-0-0-0-|

|---------------------------------------------------------------------------|
|---------------------------------------------------------------------------|
|---------------------------------------------------------------------------|
|---------------------------------------------------------------------------|
|-4/5-5-5-5-5-5-5-5-5/8-8-8-8-8-8-8-8-8\7-7-7-7-7-7-7-7-7\3-3-3-3-3/6-6-6-6-|
|-0-0-0-0-0-0-0-0-0-0-0-0-0-0-0-0-0-0-0-0-0-0-0-0-0-0-0-0-0-0-0-0-0-0-0-0-0-|

|--------------------------------------------------------------------|
|--------------------------------------------------------------------|
|--------------------------------------------------------------------|
|7-7-7-7-7-7-7-7-7-7/12-12-12-12-12-12-12-12\11-11-11-11-11-11-11-11\|
|4/5-5-5-5-5-5-5-5-5/8--8--8--8--8--8--8--8-\7--7--7--7--7--7--7--7-\|
|0-0-0-0-0-0-0-0-0-0-0--0--0--0--0--0--0--0--0--0--0--0--0--0--0--0--|

|--------------------|
|--------------------|
|--------------------|
|\4-4-4-4-4/8-8-8-8-8|
|\1-1-1-1-1/4-4-4-4-4|
|--------------------|

|--------------------------------------------------------------------|
|--------------------------------------------------------------------|
|--------------------------------------------------------------------|
|7-7-7-7-7-7-7-7-7-7/12-12-12-12-12-12-12-12\11-11-11-11-11-11-11-11\|
|4/5-5-5-5-5-5-5-5-5/8--8--8--8--8--8--8--8-\7--7--7--7--7--7--7--7-\|
|0-0-0-0-0-0-0-0-0-0-0--0--0--0--0--0--0--0--0--0--0--0--0--0--0--0--|

|--------------------------|------------------------|---------------------|
|--------------------------|------------------------|---------------------|
|--------------------------|------------------------|1h2p1-1--------------|
|--------------------------|------------------------|-----3-2-3-2h3p2--2--|
|--------------------------|------------------------|----------------4---6|
|-0-0-0-0--0-0-0-0-0-0-0-0-|-8-7-5-7-5-4-5-4-1-3-1-4|-------------------5-|
Listen for timing and order^^^^^^^^^^^^^^^^^^^^^^^^^^^^^^

|----------------------------------------------------------------|
|----------------------------------------------------------------|
|----------------------------------------------------------------|
|----------------------------------------------------------------|
|---5--------------------5--------------------9------------------|
|0-4--4-4-4-4-4-4/7-7-0-3--3-3-3-3-3-3/7-7-0-7--0-0-0-0-0-0-0-0-0|

|-----------------------|
|-----------------------|
|7----------------------|
|-8-7-6-5-7-6-5-7-8-7-6-|
|-----------------------|
|-----------------------|

|------------------------------------|
|------------------------------------|
|------------------------------------|
|------------------------------------|
|------------------------------------|
|0-0--0-0-0-0--0-0--0-0--0-0-0-0--0-0|

|-----------------------------------------------------------|
|-----------------------------------------------------------|
|-----------------------------------------------------------|
|-----------------------------------------------------------|
|------------------------------------------0-0-0-0-0-0-0-0-0|
|-4-4-4-4-4-4-4-4-4h7p3-3-3-3-3-3-3-3-3h7p-0-0-0-0-0-0-0-0-0|

|-----------------------|
|-----------------------|
|-----------------------|
|-----------------------|
|-5---------------------|
|--8-7-6-5-7-6-5-7-8-7-6|

|---------------------------------------|
|---------------------------------------|
|---------------------------------------|
|---------------------------------------|
|----------------5----------------------|
|-4~--7--3~--7-0~--8-7-6-5-7-6-5-7-8-7-6| listen for repeats and order...

|------------------------------------|
|------------------------------------|
|------------------------------------|
|------------------------------------|
|------------------------------------|
|0-0--0-0-0-0--0-0--0-0--0-0-0-0--0-0| end on

8.Forgotten (Lost Angels)-(mostly mustaine1218's work, my solo)

|--------------------------------------------|
|--------------------------------------------|
|--------------------------------------------|
|--------------------------------------------|
|---13-------13-12-----12\8---8\7---7---7\6--|
|-0----15-12-------15-------11-----7----7\6--|
                                                                              
|--------------------------------------------|
|--------------------------------------------|
|--------------------------------------------|
|--------------------------------------------|
|---13-------13-12--12------------------7-2--|
|-0----15-12------15--6/7\6--3-6-6/7\6--7-2--|
                                                   
|--------------------------------------------|
|--------------------------------------------|
|--------------------------------------------|
|--------------------------------------------|
|---13-------13-12-----12\8---8\7---7---7\6--|
|-0----15-12-------15-------11-----7----7\6--|

|--------------------------------------------|
|--------------------------------------------|
|--------------------------------------------|
|-------------------------------------------6|
|---13-------13-12-----12\8b9r8-5-7-7/8\7-5-4|play first 4 bars in sequence
|-0----15-12-------15------------------------|2x

|---------------------------------------------------------------------------|
|---------------------------------------------------------------------------|
|---------------------------------------------------------------------------|
|-------7-7-----6-6----10-10------------10-10-------------9-9------------10-|
|-------5-5-----4-4-----8--8-------------8--8-------------7-7-------------8-|
|-0-0-0-----0-0-----0-0------0-0-0-0-0-0------0-0-0-0-0-0-----0-0-0-0-0-0---|
                                                                              

|-----------------------------|
|-----------------------------|
|-----------------------------|
|-10-----13-13-----7--7----8--|
|--8-----11-11-----5--5----6--|
|----0-0-------0-0------------|
                                                      
|------------------------------------------|
|------------------------------------------|
|------------------------------------------|
|------------------------------------------|
|---13-------13-12----12\8---8\7---7---7\6-|
|-0----15-12-------15-------11-----7---7\6-|

|--------------------------------------------|
|--------------------------------------------|
|--------------------------------------------|
|--------------------------------------------|
|---13-------13-12--12------------------7-2--|
|-0----15-12------15--6/7\6--3-6-6/7\6--7-2--|

|---------------------------------------------------------|
|---------------------------------------------------------|
|---------------------------------------------------------|
|---------------------------------------------------------|
|---13-------13-12----12\8---8\7---7---7\6--------------4-|
|-0----15-12-------15------11-----7----7\6-6/7\6-3-6-7-3-7|

|-----------------------------------------------------------|
|-----------------------------------------------------------|
|-----------------------------------------------------------|
|-0------------7------------7-7-------------7-7--13-13-13-13|
|-0------------5------------5-5-------------5-5--11-11-11-11|
|-0--6-5-0-3/4--0-0-0-0-0-0-----0-0-0-0-0-0-----------------|

|----------------------------------------------|
|----------------------------------------------|
|----------------------------------------------|
|----------------------------------------------|
|----------2-1-1-2-1-2-1--------2-1-1-3-2-2-4-3|
|-2b3r2-3-2---2-2---2----3-2-3-2---2-2---3-3---|2x

|------------|
|------------|
|------------|
|------------|
|-6-5-4-3-2-1|
|-6-5-4-3-2-1|

|--------------------------------------------|
|--------------------------------------------|
|--------------------------------------------|
|--------------------------------------------|
|---13-------13-12-----12\8---8\7---7---7\6--|
|-0----15-12-------15-------11-----7----7\6--|
                                                                              

|--------------------------------------------|
|--------------------------------------------|
|--------------------------------------------|
|--------------------------------------------|
|---13-------13-12--12------------------7-2--|
|-0----15-12------15--6/7\6--3-6-6/7\6--7-2--|

|--------------------------------------------|
|--------------------------------------------|
|--------------------------------------------|
|--------------------------------------------|
|---13-------13-12-----12\8---8\7---7---7\6--|
|-0----15-12-------15-------11-----7----7\6--|

|--------------------------------------------|
|--------------------------------------------|
|--------------------------------------------|
|--------------------------------------------|
|---13-------13-12----12-----------------5-4-|
|-0----15-12-------15----7b8r7-5-7-7b8r7-5-4-|

|---------------------------------------------------------------------------|
|---------------------------------------------------------------------------|
|---------------------------------------------------------------------------|
|-----------8------7----------6-5----------------8------7-------------4-3-1-|
|---10-9-10---10-9------8-6---------9----10-9-10---10-9-------8-6-----------|
|-5-------------------5-----5-----6----5--------------------5-----5-1-------|

|-----------------------------------------------------------|
|-----------------------------------------------------------|
|-----------------------------------------------------------|
|------------8------7----------6-5-----------------8------7-|
|----10-9-10---10-9------8-6---------9-----10-9-10---10-9---|
|--5-------------------5-----5-----6-----5------------------|

|---------------------|
|---------------------|
|---------------------|
|---------------------|
|------------------4--|
|7b8r7-5-7-7b8r7-5-4-5|

|-------------------------------------------------------------------|
|-------------------------------------------------------------------|
|-----------2-1---------1-----------------1---------------1---------|
|---------------3-1/2\1-------2-3---------------0-----------------3-|
|-0----------------------------------0--------------3-0-----------4-|
|-0-0-0-0-0-------------0-0-0--------0-0-0-0-0--------0-0-0-0-0-----|
                                                                             

|-----------------------------------------------------------------------|
|-----------------------------------------------------------------------|
|------------2-1---1/2\1-------1----------------1-----------------1-----|
|----------------3---------------2-3----------------3-----------------3-|
|--1---------------------------------1------------4----3------------4---|
|--1-1-1-1-1-------------1-1-1-------1-1-1-1-1---------3-3-3-3-3--------|
                                                                         

|--------------------|
|--------------------|
|-------------1------|
|-----------------3--|
|--2------------4----|
|--2-2-2-2-2---------|

|-------------------------------------------------------------------------|
|-------------------------------------------------------------------------|
|-9b-9V~-----9-9h10p9--9--------------------------------------------------|
|-------11-12--------12-12-11-12-11--11--------------------8-7--7---------|
|----------------------------------13--13-12-10-10b-9-10-12---10-10-9-10-9|
|-------------------------------------------------------------------------|


|------------------------------------------------------------|
|-14-11-10-11-10-8-10-8-7------------------------------------|
|------------------------8p7---------------19-18-14----------|
|---------------------------10--17~-16-16~---------18-15-14--|
|----------------------------------------------------------17|
|------------------------------------------------------------|

|-----------------------------------------------|
|-----------------------------------------------|
|-----------------------------------------------|
|------14-14h15p14--14--------------------------|
|-16-17-----------17--17p16-17p16-13--13~-12-12~|
|-----------------------------------------------|

|------------------------------------------|
|-8p7--------------------------------------|
|----8p7\5h7-8-7-5-7p5---------------------|
|---------------------7-5p7\4-5p4-4--------|
|--------------------------------6-6-5-3---|
|---------------------------------------5p4|

Trem Pick: (except last couple notes)
|-18--17--15-14------18--17--18-17-22-21-22-22~|
|--------------16-15---------------------------|
|----------------------------------------------|
|----------------------------------------------|
|----------------------------------------------|
|----------------------------------------------|


|------------------------------------------------------|
|------------------------------------------------------|
|-2---2-2---2---2-2------------------------------------|
|-2---2-2---3---3-3--------------6---6--5--5-5-5-5-5-5-|
|-0---0-0---0---0-0----1---1-1---6---6--5--5-5-5-5-5-5-|
|-0---0-0---0---0-0----1---1-1---6---6--5--5-5-5-5-5-5-|solo rhythm 

|---------------------------------------------------------------------------|
|---------------------------------------------------------------------------|
|---------------------------------------------------------------------------|
|-7-------------7-7-------------7-7-------------7-7-----6-6-----3-3---------|
|-5-------------5-5-------------5-5-------------5-5-----4-4-----1-1---------|
|---0-0-0-0-0-0-----0-0-0-0-0-0-----0-0-0-0-0-0-----0-0-----0-0-----0-0-0-0-|
                                                                              

|-------------------------------------------------------|
|-------------------------------------------------------|
|-------------------------------------------------------|
|---3-3---------------------------------------------7-7-|
|---1-1-------------7-7-------------6-6-----2-2-----5-5-|
|-0-----0-0-0-0-0-0-7-7-0-0-0-0-0-0-6-6-0-0-2-2-0-0-----|
                
|----------------------|
|----------------------|
|----------------------|
|----------------------|
|----------------4-0-0-|
|--6/7\6-3-6-6-3-----0-| then it repeats stuff....

9.Requiem (mostly from unregistered contributor's tab)
   
||--------------------------|--------------------------|
||--------------------------|--------------------------|
||--------------------------|--------------------------|
||--------------------------|--------------------------|
||-----8--8-----8--8-----8--|--8-----8--8-----7--7-----|
||--0--------0--------0-----|-----0--------0--------0--|
  
---------------------------|-----------------------------------|
---------------------------|-----------------------------------|
---------------------------|-----------------------------------|
---------------------------|-----------------------------------|
--7--7-----5--5-----5s--4--|--------------8--8-----8--8-----8--|
--------0--------0---------|--0-----------------0--------0-----|
   
--------------------------|---------------------------|
--------------------------|---------------------------|
--------------------------|---------------------------|
--------------------------|---------------------------|
--8-----8--8-----3--3-----|--6--6-----6--6-----6s--5--|
-----0--------0--1--1--0--|--4--4--0--3--3--0---------|

  
--------------------------|--------------------------|
--------------------------|--------------------------|
--------------------------|--------------------------|
--------------------------|--------------------------|
-----8--8-----8--8-----8--|--8-----8--8-----7--7-----|
--0--------0--------0-----|-----0--------0--------0--|


  
----------------------------|--------------------------|
----------------------------|--------------------------|
----------------------------|--------------------------|
----------------------------|--------------------------|
--7--7-----5--5-------------|--3b--3-------3b--3-------|
--------0--------0--6-5-3-0-|--3b--3----0--3b--3----0--|
 
--------------------------------------|-------------------------------|
--------------------------------------|-------------------------------|
--------------------------------------|-------------------------------|
--------------------------------------|-----15--15-----15--15-----15--|
--3b--3----------4----4---------------|-----12--12-----12--12-----12--|
--3b--3----0--1--4----4---------------|--0--12--12--0--12--12--0--12--|
   
-------------------------------|---------------------------------|
-------------------------------|---------------------------------|
-------------------------------|---------------------------------|
--15-----15--15-----15--15-----|--15--15-----12--12-----12s--11--|
--12-----12--12-----11--11-----|--11--11------8---8------8s---7--|
--12--0--12--12--0--11--11--0--|--11--11--0---8---8--0---8s---7--|
  
-------------------------------|-------------------------------|
-------------------------------|-------------------------------|
-------------------------------|-------------------------------|
-----15--15-----15--15-----15--|--15-----15--15-----12--12-----|
-----12--12-----12--12-----12--|--12-----12--12------8---8-----|
--0--12--12--0--12--12--0--12--|--12--0--12--12--0---8---8--0--|
  
-------------------------------------|-------------------------------|
-------------------------------------|-------------------------------|
-------------------------------------|-------------------------------|
-------------------------------------|-----15--15-----15--15-----15--|
----------------7-----<>10-----------|-----12--12-----12--12-----12--|
--8p-7h-8s-7-0--7--0--------6b--(6)--|--0--12--12--0--12--12--0--12--|
  
-------------------------------|---------------------------------|
-------------------------------|---------------------------------|
-------------------------------|---------------------------------|
--15-----15--15-----14--14-----|--14--14-----18--18-----18S--19--|
--12-----12--12-----11--11-----|--11--11-----15--15-----15S--16--|
--12--0--12--12--0--11--11--0--|--11--11--0--15--15--0--15S--16--|
  
--------------------------|--------------------------|
--------------------------|--------------------------|
--------------------------|--------------------------|
--0--------1--0--------1--|--4--------------------4--|
--0--0--0--1--0--0--0--1--|--4--4--4--4--4--4--4--4--|
--0--0--0--1--0--0--0--1--|--4--4--4--4--4--4--4--4--|
 
--------------------------|-----------------------|
--------------------------|-----------------------|
--------------------------|-----------------------|
--1-----------------------|--0-----------------1--|
--1--1--1--1--1--1--1--1--|--0--------0--0--0--1--|
--1--1--1--1--1--1--1--1--|--0--------0--0--0--1--|
  
-----------------------------|------------------------------|
-----------------------------|------------------------------|
-----------------------------|----------------------------8-|
--0--------1--0--------------|----------------------------6-|
--0--0--0--1--0--------------|------------------------------|
--0--0--0--1--0--3--6--<>7~--|----0--3--6--6h--7p--6--3-----|
  
---------------------------|--------------------------|
---------------------------|--------------------------|
---------------------------|--------------------------|
------------------------1--|--0--------1--0--------1--|
------0--0--0--0--0--0--1--|--0--0--0--1--0--0--0--1--|
------0--0--0--0--0--0--1--|--0--0--0--1--0--0--0--1--|

--------------------------|--------------------------|-----------------------|
--------------------------|--------------------------|-----------------------|
--------------------------|--------------------------|-----------------------|
--4--------------------4--|--1-----------------------|--0-----------------1--|
--4--4--4--4--4--4--4--4--|--1--1--1--1--1--1--1--1--|--0--------0--0--0--1--|
--4--4--4--4--4--4--4--4--|--1--1--1--1--1--1--1--1--|--0--------0--0--0--1--|
  
-----------------------------|-------------------------------|
-----------------------------|-------------------------------|
-----------------------------|-------------------------------|
--0--------1--0--------------|----------------------------8--|
--0--0--0--1--0--------------|----------------------------6--|
--0--0--0--1--0--3--6--<>7~--|--L--0--3--6--6h--7p--6--0-----|
  
---------------------------|---------------------------|
---------------------------|---------------------------|
---------------------------|---------------------------|
--L\--1--1--1--1--1--1--1--|--1--1--1--1--1--1--1--1S--|
--L\--1--1--1--1--1--1--1--|--1--1--1--1--1--1--1--1S--|
------1--1--1--1--1--1--1--|--1--1--1--1--1--1--1--1S--|

 
------------------------------|-----------------------------|
------------------------------|-----------------------------|
------------------------------|-----------------------------|
--4--4--4--4--4---------------|-----------------------------|
--4--4--4--4--4--6--10--------|---------6------10--6--9--5--|
--4--4--4--4--4---------<>9~--|--L--10-----10------------0--|repeats stuff..
  

--------------------------|
--------------------------|
--------------------------|
--------------------------|
--2--1--0--4--3--0--1--0--|
--2--1--0--4--3--0--1--0--|

   
--------------------------|--------------------------------|
--------------------------|--------------------------------|
--------------------------|--------------------------------|
-----------------3-----6--|--------------------------------|
--4--3--0--1--0--3--0--6--|--0----0----0----0----0----0----|
--4--3--0--1--0--3--0--6--|--0----0----0----0----0----0----|
   
--------------------------------|--------------------------------|
--------------------------------|--------------------------------|
--------------------------------|--------------------------------|
--------------------------------|--------------------------------|
--0----0----0----0----0----0----|--0----0----0----0----0----0----|
--0----0----0----0----0----0----|--0----0----0----0----0----0----|
   
--------------------------------|--------------------------------|
--------------------------------|--------------------------------|
--------------------------------|--------------------------------|
--------------------------------|--------------------------------|
--0----0----0----0----0----0----|--0----0----0----0----0----0----|
--0----0----0----0----0----0----|--0----0----0----0----0----0----|

     
--------------------------------|--------------------------------|
--------------------------------|--------------------------------|
--------------------------------|--------------------------------|
--------------------------------|--------------------------------|
--0----0----0----0----0----0----|--0----0----0----0----0----0----|
--0----0----0----0----0----0----|--0----0----0----0----0----0----|

    
--------------------------------||----------------------------------------|
--------------------------------||----------------------------------------|
--------------------------------||*---------------------------------------|
--------------------------------||*---------------------------------------|
--0----0----0----0----0----0----||---9-----------9----9----9----9----9----|
--0----0----0----0----0----0----||---0-----------0----0----0----0----0----|

     
--------------------------------|--------------------------------|
--------------------------------|--------------------------------|
--------------------------------|--------------------------------|
--------------------------------|--------------------------------|
--6----6----6----6----6----6----|--8----8----8----8----8----8----|
--0----0----0----0----0----0----|--0----0----0----0----0----0----|


--------------------------------------------||--------------------------------|
--------------------------------------------||--------------------------------|
-------------------------------------------*||--------------------------------|
-------------------------------------------*||--------------------------------|
--8----8----8----8----8----8----------------||--9----9----9----9----9----9----|
--0----0----0----0----0----0----------------||--0----0----0----0----0----0----|

     
--------------------------------|--------------------------------|
--------------------------------|--------------------------------|
--------------------------------|--------------------------------|
--------------------------------|--------------------------------|
--6----6----6----6----6----6----|--5----5----5----5----5----5----|
--0----0----0----0----0----0----|--0----0----0----0----0----0----|

  
--------------------------------|-----------------------------------------|
--------------------------------|-----------------------------------------|
--------------------------------|-----------------------------------------|
--------------------------------|--------------------2h-3p-2--------------|
--5----5----5----5----5----5----|-----------------------------------------|
--0----0----0----0----0----0----|--3--3--3--3--3--3-----------3--3--3--3--|
  
-----------------------------------------|
-----------------------------------------|
-----------------------------------------|
--2h-3p-2-----------------2-----2--------|
-----------------------4-----4-----4--3--|
-----------3--3--3--3--------------------|
  
-----------------------------------------|
-----------------------------------------|
-----------------------------------------|
--------------------2h-3p-2--------------|
-----------------------------------------|
--3--3--3--3--3--3-----------3--3--3--3--|
          
-------------------------------------------------|
-------------------------------------------------|
-------------------------------------------------|
--2h-3p-2-----------------2-----2----------------|
-----------------------4-----4-----4--3----------|
-----------3--3--3--3----------------------------|
   
-----------------------------------------|
-----------------------------------------|
-----------------------------------------|
--------------------2h-3p-2--------------|
-----------------------------------------|
--3--3--3--3--3--3-----------3--3--3--3--|
  
-----------------------------------------|
-----------------------------------------|
-----------------------------------------|
--2h-3p-2-----------------2-----2--------|
-----------------------4-----4-----4--3--|
-----------3--3--3--3--------------------|
   
-----------------------------------------|
-----------------------------------------|
-----------------------------------------|
--------------------2h-3p-2--------------|
-----------------------------------------|
--3--3--3--3--3--3-----------3--3--3--3--|

   
----------------------------------------||---------------------------------|
----------------------------------------||---------------------------------|
----------------------------------------||*--------------------------------|
--2h--3p--2--------------2-----2--------||*--------------------------------|
----------------------4-----4-----4--3--||---9----9----9----9----9----9----|
-------------3--3--3--------------------||---0----0----0----0----0----0----|
 
--------------------------------|--------------------------------|
--------------------------------|--------------------------------|
--------------------------------|--------------------------------|
--------------------------------|--------------------------------|
--6----6----6----6----6----6----|--8----8----8----8----8----8----|
--0----0----0----0----0----0----|--0----0----0----0----0----0----|

   
---------------------------------||--------------------------------------|
---------------------------------||--------------------------------------|
--------------------------------*||--------------------------------------|
--------------------------------*||--------------------------------------|
--8----8----8----8----8----8-----||--5--5--5--5--5--5--5--5--5--5--5--5--|
--0----0----0----0----0----0-----||--0--0--0--0--0--0--0--0--0--0--0--0--|
  
--------------------------------------|
--------------------------------------|
--------------------------------------|
--------------------------------------|
--5--5--5--5--5--5--5--5--5--5--5--5--|
--0--0--0--0--0--0--0--0--0--0--0--0--|
   
-----------------------------------------|
-----------------------------------------|
-----------------------------------------|
--------------------2h-3p-2--------------|
-----------------------------------------|
--3--3--3--3--3--3-----------3--3--3--3--|

   
-----------------------------------------|
-----------------------------------------|
-----------------------------------------|
--2h-3p-2-----------------2-----2--------|
-----------------------4-----4-----4--3--|
-----------3--3--3--3--------------------|

-----------------------------------------|
-----------------------------------------|
-----------------------------------------|
--------------------2h-3p-2--------------|
-----------------------------------------|
--3--3--3--3--3--3-----------3--3--3--3--|
   
-----------------------------------------|
-----------------------------------------|
-----------------------------------------|
--2h-3p-2-----------------2-----2--------|
-----------------------4-----4-----4--3--|
-----------3--3--3--3--------------------|
  
-----------------------------------------|
-----------------------------------------|
-----------------------------------------|
--------------------2h-3p-2--------------|
-----------------------------------------|
--3--3--3--3--3--3-----------3--3--3--3--|
 
-----------------------------------------|
-----------------------------------------|
-----------------------------------------|
--2h-3p-2-----------------2-----2--------|
-----------------------4-----4-----4--3--|
-----------3--3--3--3--------------------|
  
-----------------------------------------|
-----------------------------------------|
-----------------------------------------|
--------------------2h-3p-2--------------|
-----------------------------------------|
--3--3--3--3--3--3-----------3--3--3--3--|
   
-----------------------------------------|
-----------------------------------------|
-----------------------------------------|
--2h-3p-2-----------------2-----2--------|
-----------------------4-----4-----4--3--|
-----------3--3--3--3--------------------|


----------------------------------------|
--16b~--------<>16--13------13----------|
------------------------16------16--15--|
----------------------------------------|
----------------------------------------|
----------------------------------------|
 
--------------------------------------------------------|
--------------------------------------------------------|
--15g13p--12------12----------------------12h-13p-12----|
--------------15------15--13--12--13--15-------------15-|
--------------------------------------------------------|
--------------------------------------------------------|
  
---------------------------------------------------|
--------------------------------------12S--13--15--|
--12----------------------12--13--15---------------|
------15--13--12--13--15---------------------------|
---------------------------------------------------|
---------------------------------------------------|
    
--------------------------16---Lb~---L----|
--13--15--16--13--15--16------------------|
------------------------------------------|
------------------------------------------|
------------------------------------------|
------------------------------------------|
  
---------------------------------------------------|
--16p--13------16b---L--16p--13------13--16--<>13--|
-----------16--------------------16----------------|
---------------------------------------------------|
---------------------------------------------------|
---------------------------------------------------|
   
--------------------------------------15----------|
--18b---L~---L\---------------18--------------18--|
-------------------13--15g17------17------17------|
--------------------------------------------------|
--------------------------------------------------|
--------------------------------------------------|
  
--16b~--------16--13------13----------|
----------------------16------16--15--|
--------------------------------------|
--------------------------------------|
--------------------------------------|
--------------------------------------|
 
--------------------------------------------------|
--13------13--------------------------------------|
------16------16--15--13------13------15------13--|
--------------------------15------15------15------|
--------------------------------------------------|
--------------------------------------------------|
     
------------------------------------|------------------------------------|
--13--------------------12----------|--11----------10----------9---------|
------------13-----L----------12----|--------11----------10---------7----|
------------------------------------|------------------------------------|
------------------------------------|------------------------------------|
------------------------------------|------------------------------------|

|-------------------------|
|------7-8-7-8b~--8p7-8-8~|
|-8-7-8-------------------|
|-------------------------|
|-------------------------|
|-------------------------|
  
----------------------------------------------|
----------------------------------------------|
----------------------------------------------|
----------------------5--5h-7p-5-----5--------|
--<>5p--<>4--5--7--8--------------8-----8--7--|
----------------------------------------------|
  
-----------------------------------------|
-----------------------------------------|
--------------------6h-7p-6-----6--------|
-----------5--7--8-----------8-----8--7--|
--5--7--8--------------------------------|
-----------------------------------------|

|------------------------12~--11~--15b|
|---------5h8-5h6p5-5-----------10----|
|------6-7---------7-7-6--------------|
|-5-7-8-------------------------------|
|-------------------------------------|
|-------------------------------------|

--------------------------------------|
--------------------------------------|
--------------------------------------|
--1--1--1--1--1--1--1--1--1--1--1--1--|
--1--1--1--1--1--1--1--1--1--1--1--1--|
--1--1--1--1--1--1--1--1--1--1--1--1--|

  
-----------------------------------------|
-----------------------------------------|
-----------------------------------------|
--1s--4--4--4--4--4-------------5-----5--|
--1s--4--4--4--4--4--/6------------6-----|
--1s--4--4--4--4--4------10--9-----------|
  
|----------------------|
|----------------------|
|----------------------|
|-11~-8~-10~--11~-8~-7~|
|----------------------|
|----------------------|

Trem Pick (not bends or notes w/ vibrato)
|-------------------------------------------------------|
|15---16--15b-------------------------------------------|
|------------14V~----8/11--7V~--8/11--------------------|
|-------------------------------------------------------|
|-------------------------------------------------------|
|------------------------------------0-0-0-0--0-0-0-0--0|

10. More Time To Kill(mostly shredyr's work, my intro...)

|------6-6------6-6------6|
|------x-x------x-x------x|
|------3-3------3-3------3|
|-------------------------|
|-0-1-0---0-1-0----0-1-0--|
|-0-1-0---0-1-0----0-1-0--|2x

|---------------------------|
|-------9-9-------9-9------9|
|-------x-x-------x-x------x|
|-------6-6-------6-6------6|
|-0-1-0-----0-1-0----0-1-0--|
|-0-1-0-----0-1-0----0-1-0--|2x

|--------------------|
|--------------------|
|--------------------|
|--------------------|
|--------------------|
|-0-0-1-0-3-0-3-4-3-1|


|---------------------------------|
|---------------------------------|
|---------------------------------|
|---------------------------------|
|---------------------------------|
|-2-3-0-5-6-0-2-3-0-5-6-0-0-3-2-1-|

|-----------------------------------------------------|
|-----------------------------------------------------|
|-------1-1-----------1-2-----------------------------|
|-----------------------------4-4-----------4-3-----1-|
|-------------0---------------------0-----------------|
|-0-1-0-----1---0-1-0-----1-4-----1---0-1-0-----1-4---| riff gets shortened..

|-----------------------------------------------------------|
|-----------------------------------------------------------|
|-----------------------------------------------------------|
|-6--6------------------------------------------------------|
|-x--x------------------------------------------------------|
|-6--6--0-0-0-0-0--0--0--0--0--0--0--0--0--0--0--0--0--1--0-|
      
|--------------------------------------------------|-----------|
|--------------------------------------------------|-----------|
|--------------------------------------------------|-----------|
|-4--4---------------------------------------------|-----------|
|-x--x---------------------------------------------|-----------|
|-4--4--0-0-0-0-0--0--0--0--0--0--0--0--0--0--0--0-|-4\3-0-0-1-|
     


|-------------------------------------------------------------------------------------------------|
|-------------------------------------------------------------------------------------------------|
|-------------------------------------------------------------------------------------------------|
|-------------------------------------------------------------------------------------------------|
|-------------------------------------------------------------------------------------------------|
|-6-6-6-6-6-6-6-6-6-6-6-6-6-6-6-6-6-6-6-6-6-6-6-6-1-1-1-1-1-1-4-4-4-4-4-4-4-4-4-4-4-4-1-1-1-1-1-1-|


 "god damn"
|----------------------------------------------------------------------------------|
|----------------------------------------------------------------------------------|
|----------------------------------------------------------------------------------|
|----------------------------------------------------------------------------------|
|----------------------------------------------------------------------------------|
|-0-0-0--0--0-0-0--0--0-0-0--0--0-0-0--0--0-0-0-0-0-0-0-0-0--0--0-0-0--0--0-0-0-0-0|
 


|-----------------------------------------------------------------------|
|-6------6------8----5---5----------6-----------------------------------|
|---7------7-----------7---7----7--------7---7---7--7--b---7---7---7--7-|
|-----7-------7---7----------7----7---7--0---0---0--0------0---0---0--0-|
|-----------------------------------------------------------------------|
|-----------------------------------------------------------------------|

|---------------------------------|
|---------------------------------|
|---------------------------------|
|---7-7-7-7-7-7-7-7-7-7-7-7-7-7-7-|
|---5-5-5-5-5-5-5-5-5-5-5-5-5-5-5-|
|-8-0-0-0-0-0-0-0-0-0-0-0-0-0-0-0-|

|-------------------------------------------|-----|
|-------------------------------------------|-----|
|-------------------------------------------|-----|
|-------------------------------------------|-----|
|-----------------5------3------1-----------|-----|
|-0-0-0-0-0-0-0-0---6--0---4--0---3-1h4-1/3-|-1h4-|
   


CLEAN (let ring together)
|----------------------------------------------------------|
|-6-------6-----6----6---8-------5-------5-----5-----5---6-|
|---7-------7-----7--------7-------7-------7-----7---------|
|-----7-------7--------7-----7-------7-------7---------7---|
|-------0-----------0----------0-------0-----------0-------|
|----------------------------------------------------------|


|---------------------------------|
|---------------------------------|
|---------------------------------|
|---------------------------------|
|-2-3-0-5-6-0-2-3-0-5-6-0-0-3-2-1-|
|-2-3-0-5-6-0-2-3-0-5-6-0-0-3-2-1-|

Lead:
|------8----8----8----8----8----8----8----8--------------------------|
|-8b~~---^8---^8---^8---^8---^8---^8---^8---^8rp6------6b--6---------|
|-------------------------------------------------7~----------7-5-7~-|
|--------------------------------------------------------------------|
|--------------------------------------------------------------------|
|--------------------------------------------------------------------|


|-------20-----20-----20-----20-----20-----20-----20-----20---------|
|-20b~~----^20----^20----^20----^20----^20----^20----^20----18------|
|--------------------------------------------------------------19~~-|
|-------------------------------------------------------------------|
|-------------------------------------------------------------------|
|-------------------------------------------------------------------|

|--------------------------------------------------------------------------|
|--------------------------------15----13----------------------------------|
|-10----10-12br-10----12br10-------14----14-12-----------------------------|
|----12------------12---------12----------------15-12----------------------|
|-----------------------------------------------------15-12~---------7~--8~|
|--------------------------------------------------------------7*~~--------|

|---------------------------------------------------------------|
|---------------------------------------------------------------|
|---------12-10-10----10-10----10----10b----10----------14\10~~-|
|-12~~-------------12-------12----12-----12----12---------------|
|---------------------------------------------------------------|
|---------------------------------------------------------------|

|-------------------------------------------|
|-------------8b----------------------15~~~-|
|-10-----10--(10)--/12-9~~---9---/10--------|
|-------------------------------------------|
|-------------------------------------------|
|-------------------------------------------|


11. Beating On Death's Door:( 100% AcidKnowledge's work..i couldnt figure
out any of this song for some reason..but he made an awesome tab..so..)
|---------------------------------------------------------------------------|
|---------------------------------------------------------------------------|
|---------------------------------------------------------------------------|
|---------------------------------------------------------------------------|
|---------------------------------------------------------------------------|
|--3p0--0-0--0-0--0-0-0-0--0-0-0-3p0--0-0--0-0--0-0-0-0--0-0-0--------------|
         .    .    . . .    . . .      .    .    . . .    . . .
Guitar 2
|---------------------------------------------------------------------------|
|---------------------------------------------------------------------------|
|---------------------------------------------------------------------------|
|---------------------------------------------------------------------------|
|--0-----------------------------0------------------------------------------|
|--0-----------------------------0------------------------------------------|
    .                             .
Guitar 1
|---------------------------------------------------------------------------|
|---------------------------------------------------------------------------|
|---------------------------------------------------------------------------|
|------------------------------------------------6--6--3--------------------|
|------------------------------------------------6--6--3--------------------|
|--3p0--0-0--0-0--0-0-0-0--0-0-0-3p0--0-0--0-0-0-6--6--3--------------------|
         .    .    . . .    . . .      .    . . .                
Guitar 2
|---------------------------------------------------------------------------|
|---------------------------------------------------------------------------|
|---------------------------------------------------------------------------|
|--0---------------------------------------------6--6--3--------------------|
|--0---------------------------------------------6--6--3--------------------|
|--0---------------------------------------------6--6--3--------------------|
             

--VERSE 1 (00:07 – 00:28)--  
|---------------------------------------------------------------------------|
|---------------------------------------------------------------------------|
|---------------------------------------------------------------------------|
|---------------------------------------------------------------------------|
|---------------------------------------------------------------------------|
|--3p0--0-0--0-0--0-0-0-0--0-0-0-3p0--0-0--0-0--0-0-0-0--0-0-0--------------|
         .    .    . . .    . . .      .    .    . . .    . . .           
|---------------------------------------------------------------------------|
|---------------------------------------------------------------------------|
|---------------------------------------------------------------------------|
|------------------------------------------------2--6--5--3-----------------|
|------------------------------------------------2--6--5--3-----------------|
|--3p0--0-0--0-0--0-0-0-0--0-0-0-3p0--0-0--0-0-0-2--6--5--3-----------------|
         .    .    . . .    . . .      .    . . .            
|---------------------------------------------------------------------------|
|---------------------------------------------------------------------------|
|---------------------------------------------------------------------------|
|---------------------------------------------------------------------------|
|---------------------------------------------------------------------------|
|--3p0--0-0--0-0--0-0-0-0--0-0-0-3p0--0-0--0-0--0-0-0-0--0-0-0--------------|
         .    .    . . .    . . .      .    .    . . .    . . .           
|---------------------------------------------------------------------------|
|---------------------------------------------------------------------------|
|---------------------------------------------------------------------------|
|------------------------------------------------6--6--3--------------------|
|------------------------------------------------6--6--3--------------------|
|--3p0--0-0--0-0--0-0-0-0--0-0-0-3p0--0-0--0-0-0-6--6--3--------------------|
         .    .    . . .    . . .      .    . . .      
|---------------------------------------------------------------------------|
|---------------------------------------------------------------------------|
|---------------------------------------------------------------------------|
|---------------------------------------------------------------------------|
|---------------------------------------------------------------------------|
|--3p0--0-0--0-0--0-0-0-0--0-0-0-3p0--0-0--0-0--0-0-0-0--0-0-0--------------|
         .    .    . . .    . . .      .    .    . . .    . . .             
|---------------------------------------------------------------------------|
|---------------------------------------------------------------------------|
|---------------------------------------------------------------------------|
|-------------------------------------------------------2--6--5--4----------|
|-------------------------------------3------3-----3----2--6--5--4----------|
|--3p0--0-3--0-3p0--3p0--0-3--0--3p0--1p0--0-1--0--1p0--2--6--5--4----------|
         .    .           .    .            .    .  


--CHORUS (00:28 – 00:41)—-
|---------------------------------------------------------------------------|
|---------------------------------------------------------------------------|
|---------------------------------------------------------------------------|
|--5-----------------------------------------4------3-----------------------|
|--5---------------------------------4*------2------3---3/6-----------------|
|--5--0-0-0-3-6-5~---0-0-0-3-6-3-0-2-----0-2-2--0-1-1---3/6-----------------|
       . . . . .      . . . . . . . .     . .    . .  
|---------------------------------------------------------------------------|
|---------------------------------------------------------------------------|
|---------------------------------------------------------------------------|
|--5------------------------------------------------------------------------|
|--5------------------------------------------------------------------------|
|--5--0-0-0-3-6-5~---0-0-0-3-6-3-0-1-4-0-1-4-0-1-4-0-1-4-4-8-7-6------------|
       . . . . .      . . . . . . . . . . . . . . . . . . . . . .
|---------------------------------------------------------------------------|
|---------------------------------------------------------------------------|
|---------------------------------------------------------------------------|
|--5-----------------------------------------4------3-----------------------|
|--5---------------------------------4*------2------3---3/6-----------------|
|--5--0-0-0-3-6-5~---0-0-0-3-6-3-0-2-----0-2-2--0-1-1---3/6-----------------|
       . . . . .      . . . . . . . .     . .    . .  
|---------------------------------------------------------------------------|
|---------------------------------------------------------------------------|
|---------------------------------------------------------------------------|
|--5------------------------------------------------------------------------|
|--5------------------------------------------------------------------------|
|--5--0-0-0-3-6-5~---0-0-0-3-6-3-0-1-4-0-1-4-0-1-4-0-1-4-3-6-5-4------------|
       . . . . .      . . . . . . . . . . . . . . . . . . . . . .


--VERSE 2 (00:41 – 01:06)--  
|---------------------------------------------------------------------------|
|---------------------------------------------------------------------------|
|---------------------------------------------------------------------------|
|---------------------------------------------------------------------------|
|---------------------------------------------------------------------------|
|--3p0--0-0--0-0--0-0-0-0--0-0-0-3p0--0-0--0-0--0-0-0-0--0-0-0--------------|
         .    .    . . .    . . .      .    .    . . .    . . .           
|---------------------------------------------------------------------------|
|---------------------------------------------------------------------------|
|---------------------------------------------------------------------------|
|------------------------------------------------6--6--3--------------------|
|------------------------------------------------6--6--3--------------------|
|--3p0--0-0--0-0--0-0-0-0--0-0-0-3p0--0-0--0-0-0-6--6--3--------------------|

|---------------------------------------------------------------------------|
|---------------------------------------------------------------------------|
|---------------------------------------------------------------------------|
|---------------------------------------------------------------------------|
|---------------------------------------------------------------------------|
|--3p0--0-0--0-0--0-0-0-0--0-0-0-3p0--0-0--0-0--0-0-0-0--0-0-0--------------|
         .    .    . . .    . . .      .    .    . . .    . . .           
|---------------------------------------------------------------------------|
|---------------------------------------------------------------------------|
|---------------------------------------------------------------------------|
|------------------------------------------------2--6--5--3-----------------|
|------------------------------------------------2--6--5--3-----------------|
|--3p0--0-0--0-0--0-0-0-0--0-0-0-3p0--0-0--0-0-0-2--6--5--3-----------------|
         .    .    . . .    . . .      .    . . . .  .  .  . 
|---------------------------------------------------------------------------|
|---------------------------------------------------------------------------|
|---------------------------------------------------------------------------|
|---------------------------------------------------------------------------|
|---------------------------------------------------------------------------|
|--3p0--0-0--0-0--0-0-0-0--0-0-0-3p0--0-0--0-0--0-0-0-0--0-0-0--------------|
         .    .    . . .    . . .      .    .    . . .    . . .             
|---------------------------------------------------------------------------|
|---------------------------------------------------------------------------|
|---------------------------------------------------------------------------|
|------------------------------------------------6--6--3--------------------|
|------------------------------------------------6--6--3--------------------|
|--3p0--0-0--0-0--0-0-0-0--0-0-0-3p0--0-0--0-0-0-6--6--3--------------------|
         .    .           .    .            .    .  
|---------------------------------------------------------------------------|
|---------------------------------------------------------------------------|
|---------------------------------------------------------------------------|
|---------------------------------------------------------------------------|
|---------------------------------------------------------------------------|
|--3p0--0-0--0-0--0-0-0-0--0-0-0-3p0--0-0--0-0--0-0-0-0--0-0-0--------------|
         .    .    . . .    . . .      .    .    . . .    . . .   
|---------------------------------------------------------------------------|
|---------------------------------------------------------------------------|
|---------------------------------------------------------------------------|
|-------------------------------------------------------2--6--5--4----------|
|-------------------------------------3------3-----3----2--6--5--4----------|
|--3p0--0-3--0-3p0--3p0--0-3--0--3p0--1p0--0-1--0--1p0--2--6--5--4----------|
         .    .           .    .            .    .    


--REPEAT CHORUS (01:06 – 01:29)--


--2ND CHORUS ENDING (01:29 – 01:33)--
|---------------------------------------------------------------------------|
|---------------------------------------------------------------------------|
|---------------------------------------------------------------------------|
|--5-----------------------------2--6--5--4--3--7--6--5---------------------|
|--5-----------------------------2--6--5--4--3--7--6--5---------------------|
|--5--0-0-0-3-6-5~---0-0-0-3-6-3-2--6--5--4--3--7--6--5---------------------|
       . . . . .      . . . . . .   


--BRIDGE (01:31 – 02:32)--
“All yours now   she’s all yours  all yours now   she’s all yours”
|---------------------------------------------------------------------------|
|---------------------------------------------------------------------------|
|---------------------------------------------------------------------------|
|---------------------------------------------------------------------------|
|---------------------------------------------------------------------------|
|--0-0--0--0-0-0-0-0---0-0--0--0-0-0-0-0--0-0-0--0--0-0-0-------------------|
    . .  .  . . . . .   . .  .  . . . . .  . . .  .  . . .
|---------------------------------------------------------------------------|
|---------------------------------------------------------------------------|
|---------------------------------------------------------------------------|
|----------------------------------------------------------------------[X2]-|
|---------------------------------------------------------------------------|
|--0-0--0--0-0-0-0-0---0-0--0--0-0-0-0-0--0-0-0--0--0-0-0-------------------|
    . .  .  . . . . .   . .  .  . . . . .  . . .  .  . . .
|---------------------------------------------------------------------------|
|---------------------------------------------------------------------------|
|---------------------------------------------------------------------------|
|---------------------------------------------------------------------------|
|------3---3--------3---3--------3---3--------3---3-------------------------|
|--0-0-1p0-1p0--0-0-1p0-1p0--0-0-1p0-1p0--0-0-1p0-1p0-----------------------|
    . .          . .          . .          . .
|---------------------------------------------------------------------------|
|---------------------------------------------------------------------------|
|---------------------------------------------------------------------------|
|---------------------------------------------------------------------------|
|------2---2--------2---2--------2---2--------2---2-------------------------|
|--0-0-1p0-1p0--0-0-1p0-1p0--0-0-1p0-1p0--0-0-1p0-1p0-----------------------|
    . .          . .          . .          . .
|---------------------------------------------------------------------------|
|---------------------------------------------------------------------------|
|---------------------------------------------------------------------------|
|---------------------------------------------------------------------------|
|---------------------------------------------------------------------------|
|--0-0--0--0-0-0-0-0---0-0--0--0-0-0-0-0--0-0-0--0--0-0-0-------------------|
    . .  .  . . . . .   . .  .  . . . . .  . . .  .  . . .
|---------------------------------------------------------------------------|
|---------------------------------------------------------------------------|
|---------------------------------------------------------------------------|
|---------------------------------------------------------------------------|
|---------------------------------------------------------------------------|
|--0-0--0--0-0-0-0-0---0-0--0--0-0-0-0-0--0-0-0--0--0-0-0-------------------|
    . .  .  . . . . .   . .  .  . . . . .  . . .  .  . . .
|---------------------------------------------------------------------------|
|---------------------------------------------------------------------------|
|---------------------------------------------------------------------------|
|---------------------------------------------------------------------------|
|------3---3--------3---3--------3---3--------3---3-------------------------|
|--0-0-1p0-1p0--0-0-1p0-1p0--0-0-1p0-1p0--0-0-1p0-1p0-----------------------|
    . .          . .          . .          . .
|---------------------------------------------------------------------------|
|---------------------------------------------------------------------------|
|------------------------------------------->>>>----------------------------|
|--------------------------------7--7------->>>>----------------------------|
|------2---2--------2---2--------6--6------->>>>----------------------------|
|--0-0-1p0-1p0--0-0-1p0-1p0--0-0-4--4--0-0----------------------------------|
    
“There’s no shoulder left to cry wolf on…”
|---------------------------------------------------------------------------|
|---------------------------------------------------------------------------|
|---------------------------------------------------------------------------|
|----------------------------------------------------------------------[X4]-|
|---------------------------------------------------------------------------|
|--0-0-6--6--0-0-6--6--0-0-6--6--0-0-6--6--0-0-0--0--0-0--------------------|
   
“No one cares”
|---------------------------------------------------------------------------|
|---------------------------------------------------------------------------|
|-----8--8-----8--8-----8--8-----8/9----------------------------------------|
|--0--6--6--0--6--6--0--6--6--0--6/7--0--0--0--0-----------------------[X3]-|
|--0--6--6--0--6--6--0--6--6--0--6/7--0--0--0--0----------------------------|
|--0--6--6--0--6--6--0--6--6--0--6/7--0--0--0--0----------------------------|
    .        .        .        .       .  .  .  .  
|---------------------------------------------------------------------------|
|---------------------------------------------------------------------------|
|-----8--8-----8--8-----8--8-----8/9----------------------------------------|
|--0--6--6--0--6--6--0--6--6--0--6/7--2--6--5--4----------------------------|
|--0--6--6--0--6--6--0--6--6--0--6/7--2--6--5--4----------------------------|
|--0--6--6--0--6--6--0--6--6--0--6/7--2--6--5--4----------------------------|
    .        .        .        .       


--Breakdown (02:32 – 02:38)—
|---------------------------------------------------------------------------|
|---------------------------------------------------------------------------|
|----------------------------------------------------------------------->>>-|
|----------------------------------------------------------------(drums)>>>-|
|----------------------------------------------------------------------->>>-|
|--3p0--0-0--0-0--0-0-0-0--0-0-0-3p0--0-0--0-0--0-0-0-0--0-0-0--0------->>>-|
      


--REPEAT VERSE AND CHORUS (02:38 – 03:30)—


--OUTRO (03:30 – END)--
|---------------------------------------------------------------------------|
|---------------------------------------------------------------------------|
|---------------------------------------------------------------------------|
|---------------------------------------------------------------------------|
|---------------------------------------------------------------------------|
|--0-0-0--0--0-0-0--0--0-0-0--0--0-0-0--0--0-0-0--0--0-0-0--0--0-0-0--0-----|
   
|---------------------------------------------------------------------------|
|---------------------------------------------------------------------------|
|---------------------------------------------------------------------------|
|---------6--5--4------------------------------------------------------[X2]-|
|------2--6--5--4-----------------------------------------------------------|
|--0-0-2--6--5--4-----------------------------------------------------------|
  
(Solo guitar is pretty hard to hear at this part)
|---------------------------------------------------------------------------|
|---------------------------------------------------------------------------|
|---------------------------------------------------------------------------|
|---------------------------------------------------------------------------|
|---------------------------------------------------------------------------|
|--0-0-1--1--0-0-1--1--0-0-1--1--0-0-1--1--0-0-0--0--0-0-0--0--0-0-0--0-----|
   
|---------------------------------------------------------------------------|
|---------------------------------------------------------------------------|
|---------------------------------------------------------------------------|
|---------6--5--4------------------------------------------------------[X3]-|
|------2--6--5--4-----------------------------------------------------------|
|--0-0-2--6--5--4-----------------------------------------------------------|
     
|---------------------------------------------------------------------------|
|---------------------------------------------------------------------------|
|---------------------------------------------------------------------------|
|---------------------------------------------------------------------------|
|---------------------------------------------------------------------------|
|--0-0-1--1--0-0-1--1--0-0-1--1--0-0-1--1--0-0-0--0--0-0-0--0--0-0-0--0-----|
    
|---------------------------------------------------------------------------|
|---------------------------------------------------------------------------|
|---------------------------------------------------------------------------|
|---------6--5--4-----------------------------------------------------------|
|------2--6--5--4-----------------------------------------------------------|
|--0-0-2--6--5--4-----------------------------------------------------------|
    
Guitar 1
|---------------------------------------------------------------------------|
|---------------------------------------------------------------------------|
|---------------------------------------------------------------------------|
|---------------------------------------------------------------------------|
|---------------------------------------------------------------------------|
|--0-0-0--0--0-0-0--0--0-0-0--0--0-0-0--0--0-0-0--0--0-0-0--0--0-0-0--0-----|
    . . .  .  . . .  .  . . .  .  . . .  .  . . .  .  . . .  .  . . .  .
|---------------------------------------------------------------------------|
|---------------------------------------------------------------------------|
|---------------------------------------------------------------------------|
|---------6--5--4------------------------------------------------------[X4]-|
|------2--6--5--4-----------------------------------------------------------|
|--0-0-2--6--5--4-----------------------------------------------------------|
   

|---------------------------------------------------------------------------|
|-------------------------------------3~------------------------------------|
|---9~---8~---4~---3~-------------------------------------------------------|
|-----------------------5~---4~---2~----------------------------------------|
|---------------------------------------------------------------------------|
|---------------------------------------------------------------------------|

|---------------------------------------------------------------------------|
|-------------------------------------3~------------------------------------|
|--/9~---8~---4~---3~-------------------------------------------------------|
|-----------------------5~---4~---2~----------------------------------------|
|---------------------------------------------------------------------------|
|---------------------------------------------------------------------------|

|---------------------------------------------------------------------------|
|-------------------------------------3~------------------------------------|
|--/9~---8~---4~---3~-------------------------------------------------------|
|-----------------------5~---4~---2~----------------------------------------|
|---------------------------------------------------------------------------|
|---------------------------------------------------------------------------|

|-----------------------3*---2~----/7~---9p7--6~----------------------------|
|---------------------------------------------------------------------------|
|--/9~---8~---4~---3~-------------------------------------------------------|
|---------------------------------------------------------------------------|
|---------------------------------------------------------------------------|
|---------------------------------------------------------------------------|
comments
print report bad tab
I want to post or [tab]
guest
You may want to rate the tab now too:
select rating
Please do not post tabs as comments. Select "correction" instead!