Oops, an error
Loading. Please wait.

Blurry Eyes Bass Tab

ver1
ver1

Whole song

Interactive

More versions @911Tabs.com
7,803 views 6 this week
no commentswrite comment
1 2 3 4 5
please rate
Autoscroll
+/-
esc
set tempo
stop
Hey! There's an official Ultimate Guitar app which is ideal
for learning songs when you're away from computer. Get the app
WARNING: You are trying to view
                                    content from Ultimate-Guitar.com
                                    in an unauthorized application,
                                    which is prohibited.

                                    Please use an official Ultimate
                                    Guitar Tabs application for iPhone,
                                    iPad or Android to access legitimate
                                    chords, guitar, bass, and drum tabs
                                    from Ultimate-Guitar.com database.

                                    Type "ultimate guitar tabs" in Apple
                                    App Store's or Android Market's
                                    search to find the application.
L'arc En Ciel - Blurry Eyes
Tabbed By: Kikurui Pierrot
EMail: onikumo@hotmail.com


Even though these tabs may be abit long, i went ahead and submitted the whole 
since the song doesnt really repeat.  If you like these, email to onikumo@hotmail.com . 
More tabs are on their way.

                                                  --Pierrot                   L'arc en Ciel -  Blurry Eyes                     


Bass
                                          
G||------------------|-------------------|
D||------------------|-------------------|
A||------------------|--5----------------|
E||------------------|-------------------|


                                        
-------------------|-------------------|
-------------------|-------------------|
--4----------------|--2----------------|
-------------------|-------------------|


                                          
--4------4--4--------|--0----------------|
---------------------|-------------------|
---------------------|-------------------|
---------------------|-------------------|


                                         
-------------------|--------------------|
--4----------------|--2-----------------|
-------------------|---------------2----|
-------------------|--------------------|


                                                  
----0--0--0-------------|------------------------|
-------------4----2--0--|-------0--2----0--------|
------------------------|----4-------------4--4--|
------------------------|------------------------|


                                                  
------------------------|------------------------|
----------2----0--------|-------4-----4----------|
----0--4----------4--2--|----2-----2-----2----2--|
------------------------|------------------------|


                          
----------------------0--|
--4-----4----------4-----|
-----2-----2----2--------|
-------------------------|


                                                  
-------0--2----0--------|----------2----0--------|
----4-------------4--4--|----0--4----------4--2--|
------------------------|------------------------|
------------------------|------------------------|


                         
------------------------|
----2-----2----2-----2--|
-------0----------0-----|
------------------------|


                          
-------------------------|
----2-----2-----------0--|
-------0-----0--2--4-----|
-------------------------|


                                                  
------------------------|------------------------|
-------0--2----0--------|----------2----0--------|
----4-------------4--4--|----0--4----------4--2--|
------------------------|------------------------|


                         
------------------------|
-------4-----4----------|
----2-----2-----2----2--|
------------------------|


                          
----------------------0--|
--4-----4----------4-----|
-----2-----2----2--------|
-------------------------|


                                                  
-------0--2----0--------|----------2----0--------|
----4-------------4--4--|----0--4----------4--2--|
------------------------|------------------------|
------------------------|------------------------|


                         
-------2----------2-----|
----2-----2----2-----2--|
------------------------|
------------------------|


                                                  
----0--0--0--------------|-----------------------|
-------------4--4--2--2--|--0----0---------------|
-------------------------|----------0----0--4----|
-------------------------|-----------------------|


                                                  
-----------------------|----------------------2--|
--0----0---------------|--0--------0-------------|
----------0----0--4----|-----0--4-------0--4-----|
-----------------------|-------------------------|


                                              
----0----------------|-----------------------|
---------4-----------|--0----0--4----4--0----|
----------------4----|-----------------------|
---------------------|-----------------------|


                                                
-----------------------|-----------------------|
-----------------------|----------0----0-------|
--0----0--4----4--0----|--2----2----------2----|
-----------------------|-----------------------|


                                                
-----------------------|-----------------------|
----------0----2--4----|-----------------------|
--2----2---------------|----------2----2-------|
-----------------------|--3----3----------3----|


                                                
-----------------------|-----------------------|
------------------0----|----------2----2--0----|
----------2----4-------|--0----0---------------|
--3----3---------------|-----------------------|


                                                
-----------------------|-----------------------|
-----2-----------------|--0----0--4----4--0----|
--4-------4----4--0----|-----------------------|
-----------------------|-----------------------|


                                                
-----------------------|-----------------------|
-----------------------|----------0----0-------|
--0----0--4----4--0----|--2----2----------2----|
-----------------------|-----------------------|


                                                
-----------------------|-----------------------|
----------0----2--4----|-----------------------|
--2----2---------------|----------2----2-------|
-----------------------|--3----3----------3----|


                                                 
-----------------------|--2--0-------0----------|
------------------0----|----------4-----4----2--|
----------2----4-------|------------------------|
--3----3---------------|------------------------|


                                              
------------------------|--------------------|
--4--2----0--2--0-------|--------------------|
-------------------4----|--------------------|
------------------------|--3------3----------|


                                            
--------------------|----------------------|
------------4--4----|----------------------|
--------------------|----------------------|
--------------------|--2--2----2--2--------|


                                          
------------2-------|--------------------|
---------------4----|--------------------|
--------------------|--------------------|
--------------------|--3------3----------|


                                             
--------------------|-----------------------|
------------4--4----|--------------------2--|
--------------------|-----------------------|
--------------------|--2--2----2--2---------|


                                               
----------------------|-----------------------|
----0---------0-------|----------0----0-------|
---------4-------4----|-----------------------|
----------------------|--3----3----------3----|


                                                
-----------------------|-----------------------|
----------0----0-------|----------2----2-------|
-----------------------|--0----0----------0----|
--4----4----------4----|-----------------------|


                                                
-----------------------|-----------------------|
----------2----2-------|--0----0--4----4--0----|
--1----1----------1----|-----------------------|
-----------------------|-----------------------|


                                                
-----------------------|-----------------------|
-----------------------|----------0----0-------|
--0----0--4----4--0----|--2----2----------2----|
-----------------------|-----------------------|


                                                
-----------------------|-----------------------|
----------0----2--4----|-----------------------|
--2----2---------------|----------2----2-------|
-----------------------|--3----3----------3----|


                                                
-----------------------|-----------------------|
------------------0----|----------2----2--0----|
----------2----4-------|--0----0---------------|
--3----3---------------|-----------------------|


                                                
-----------------------|-----------------------|
-----2-----------------|--0----0--4----4--0----|
--4-------4----4--0----|-----------------------|
-----------------------|-----------------------|


                                                
-----------------------|-----------------------|
-----------------------|----------0----0-------|
--0----0--4----4--0----|--2----2----------2----|
-----------------------|-----------------------|


                                                
-----------------------|-----------------------|
----------0----2--4----|-----------------------|
--2----2---------------|----------2----2-------|
-----------------------|--3----3----------3----|


                                                 
-----------------------|--2--0-------0----------|
------------------0----|----------4-----4----2--|
----------2----4-------|------------------------|
--3----3---------------|------------------------|


                                              
------------------------|--------------------|
--4--2----0--2--0-------|--------------------|
-------------------4----|--------------------|
------------------------|--3------3----------|


                                            
--------------------|----------------------|
------------4--4----|----------------------|
--------------------|----------------------|
--------------------|--2--2----2--2--------|


                                          
------------2-------|--------------------|
---------------4----|--------------------|
--------------------|--------------------|
--------------------|--3------3----------|


                                             
--------------------|-----------------------|
------------4--4----|--------------------2--|
--------------------|-----------------------|
--------------------|--2--2----2--2---------|


                                               
----------------------|-----------------------|
----0---------0-------|----------0----0-------|
---------4-------4----|-----------------------|
----------------------|--3----3----------3----|


                                                
-----------------------|-----------------------|
----------0----0-------|----------2----2-------|
-----------------------|--0----0----------0----|
--4----4----------4----|-----------------------|


                                                
-----------------------|------------------4----|
----------2----2-------|----------4----4-------|
--1----1----------1----|--2----2---------------|
-----------------------|-----------------------|


                         
--4--2------------------|
----------4----2--4--2--|
------------------------|
------------------------|


                           
--4--2--0--2--0-----0-----|
-----------------4-----4--|
--------------------------|
--------------------------|


                           
--------------------------|
--2--4--2--0--2--0--------|
--------------------4--0--|
--------------------------|


                                                
-----------------------|-----------------------|
--0----0---------------|--0----0--4----4--0----|
----------0----0--4----|-----------------------|
-----------------------|-----------------------|


                                                
-----------------------|-----------------------|
-----------------------|-----------------------|
--0----0--4----4--0----|--1----1--4----4--1----|
-----------------------|-----------------------|


                                                
-----------------------|-----------------------|
-------0-------0-------|-------0-------0-------|
--2-------1-------1----|--0--------------------|
-----------------------|----------4-------4----|


                                                 
------------------------|-----------------------|
----------0----0-----0--|--2----2--0----0-------|
------------------4-----|------------------4----|
--3----3----------------|-----------------------|


                                                
-----------------------|-----------------------|
--0----0---------------|--0----0--4----4--0----|
----------0----0--4----|-----------------------|
-----------------------|-----------------------|


                                                
-----------------------|-----------------------|
------------------0----|--2--0---------0-------|
--0----0--4----4-------|----------4-------4----|
-----------------------|-----------------------|


                                                
-----------------------|-----------------------|
-------0-------0-------|-------0-------0-------|
--2-------1-------2----|--0---------------0----|
-----------------------|----------4------------|


                                               
------------------------|---------------------|
----------0----0-----0--|------2----0---------|
------------------4-----|----------------4----|
--3----3----------------|---------------------|


                                          
---------------2----|--7------------7----|
--0-----------------|--------------------|
--------------------|--------------------|
--------------------|--------------------|


                                                 
--7----7--7----7--7----|--7----7--7--6--7-------|
-----------------------|-------------------7----|
-----------------------|------------------------|
-----------------------|------------------------|


                           
--------------------------|
--------0--------0--------|
-----0--------0--------0--|
--3--------3--------3-----|


                           
--------------------------|
--------0--------0--------|
-----0--------0--------0--|
--2--------2--------2-----|


                           
--------------------------|
--------0--------0--------|
-----0--------0--------0--|
--3--------3--------3-----|


                                                 
--------------------------|---------------------|
--------0--------0--------|---------------------|
-----0--------0--------0--|---------------------|
--2--------2--------2-----|--3--3----3----------|


                                         
------------------|---------------------|
------------------|---------------------|
------------------|--0--0----0----------|
------------------|---------------------|


                                           
--------------------|---------------------|
------------4--4----|---------------------|
--------------------|---------------------|
--------------------|--3--3----3----------|


                                           
--------------------|---------------------|
------------4--4----|---------------------|
--------------------|--0--0----0----------|
--------------------|---------------------|


                                                
----2----2--2--0-------|-----------------------|
------------------4----|----------0----0-------|
-----------------------|-----------------------|
-----------------------|--3----3----------3----|


                                                
-----------------------|-----------------------|
----------0----0-------|----------2----2-------|
-----------------------|--0----0----------0----|
--4----4----------4----|-----------------------|


                        
-----------------------|
----------2----2-------|
--1----1----------1----|
-----------------------|


                           
--------------------------|
--------0--------0-----0--|
--------------------------|
--3--3-----3--3-----3-----|


                           
--------------------------|
--------0--------0-----0--|
--------------------------|
--4--4-----4--4-----4-----|


                           
--------------------------|
--------2--------2-----2--|
--0--0-----0--0-----0-----|
--------------------------|


                                            
--------------------------|----------------|
--------2--------2-----2--|----------------|
--1--1-----1--1-----1-----|--2-------------|
--------------------------|---------3------|


                                  
----------------|----------------|
----------------|----------------|
--0-------------|--2-------------|
---------2------|---------3------|


                                  
----------------|----------------|
----------------|----------------|
--0-------------|--2-------------|
---------2------|---------3------|


                                  
----------------|----------------|
----------------|----------------|
--0-------------|--2-------------|
---------2------|---------3------|


                                       
------------------|-------------------|
------------------|--0----------------|
--0--0--0---------|-------------------|
-----------2------|-------------------|


                                        
-------------------|-------------------|
-------------------|-------------------|
--4----------------|--2----------------|
-------------------|-------------------|


                                          
--4------4--4--------|--0----------------|
---------------------|-------------------|
---------------------|-------------------|
---------------------|-------------------|


                                         
-------------------|--------------------|
--4----------------|--2-----------------|
-------------------|---------------2----|
-------------------|--------------------|


                                                  
----0--0--0-------------|------------------------|
-------------4----2--0--|-------0--2----0--------|
------------------------|----4-------------4--4--|
------------------------|------------------------|


                                                  
------------------------|------------------------|
----------2----0--------|-------4-----4----------|
----0--4----------4--2--|----2-----2-----2----2--|
------------------------|------------------------|


                          
----------------------0--|
--4-----4----------4-----|
-----2-----2----2--------|
-------------------------|


                                                  
-------0--2----0--------|----------2----0--------|
----4-------------4--4--|----0--4----------4--2--|
------------------------|------------------------|
------------------------|------------------------|


                         
-------2-----2----------|
--2-------2-----2----2--|
------------------------|
------------------------|


                              
--2-----2-----0--1--2--------|
-----2-----2-----------------|
-----------------------------|
-----------------------------|


                                                
-----------------------|-----------------------|
--0----0---------------|--0----0--4----4--0----|
----------0----0--4----|-----------------------|
-----------------------|-----------------------|


                                                
-----------------------|-----------------------|
-----------------------|-----------------------|
--0----0--4----4--0----|--1----1--4----4--1----|
-----------------------|-----------------------|


                                                
-----------------------|-----------------------|
-------0-------0-------|-------0-------0-------|
--2-------1-------1----|--0--------------------|
-----------------------|----------4-------4----|


                                                 
------------------------|-----------------------|
----------0----0-----0--|--2----2--0----0-------|
------------------4-----|------------------4----|
--3----3----------------|-----------------------|


                                                
-----------------------|-----------------------|
--0----0---------------|--0----0--4----4--0----|
----------0----0--4----|-----------------------|
-----------------------|-----------------------|


                                                
-----------------------|-----------------------|
------------------0----|--2--0---------0-------|
--0----0--4----4-------|----------4-------4----|
-----------------------|-----------------------|


                                                
-----------------------|-----------------------|
-------0-------0-------|-------0-------0-------|
--2-------1-------2----|--0---------------0----|
-----------------------|----------4------------|


                         
------------------------|
----------0----0-----0--|
------------------4-----|
--3----3----------------|


                           
--2--2--2--0--0--0--------|
--------------------4--4--|
--------------------------|
--------------------------|


                                                
-----------------------|-----------------------|
--0----0---------------|--0----0--4----4--0----|
----------0----0--4----|-----------------------|
-----------------------|-----------------------|


                                                
-----------------------|-----------------------|
-----------------------|-----------------------|
--0----0--4----4--0----|--1----1--4----4--1----|
-----------------------|-----------------------|


                                                
-----------------------|-----------------------|
-------0-------0-------|-------0-------0-------|
--2-------1-------1----|--0--------------------|
-----------------------|----------4-------4----|


                                                 
------------------------|-----------------------|
----------0----0-----0--|--2----2--0----0-------|
------------------4-----|------------------4----|
--3----3----------------|-----------------------|


                                                
-----------------------|-----------------------|
--0----0---------------|--0----0--4----4--0----|
----------0----0--4----|-----------------------|
-----------------------|-----------------------|


                                                
-----------------------|-----------------------|
------------------0----|--2--0---------0-------|
--0----0--4----4-------|----------4-------4----|
-----------------------|-----------------------|


                                                
-----------------------|-----------------------|
-------0-------0-------|-------0-------0-------|
--2-------1-------2----|--0---------------0----|
-----------------------|----------4------------|


                         
------------------------|
----------0----0-----0--|
------------------4-----|
--3----3----------------|


                           
--2--2--2--0--0--0--------|
--------------------4--4--|
--------------------------|
--------------------------|


                           
--------------------------|
--------------------------|
--2--2--2--2--2--2--2--2--|
--------------------------|


                           
--------------------------|
--------------------------|
--------------------------|
--3--3--3--3--3--3--3--3--|


                           
--------------------------|
--------------------------|
--0--0--0--0--0--0--0--0--|
--------------------------|


                           
--------------------------|
--------------------------|
--------------------------|
--2--2--2--2--2--2--2--2--|


                           
--------------------------|
--------------------------|
--2--2--2--2--2--2--2--2--|
--------------------------|


                           
--------------------------|
--------------------------|
--------------------------|
--3--3--3--3--3--3--3--3--|


                           
--------------------------|
--------------------------|
--0--0--0--0--0--0--0--0--|
--------------------------|


                           
--------------------------|
--------------------------|
--------------------------|
--2--2--2--2--2--2--2--2--|


                           
--------------------------|
--------------------------|
--2--2--2--2--2--2--2--2--|
--------------------------|


                           
--------------------------|
--------------------------|
--------------------------|
--3--3--3--3--3--3--3--3--|


                           
--------------------------|
--------------------------|
--0--0--0--0--0--0--0--0--|
--------------------------|


                           
--------------------------|
--------------------------|
--------------------------|
--2--2--2--2--2--2--2--2--|


                           
--------------------------|
--------------------------|
--2--2--2--2--2--2--2--2--|
--------------------------|


                           
--------------------------|
--------------------------|
--------------------------|
--3--3--3--3--3--3--3--3--|


                           
--------------------------|
--------------------------|
--0--0--0--0--0--0--0--0--|
--------------------------|


                                            
--------------------------|----------------|
--------------------------|----------------|
--------------------------|--2-------------|
--2--2--2--2--2--2--2--2--|---------3------|


                                  
----------------|----------------|
----------------|----------------|
--0-------------|--2-------------|
---------2------|---------3------|


                                  
----------------|----------------|
----------------|----------------|
--0-------------|--2-------------|
---------2------|---------3------|


                                  
----------------|----------------|
----------------|----------------|
--0-------------|--2-------------|
---------2------|---------3------|


                    
------------------||
------------------||
--0--0--0---------||
-----------2------||
comments
We did not receive enough feedback on this tab! Please rate:
print report bad tab
1 2 3 4 5
I want to post or [tab]
guest
You may want to rate the tab now too:
select rating
Please do not post tabs as comments. Select "correction" instead!