Oops, an error
Loading. Please wait.

Cest La Vie Tab

3,612 views 12 this week
no commentswrite comment
1 2 3 4 5
please rate
add to favorites launch autoscroll
font size
0
reset
Autoscroll
+/-
esc
set tempo
stop
WARNING: You are trying to view
                                    content from Ultimate-Guitar.com
                                    in an unauthorized application,
                                    which is prohibited.

                                    Please use an official Ultimate
                                    Guitar Tabs application for iPhone,
                                    iPad or Android to access legitimate
                                    chords, guitar, bass, and drum tabs
                                    from Ultimate-Guitar.com database.

                                    Type "ultimate guitar tabs" in Apple
                                    App Store's or Android Market's
                                    search to find the application.
                         C'est la vie                                   



                                                                            
E||------------------|--------2-----------1-----|--------1-----------4--2--|
B||------------------|-----4-----4-----2-----2--|-----2-----2-----4--------|
G||------------------|--4-----------4-----------|--3-----------3-----------|
D||------------------|--------------------------|--------------------------|
A||------------------|--------------------------|--------------------------|
E||------------------|--------------------------|--------------------------|


                                                  
--------2--------------6--|-----------6b---------|
-----4-----4-----2--6-----|--------5-------------|
--4-----------4-----------|-----6----------------|
--------------------------|--8-------------------|
--------------------------|----------------------|
--------------------------|----------------------|


                                                           
--7--7--7---9---9---9--9---9---|--6--6--6---6--6--6-6--6--|
--7--7--7---9---9---9--9---9---|--6--6--6---7--7--7-7--7--|
--8--8--8---10--10--10-10--10--|--6--6--6---8--8--8-8--8--|
--9--9--9---9---9---9--9---9---|--8--8--8---8--8--8-8--8--|
--9--9--9---11--11--11-11--11--|--8--8--8---6--6--6-6--6--|
--7--7--7---9---9---9--9---9---|--6--6--6-----------------|


                                                             
--7--7--7---9---9---9--9---9---|--7--6-7-6------------------|
--7--7--7---9---9---9--9---9---|-----------7----------------|
--8--8--8---10--10--10-10--10--|--------------6----4--4--3--|
--9--9--9---9---9---9--9---9---|----------------------------|
--9--9--9---11--11--11-11--11--|----------------------------|
--7--7--7---9---9---9--9---9---|----------------------------|


                                                           
--7--7--7---9---9---9--9---9---|--6--6--6---6--6--6-6--6--|
--7--7--7---9---9---9--9---9---|--6--6--6---7--7--7-7--7--|
--8--8--8---10--10--10-10--10--|--6--6--6---8--8--8-8--8--|
--9--9--9---9---9---9--9---9---|--8--8--8---8--8--8-8--8--|
--9--9--9---11--11--11-11--11--|--8--8--8---6--6--6-6--6--|
--7--7--7---9---9---9--9---9---|--6--6--6-----------------|


                                                          
--7--7--7---9---9---9--9---9---|-----------6-------------|
--7--7--7---9---9---9--9---9---|--------7--7----7--------|
--8--8--8---10--10--10-10--10--|-----6-----6-------6-----|
--9--9--9---9---9---9--9---9---|--8--------8----------8--|
--9--9--9---11--11--11-11--11--|-------------------------|
--7--7--7---9---9---9--9---9---|-------------------------|


                                                                          
-----------6-------------|--2--------1--------|--2--2--2---1--1--1-1--1--|
--------7--7----7--------|--2--------2--------|--4--4--4---2--2--2-2--2--|
-----6-----6-------6-----|--3--------1--------|--3--3--3---3--3--3-3--3--|
--8--------8----------8--|--------------------|--------------------------|
-------------------------|--------------------|--------------------------|
-------------------------|--------------------|--------------------------|


                                                      
--2--2--2---2--2--2-2--2--|--4--4--4---1--1--1-2--1--|
--4--4--4---2--2--2-2--2--|--4--4--4---2--2--2-2--2--|
--4--4--4---3--3--3-3--3--|--4--4--4---1--1--1-1--1--|
--------------------------|--------------------------|
--------------------------|--------------------------|
--------------------------|--------------------------|


                                                      
--2--2--2---1--1--1-1--1--|--2--2--2---1--1--1-1--1--|
--2--2--2---2--2--2-2--2--|--4--4--4---2--2--2-2--2--|
--3--3--3---1--1--1-1--1--|--3--3--3---1--1--1-1--1--|
--------------------------|--------------------------|
--------------------------|--------------------------|
--------------------------|--------------------------|


                                                                            
--2--2--2---2--2--2-2--2--|--4--4--4---1------------|-----------6----------|
--4--4--4---2--2--2-2--2--|--4--4--4-------2--4--0--|-----------6----------|
--4--4--4---3--3--3-3--3--|--4--4--4----------------|-----------6----------|
--------------------------|-------------------------|--------8-------------|
--------------------------|-------------------------|-----8----------------|
--------------------------|-------------------------|--6-------------------|


                                                                        
-----------6----------|-----------4----------|-------------------------|
-----------7----------|-----------4----------|-----------6-------------|
--------8-------------|-----------4----------|--------6-------6--8--4--|
-----8----------------|--------6-------------|-----6-------------------|
--6-------------------|-----6----------------|--4----------------------|
----------------------|--4-------------------|-------------------------|


                                                                     
-----------6----------|-----------6----------|----------------------|
-----------6----------|-----------7----------|----------------------|
-----------6----------|--------8-------------|---------3----4---5---|
--------8-------------|-----8----------------|----6----3----4---5---|
-----8----------------|--6-------------------|----6----1----2---3---|
--6-------------------|----------------------|----4-----------------|


                                                         
------------------------|--7--7--7---9---9---9--9---9---|
------------------------|--7--7--7---9---9---9--9---9---|
--6---4---3----1--------|--8--8--8---10--10--10-10--10--|
------------------4--3--|--9--9--9---9---9---9--9---9---|
------------------------|--9--9--9---11--11--11-11--11--|
------------------------|--7--7--7---9---9---9--9---9---|


                                                           
--6--6--6---6--6--6-6--6--|--7--7--7---9---9---9--9---9---|
--6--6--6---7--7--7-7--7--|--7--7--7---9---9---9--9---9---|
--6--6--6---8--8--8-8--8--|--8--8--8---10--10--10-10--10--|
--8--8--8---8--8--8-8--8--|--9--9--9---9---9---9--9---9---|
--8--8--8---6--6--6-6--6--|--9--9--9---11--11--11-11--11--|
--6--6--6-----------------|--7--7--7---9---9---9--9---9---|


                                                             
--7--6-7-6------------------|--7--7--7---9---9---9--9---9---|
-----------7----------------|--7--7--7---9---9---9--9---9---|
--------------6----4--4--3--|--8--8--8---10--10--10-10--10--|
----------------------------|--9--9--9---9---9---9--9---9---|
----------------------------|--9--9--9---11--11--11-11--11--|
----------------------------|--7--7--7---9---9---9--9---9---|


                                                                               
--6--6--6---6--6--6-6--6--|--7--7--7---9---9---9--9---9---|--2----------------|
--6--6--6---7--7--7-7--7--|--7--7--7---9---9---9--9---9---|--2----------------|
--6--6--6---8--8--8-8--8--|--8--8--8---10--10--10-10--10--|--3----------------|
--8--8--8---8--8--8-8--8--|--9--9--9---9---9---9--9---9---|--4----------------|
--8--8--8---6--6--6-6--6--|--9--9--9---11--11--11-11--11--|--4----------------|
--6--6--6-----------------|--7--7--7---9---9---9--9---9---|--2----------------|


                                                                           
------------------------|------------------------|--2--2---2--2----2--2---|
------------------------|------------------------|--2--2---2--2----2--2---|
------------------------|--3--3---3--3----3--3---|--3--3---3--3----3--3---|
--4--4---4--4----4--4---|--4--4---4--4----4--4---|--4--4---4--4----4--4---|
--4--4---4--4----4--4---|--4--4---4--4----4--4---|--4--4---4--4----4--4---|
--2--2---2--2----2--2---|--2--2---2--2----2--2---|--2--2---2--2----2--2---|


                                                                          
--6--6---6--6----6------|------------9--7--9--6~-|--------6--9--7--9-----|
--7--7---7--7----7------|--7------7--------------|--------------------7~-|
--6--6---6--6----6-6----|------------------------|-----------------------|
--8--8---8--8----8------|------------------------|-----------------------|
------------------------|------------------------|-----------------------|
------------------------|------------------------|-----------------------|


                                                                       
-----------------------|----------6----6-----|------------9--7--9--6--|
--------7--9--7--9--9r-|------------------9--|--7------7--------------|
-----------------------|---------------------|------------------------|
-----------------------|---------------------|------------------------|
-----------------------|---------------------|------------------------|
-----------------------|---------------------|------------------------|


                                                                    
--------6--9--7--9-----|-----------------------|-------------------|
--------------------7~-|--------7--9--7--7--6--|----7--------------|
-----------------------|-----------------------|-------------------|
-----------------------|-----------------------|-------------------|
-----------------------|-----------------------|-------------------|
-----------------------|-----------------------|-------------------|


                                                                      
----------14--------------14------|----------14--------------14------|
------14------14------14------14--|------14------14------14------14--|
--16--------------15--------------|--16--------------15--------------|
----------------------------------|----------------------------------|
----------------------------------|----------------------------------|
----------------------------------|----------------------------------|


                                                                      
----------14--------------14------|----------14--------------14------|
------14------14------14------14--|------14------14------14------14--|
--16--------------15--------------|--16--------------15--------------|
----------------------------------|----------------------------------|
----------------------------------|----------------------------------|
----------------------------------|----------------------------------|


                                                                      
----------14--------------14------|----------14--------------14------|
------14------14------14------14--|------14------14------14------14--|
--16--------------15--------------|--16--------------15--------------|
----------------------------------|----------------------------------|
----------------------------------|----------------------------------|
----------------------------------|----------------------------------|


                                                                      
----------14--------------14------|----------14--------------14------|
------14------14------14------14--|------14------14------14------14--|
--16--------------15--------------|--16--------------15--------------|
----------------------------------|----------------------------------|
----------------------------------|----------------------------------|
----------------------------------|----------------------------------|


                                                                           
--2--------1--------|--2--2--2---1--1--1-1--1--|--2--2--2---2--2--2-2--2--|
--2--------2--------|--4--4--4---2--2--2-2--2--|--4--4--4---2--2--2-2--2--|
--3--------1--------|--3--3--3---3--3--3-3--3--|--4--4--4---3--3--3-3--3--|
--------------------|--------------------------|--------------------------|
--------------------|--------------------------|--------------------------|
--------------------|--------------------------|--------------------------|


                                                      
--4--4--4---1--1--1-2--1--|--2--2--2---1--1--1-1--1--|
--4--4--4---2--2--2-2--2--|--2--2--2---2--2--2-2--2--|
--4--4--4---1--1--1-1--1--|--3--3--3---1--1--1-1--1--|
--------------------------|--------------------------|
--------------------------|--------------------------|
--------------------------|--------------------------|


                                                                                
--2--2--2---1--1--1-1--1--|--2--2--2---2--2--2-2--2--|--4--4--4---1------------|
--4--4--4---2--2--2-2--2--|--4--4--4---2--2--2-2--2--|--4--4--4-------2--4--0--|
--3--3--3---1--1--1-1--1--|--4--4--4---3--3--3-3--3--|--4--4--4----------------|
--------------------------|--------------------------|-------------------------|
--------------------------|--------------------------|-------------------------|
--------------------------|--------------------------|-------------------------|


                                                                     
-----------6----------|-----------6----------|-----------4----------|
-----------6----------|-----------7----------|-----------4----------|
-----------6----------|--------8-------------|-----------4----------|
--------8-------------|-----8----------------|--------6-------------|
-----8----------------|--6-------------------|-----6----------------|
--6-------------------|----------------------|--4-------------------|


                                                                        
-------------------------|-----------6----------|-----------6----------|
-----------6-------------|-----------6----------|-----------7----------|
--------6-------6--8--4--|-----------6----------|--------8-------------|
-----6-------------------|--------8-------------|-----8----------------|
--4----------------------|-----8----------------|--6-------------------|
-------------------------|--6-------------------|----------------------|


                                                                         
----------------------|------------------------|---------------4--2--1--|
----------------------|------------------------|--2---------------------|
---------3----4---5---|--6---4---3----1--------|------4---3-------------|
----6----3----4---5---|------------------4--3--|------------------------|
----6----1----2---3---|------------------------|------------------------|
----4-----------------|------------------------|------------------------|


                                                           
--7--7--7---9---9---9--9---9---|--6--6--6---6--6--6-6--6--|
--7--7--7---9---9---9--9---9---|--6--6--6---7--7--7-7--7--|
--8--8--8---10--10--10-10--10--|--6--6--6---8--8--8-8--8--|
--9--9--9---9---9---9--9---9---|--8--8--8---8--8--8-8--8--|
--9--9--9---11--11--11-11--11--|--8--8--8---6--6--6-6--6--|
--7--7--7---9---9---9--9---9---|--6--6--6-----------------|


                                                             
--7--7--7---9---9---9--9---9---|--7--6-7-6------------------|
--7--7--7---9---9---9--9---9---|-----------7----------------|
--8--8--8---10--10--10-10--10--|--------------6----4--4--3--|
--9--9--9---9---9---9--9---9---|----------------------------|
--9--9--9---11--11--11-11--11--|----------------------------|
--7--7--7---9---9---9--9---9---|----------------------------|


                                                           
--7--7--7---9---9---9--9---9---|--6--6--6---6--6--6-6--6--|
--7--7--7---9---9---9--9---9---|--6--6--6---7--7--7-7--7--|
--8--8--8---10--10--10-10--10--|--6--6--6---8--8--8-8--8--|
--9--9--9---9---9---9--9---9---|--8--8--8---8--8--8-8--8--|
--9--9--9---11--11--11-11--11--|--8--8--8---6--6--6-6--6--|
--7--7--7---9---9---9--9---9---|--6--6--6-----------------|


                                                                           
--7--7--7---9---9---9--9---9---|--2----------------|-----------------4----|
--7--7--7---9---9---9--9---9---|--2----------------|------------4---------|
--8--8--8---10--10--10-10--10--|--3----------------|-------4--------------|
--9--9--9---9---9---9--9---9---|--4----------------|--6-------------------|
--9--9--9---11--11--11-11--11--|--4----------------|----------------------|
--7--7--7---9---9---9--9---9---|--2----------------|----------------------|


                                                                   
--8---8---8----10--10--10-10--10--|--7--7--7---7---7---7--7---7---|
--8---8---8----10--10--10-10--10--|--7--7--7---8---8---8--8---8---|
--9---9---9----11--11--11-11--11--|--7--7--7---9---9---9--9---9---|
--10--10--10---10--10--10-10--10--|--9--9--9---9---9---9--9---9---|
--10--10--10---12--12--12-12--12--|--9--9--9---10--10--10-10--10--|
--8---8---8----10--10--10-10--10--|--7--7--7----------------------|


                                                                
--8---8---8----10--10--10-10--10--|--8--7-8-7------------------|
--8---8---8----10--10--10-10--10--|-----------8----------------|
--9---9---9----11--11--11-11--11--|--------------7----5--5--4--|
--10--10--10---10--10--10-10--10--|----------------------------|
--10--10--10---12--12--12-12--12--|----------------------------|
--8---8---8----10--10--10-10--10--|----------------------------|


                                                                   
--8---8---8----10--10--10-10--10--|--7--7--7---7---7---7--7---7---|
--8---8---8----10--10--10-10--10--|--7--7--7---8---8---8--8---8---|
--9---9---9----11--11--11-11--11--|--7--7--7---9---9---9--9---9---|
--10--10--10---10--10--10-10--10--|--9--9--9---9---9---9--9---9---|
--10--10--10---12--12--12-12--12--|--9--9--9---10--10--10-10--10--|
--8---8---8----10--10--10-10--10--|--7--7--7----------------------|


                                                            
--8---8---8----10--10--10-10--10--|----7---7---7---7--7-7--|
--8---8---8----10--10--10-10--10--|----8---8---8---8--8-8--|
--9---9---9----11--11--11-11--11--|----7---7---7---7--7-7--|
--10--10--10---10--10--10-10--10--|----9---9---9---9--9-9--|
--10--10--10---12--12--12-12--12--|------------------------|
--8---8---8----10--10--10-10--10--|------------------------|


                                                                   
--8---8---8----10--10--10-10--10--|--7--7--7---7---7---7--7---7---|
--8---8---8----10--10--10-10--10--|--7--7--7---8---8---8--8---8---|
--9---9---9----11--11--11-11--11--|--7--7--7---9---9---9--9---9---|
--10--10--10---10--10--10-10--10--|--9--9--9---9---9---9--9---9---|
--10--10--10---12--12--12-12--12--|--9--9--9---10--10--10-10--10--|
--8---8---8----10--10--10-10--10--|--7--7--7----------------------|


                                                                
--8---8---8----10--10--10-10--10--|--8--7-8-7------------------|
--8---8---8----10--10--10-10--10--|-----------8----------------|
--9---9---9----11--11--11-11--11--|--------------7----5--5--4--|
--10--10--10---10--10--10-10--10--|----------------------------|
--10--10--10---12--12--12-12--12--|----------------------------|
--8---8---8----10--10--10-10--10--|----------------------------|


                                                                   
--8---8---8----10--10--10-10--10--|--7--7--7---7---7---7--7---7---|
--8---8---8----10--10--10-10--10--|--7--7--7---8---8---8--8---8---|
--9---9---9----11--11--11-11--11--|--7--7--7---9---9---9--9---9---|
--10--10--10---10--10--10-10--10--|--9--9--9---9---9---9--9---9---|
--10--10--10---12--12--12-12--12--|--9--9--9---10--10--10-10--10--|
--8---8---8----10--10--10-10--10--|--7--7--7----------------------|


                                                       
--8---8---8----10--10--10-10--10--|--7----------------|
--8---8---8----10--10--10-10--10--|--8----------------|
--9---9---9----11--11--11-11--11--|--7----------------|
--10--10--10---10--10--10-10--10--|--9----------------|
--10--10--10---12--12--12-12--12--|-------------------|
--8---8---8----10--10--10-10--10--|-------------------|


                                                      
--------3-----------2-----|--------2-----------5--3--|
-----5-----5-----3-----3--|-----3-----3-----4--------|
--5-----------5-----------|--4-----------4-----------|
--------------------------|--------------------------|
--------------------------|--------------------------|
--------------------------|--------------------------|


                                                        
--------3-----------2-----|--8--7-8-7------------------|
-----5-----5-----3-----3--|-----------8----------------|
--5-----------5-----------|--------------7----5--5--4--|
--------------------------|----------------------------|
--------------------------|----------------------------|
--------------------------|----------------------------|


                                                      
--------3-----------2-----|--------2-----------5--3--|
-----5-----5-----3-----3--|-----3-----3-----5--------|
--5-----------5-----------|--4-----------4-----------|
--------------------------|--------------------------|
--------------------------|--------------------------|
--------------------------|--------------------------|


                                                                   
--------3-----------2--7--|--3----------------|------------------||
-----5-----5-----3--------|--3----------------|------------------||
--5-----------4-----------|--4----------------|------------------||
--------------------------|--5----------------|------------------||
--------------------------|-------------------|------------------||
--------------------------|-------------------|------------------||
comments
We did not receive enough feedback on this tab! Please rate:
1 2 3 4 5
I want to post or [tab]
guest
You may want to rate the tab now too:
select rating
Please do not post tabs as comments. Select "correction" instead!