Oops, an error
Loading. Please wait.

Drivers High Tab

32,673 views 93 this week
2 commentsread comments
1 2 3 4 5
accurate
x 7
add to favorites launch autoscroll
font size
0
reset
Autoscroll
+/-
esc
set tempo
stop
WARNING: You are trying to view
                                    content from Ultimate-Guitar.com
                                    in an unauthorized application,
                                    which is prohibited.

                                    Please use an official Ultimate
                                    Guitar Tabs application for iPhone,
                                    iPad or Android to access legitimate
                                    chords, guitar, bass, and drum tabs
                                    from Ultimate-Guitar.com database.

                                    Type "ultimate guitar tabs" in Apple
                                    App Store's or Android Market's
                                    search to find the application.
 Tab by Danar Aditya


 Intro

 /------3X------\              /------2X------\-------------------------------|
e|-4-4-2--4-2---|-4-4-4--2-4-2-|-4-4-2--4-2---|-5-7—4========|----------------|
B|--------------|--------------|--------------|--------------|----------------|
G|--------------|--------------|--------------|--------------|----------------|
D|--------------|--------------|--------------|--------------|----------------|
A|--------------|--------------|--------------|--------------|----------------|
E|--------------|--------------|--------------|--------------|----------------|

e|--------------|-------7s19===|=====---------19==|======---------19==|====---19b20-|-19-17---------19=|
B|--------------|--------------|--------16-17-----|---------16-17-----|-------------|---------15-17----|
G|--------------|--------------|------------------|-------------------|-------------|------------------|
D|--------------|--------------|------------------|-------------------|-------------|------------------|
A|--------------|--------------|------------------|-------------------|-------------|------------------|
E|--------------|--------------|------------------|-------------------|-------------|------------------|

e|====----24--24-|---23--23s19--19--17--|---16======|===s6--------|
B|---------------|----------------------|-----------|-------------|
G|---------------|----------------------|-----------|-------------|
D|---------------|----------------------|-----------|-------------|
A|---------------|----------------------|-----------|-------------|
E|---------------|----------------------|-----------|-------------|

Verse

e|---0-0-0-0-0-0-0-0-|-0-0-0-0-0-0-0----|--0---------------|-11-9-------4---4---|-0---4---2-----|
B|---2-2-2-2-2-2-2-2-|-2-2-2-2-2-2-2----|--2---------------|------9-----5---5---|-2-------4-----|
G|*--1-1-1-1-1-1-1-1-|-1-1-1-1-1-1-1----|--2---------------|--------9-8-6---6---|-2-------4----*|
D|*--2-2-2-2-2-2-2-2-|-2-2-2-2-2-2-2----|--2-6-4-6-4-------|------------6---6---|-2-------4----*|
A|---0-0-0-0-0-0-0-0-|-0-0-0-0-0-0-0----|--0---------------|------------4---4---|-0-------2-----|
E|---0-0-0-0-0-0-0-0-|-0-0-0-0-0-0-0----|------------------|--------------------|---------------|

e|-------9---9-----11-11-9-11-11-11-----11---11---14-14-13-9----|-0----2----|
B|---4s5---4---4s7------------------7s9----9----9---------------|-2----4----|
G|--------------------------------------------------------------|-2----4----|
D|--------------------------------------------------------------|-2----4----|
A|--------------------------------------------------------------|-0----2----|
E|--------------------------------------------------------------|-----------|

e|----7s19==|===--------19--|-----21-19-17--|-17---16-16----16-16--|-------16-----19-|-------------19-|
B|----------|-----16-17-----|---------------|------------19--------|----19----17-----|-17-16-17-17----|
G|----------|---------------|---------------|----------------------|-----------------|----------------|
D|----------|---------------|---------------|----------------------|-----------------|----------------|
A|----------|---------------|---------------|----------------------|-----------------|----------------|
E|----------|---------------|---------------|----------------------|-----------------|----------------|

e|-------------------|-------------|--------|
B|--17-16-17--17--19-|-b21-19-17~~~|~~~~~~--|
G|-------------------|-------------|--------|
D|-------------------|-------------|--------|
A|-------------------|-------------|--------|
E|-------------------|-------------|--------|

e|---0-0-0-0-0-0-0-0-|-0-0-0-0-0-0-0----|--0---------------|-11-9-------4---4---|-0---4---2-----|
B|---2-2-2-2-2-2-2-2-|-2-2-2-2-2-2-2----|--2---------------|------9-----5---5---|-2-------4-----|
G|*--1-1-1-1-1-1-1-1-|-1-1-1-1-1-1-1----|--2---------------|--------9-8-6---6---|-2-------4----*|
D|*--2-2-2-2-2-2-2-2-|-2-2-2-2-2-2-2----|--2-6-4-6-4-------|------------6---6---|-2-------4----*|
A|---0-0-0-0-0-0-0-0-|-0-0-0-0-0-0-0----|--0---------------|------------4---4---|-0-------2-----|
E|---0-0-0-0-0-0-0-0-|-0-0-0-0-0-0-0----|------------------|--------------------|---------------|

e|-------9---9-----11-11-9-11-11-11-----11---11---14-14-13-9----|-0----2----|
B|---4s5---4---4s7------------------7s9----9----9---------------|-2----4----|
G|--------------------------------------------------------------|-2----4----|
D|--------------------------------------------------------------|-2----4----|
A|--------------------------------------------------------------|-0----2----|
E|--------------------------------------------------------------|-----------|

Chorus

e|------0=====|======-|-----2-2-0--0-0-0-2-2-0-0-0-0----|----2====|======|
B|------0=====|======-|-----2-2-2—-2-2-2-2-2-2-2-2-2----|----2====|======|
G|------1=====|======-|-----2-2-2—-2-2-2-2-2-2-2-2-2----|----1====|======|
D|------2=====|======-|-----2-2-2—-2-2-2-2-2-2-2-2-2----|----2====|======|
A|------2-----|-------|--0------------------------------|---------|------|
E|--0---------|-------|---------------------------------|---------|------|

e|-----2---|--2---2--2-2--|--4---4---4--4---4---5==|==-5-5-5--5-5-5--|--4---4---4---4---4--4==|==-4-4-4--4-4--|
B|-----2---|--4---4--4-4--|--4---4---4--4---4---5==|==-5-5-5--5-5-5--|--4---4---4---4---4--5==|==-5-5-5--5-5--|
G|-----2---|--4---4--4-4--|--4---4---4--4---4---6==|==-6-6-6--6-6-6--|--4---4---6---4---4--6==|==-6-6-6--6-6--|
D|-----2---|--4---4--4-4--|--6---6---6--6---6---7==|==-7-7-7--7-7-7--|--6---6---6---6---6--6==|==-6-6-6--6-6--|
A|--0------|--2---2--2-2--|--6---6---6--6---6---7==|==-7-7-7--7-7-7--|--6---6---6---6---6--4==|==-4-4-4--4-4--|
E|---------|--------------|--4---4---4--4---4---5==|==-5-5-5--5-5-5--|--4---4---4---4---4--4==|==-4-4-4--4-4--|

e|--2---2--2-2-2-|-2---2--2-2-2-|-2---2--2-2-2-|--2-2--2------|
B|--2---2--2-2-2-|-2---2--2-2-2-|-4---4--4-4-4-|--4-4--4------|
G|--2---2--2-2-2-|-2---2--2-2-2-|-4---4--4-4-4-|--4-4--4------|
D|--4---4--4-4-4-|-4---4--4-4-4-|-4---4--4-4-4-|--4-4--4------|
A|--4---4--4-4-4-|-4---4--4-4-4-|-2---2--2-2-2-|--2-2--2------|
E|--2---2--2-2-2-|-2---2--2-2-2-|--------------|--------------|

 Ken Solo

e|16===p14p12h16====p14p12h16p-|-14-12----12-----------------|--------------------------------|
B|-----------------------------|-------16----14-16-12-14-----|--------------------------------|
G|-----------------------------|-------------------------13--|-----13h15p14p13----------14-13-|
D|-----------------------------|-----------------------------|-----------------15p14p13-------|
A|-----------------------------|-----------------------------|--------------------------------|
E|-----------------------------|-----------------------------|--------------------------------|

e||---------------16--16--s19--|-19p17p16----16----19----|--------------------|----------------------|
B||--16----14------------------|----------19----17----16-|--17b19--19r17--16--|-16-17-17---19-19b21==|
G||-----13-----13--------------|-------------------------|--------------------|----------------------|
D||----------------------------|-------------------------|--------------------|----------------------|
A||----------------------------|-------------------------|--------------------|----------------------|
E||----------------------------|-------------------------|--------------------|----------------------|

e||-----------------|---16----19----|----------------------------|--------16--14h16p14---------|
B||=21-21-21--19s7--|------17----16-|---17-----------------------|--14------------------17-16==|
G||-----------------|---------------|-----16s14--14--13--10s13---|-----13----------------------|
D||-----------------|---------------|----------------------------|-----------------------------|
A||-----------------|---------------|----------------------------|-----------------------------|
E||-----------------|---------------|----------------------------|-----------------------------|

e|----------2s9--9-------9--------9--------|----9--------9-------|-------------------|---------|
B|=17-17s5---------12b13-------------------|--9------------------|--9----------------|---------|

huah..huah..
D|-----------------------------------------|---------------------|-------------------|---------|
A|-----------------------------------------|---------------------|-------------------|---------|
E|-----------------------------------------|---------------------|-------------------|---------|

e|--0----|--2----|--4----|--4----|--0----|--2----|--4----|
B|--2----|--4----|--4----|--5----|--2----|--4----|--5----|
G|--2----|--4----|--5----|--6----|--2----|--4----|--6----|
D|--2----|--4----|--6----|--6----|--2----|--4----|--6----|
A|--0----|--2----|--6----|--4----|--0----|--2----|--4----|
E|--0----|--2----|--4----|--4----|--0----|--2----|--4----|

e|-------9---9-----11-11-9-11-11-11-----11---11---14-14-13-9----|-0----2----|
B|---4s5---4---4s7------------------7s9----9----9---------------|-2----4----|
G|--------------------------------------------------------------|-2----4----|
D|--------------------------------------------------------------|-2----4----|
A|--------------------------------------------------------------|-0----2----|
E|--------------------------------------------------------------|-----------|

 Chorus

e|------0=====|======-|-----2-2-0--0-0-0-2-2-0-0-0-0----|----2====|======|
B|------0=====|======-|-----2-2-2—-2-2-2-2-2-2-2-2-2----|----2====|======|
G|------1=====|======-|-----2-2-2—-2-2-2-2-2-2-2-2-2----|----1====|======|
D|------2=====|======-|-----2-2-2—-2-2-2-2-2-2-2-2-2----|----2====|======|
A|------2-----|-------|--0------------------------------|---------|------|
E|--0---------|-------|---------------------------------|---------|------|

e|-----2---|--2---2--2-2--|--4---4---4--4---4---5==|==-5-5-5--5-5-5--|--4---4---4---4---4--4==|==-4-4-4--4-4--|
B|-----2---|--4---4--4-4--|--4---4---4--4---4---5==|==-5-5-5--5-5-5--|--4---4---4---4---4--5==|==-5-5-5--5-5--|
G|-----2---|--4---4--4-4--|--4---4---4--4---4---6==|==-6-6-6--6-6-6--|--4---4---6---4---4--6==|==-6-6-6--6-6--|
D|-----2---|--4---4--4-4--|--6---6---6--6---6---7==|==-7-7-7--7-7-7--|--6---6---6---6---6--6==|==-6-6-6--6-6--|
A|--0------|--2---2--2-2--|--6---6---6--6---6---7==|==-7-7-7--7-7-7--|--6---6---6---6---6--4==|==-4-4-4--4-4--|
E|---------|--------------|--4---4---4--4---4---5==|==-5-5-5--5-5-5--|--4---4---4---4---4--4==|==-4-4-4--4-4--|

e|--2---2--2-2-2-|-2---2--2-2-2-|-2---2--2-2-2-|--2-2--2------|
B|--2---2--2-2-2-|-2---2--2-2-2-|-4---4--4-4-4-|--4-4--4------|
G|--2---2--2-2-2-|-2---2--2-2-2-|-4---4--4-4-4-|--4-4--4------|
D|--4---4--4-4-4-|-4---4--4-4-4-|-4---4--4-4-4-|--4-4--4------|
A|--4---4--4-4-4-|-4---4--4-4-4-|-2---2--2-2-2-|--2-2--2------|
E|--2---2--2-2-2-|-2---2--2-2-2-|--------------|--------------|

 Ending

e|--7--s19==|====-------19==|======|======|====--19-17-16==|======|==s4--|------|----13s19-19=|====-------19===|
B|----------|-----16-17-----|------|------|----------------|------|------|------|-------------|-----16-17------|
G|----------|---------------|------|------|----------------|------|------|------|-------------|----------------|
D|----------|---------------|------|------|----------------|------|------|------|-------------|----------------|
A|----------|---------------|------|------|----------------|------|------|------|-------------|----------------|
E|----------|---------------|------|------|----------------|------|------|------|-------------|----------------|

e|=====|=====|-----|
B|-----|-----|-----|e
G|-----|-----|-----|n
D|-----|-----|-----|d
A|-----|-----|-----|
E|-----|-----|-----|

Garnet_qwerty@yahoo.com
2 comments total.
0 reply
TheHoxtonHeroes wrote on December 8 2008, 06:48 pm

this is really good... not much i find thats wrong. Any chance you could do a bass tab?

0 reply
Benji_The_Rocka wrote on June 29 2010, 03:57 pm

part of the the verse is missing and the last part of the solo is messed up. (idk why it says "huah.. huah...".) The chorus is hard to read, but other than those fatal flaws, the rest sounds dead on.

I want to post or [tab]
guest
You may want to rate the tab now too:
select rating
Please do not post tabs as comments. Select "correction" instead!