Oops, an error
Loading. Please wait.

Jiyuu E No Shotai Tab

4,590 views 15 this week
no commentswrite comment
1 2 3 4 5
accurate
x 1
add to favorites launch autoscroll
font size
0
reset
Autoscroll
+/-
esc
set tempo
stop
WARNING: You are trying to view
                                    content from Ultimate-Guitar.com
                                    in an unauthorized application,
                                    which is prohibited.

                                    Please use an official Ultimate
                                    Guitar Tabs application for iPhone,
                                    iPad or Android to access legitimate
                                    chords, guitar, bass, and drum tabs
                                    from Ultimate-Guitar.com database.

                                    Type "ultimate guitar tabs" in Apple
                                    App Store's or Android Market's
                                    search to find the application.
Jiyuu e no Shoutai (solo)                                [jiGz]

email: atomicjp@yahoo.com
want more larc en ciel tabs> just email me!

E||----------------------|--------------------|------------------------|
B||--17------------13/---|--17----------------|--15------17------18----|
G||----------------------|--------------------|------------------------|
D||----------------------|--------------------|------------------------|
A||----------------------|--------------------|------------------------|
E||----------------------|--------------------|------------------------|


                                                                       
--------------------|------------------------|------------------------|
--17b---------------|--15------17------18----|--20--------------------|
--------------------|------------------------|----------17------16----|
--------------------|------------------------|------------------------|
--------------------|------------------------|------------------------|
--------------------|------------------------|------------------------|


                                                                        
------------------------|------------------------|----------------8/---|
------------------------|--20b-------------------|---------------------|
--17------16------17----|----------------17--16--|--17b----------------|
------------------------|------------------------|---------------------|
------------------------|------------------------|---------------------|
------------------------|------------------------|---------------------|


                                                                             
--20----------------|--20b---------------|--20--19--17--19------------------|
--------------------|--------------------|------------------20r-20--22--20r-|
--------------------|--------------------|----------------------------------|
--------------------|--------------------|----------------------------------|
--------------------|--------------------|----------------------------------|
--------------------|--------------------|----------------------------------|


                                                         
------------------------------|-------------------------|
--18--20--18r-17--18--20------|-------------------------|
------------------------------|-------------------------|
------------------------------|--5----------------------|
------------------------------|--3----3--3--3--3--3--3--|
------------------------------|-------------------------|


                                                                               
--------------------------|--------------------------|------------------------|
--------------------------|--------------------------|------------------------|
--------------------------|--------------------------|------------------------|
--------------------------|--------------------------|------------------------|
--3--3--3--3--3--3--3--3--|--0--0--0--0--0--0--0--0--|--3----3----5--5--5--5--|
--------------------------|--------------------------|--1----1----3--3--3--3--|


                                                                                
-------------------------|--------------------------|--------------------------|
-------------------------|--------------------------|--------------------------|
-------------------------|--------------------------|--------------------------|
--5----------------------|--------------------------|--------------------------|
--3----3--3--3--3--3--3--|--3--3--3--3--3--3--3--3--|--0--0--0--0--0--0--0--0--|
-------------------------|--------------------------|--------------------------|


                                                                     
----------------------|--------------------|------------------------|
--19------------13/---|--17----------------|--15------17------18----|
----------------------|--------------------|------------------------|
----------------------|--------------------|------------------------|
----------------------|--------------------|------------------------|
----------------------|--------------------|------------------------|


                                                                       
--------------------|------------------------|------------------------|
--17b---------------|--15------17------18----|--20--------------------|
--------------------|------------------------|----------17------16----|
--------------------|------------------------|------------------------|
--------------------|------------------------|------------------------|
--------------------|------------------------|------------------------|


                                                                       
------------------------|------------------------|--------------------|
------------------------|--20b-------------------|--------------------|
--17------16------17----|----------------17--16--|--17b---------------|
------------------------|------------------------|--------------------|
------------------------|------------------------|--------------------|
------------------------|------------------------|--------------------|


                                                                                
-------------------------|--------------------------|--------------------------|
-------------------------|--------------------------|--------------------------|
-------------------------|--------------------------|--------------------------|
--5----------------------|--------------------------|--------------------------|
--3----3--3--3--3--3--3--|--3--3--3--3--3--3--3--3--|--0--0--0--0--0--0--0--0--|
-------------------------|--------------------------|--------------------------|


                                                                               
-------------------------|-------------------------|--------------------------|
-------------------------|-------------------------|--------------------------|
-------------------------|-------------------------|--------------------------|
-------------------------|--5----------------------|--------------------------|
--3----3--3--5--5--5--5--|--3----3--3--3--3--3--3--|--3--3--3--3--3--3--3--3--|
--1----1--1--3--3--3--3--|-------------------------|--------------------------|


                                                                            
--------------------------|-----------------------|------------------------|
--------------------------|-----------------------|------------------------|
--------------------------|-----------------------|------------------------|
--------------------------|-----------------------|------------------------|
--0--0--0--0--0--0--0--0--|--3----3----5--5--5----|--2----2----2--2--2--3--|
--------------------------|--1----1----3--3--3----|--0----0----0--0--0--1--|


                                                                         
-----------------------|------------------------|-----------------------|
-----------------------|------------------------|-----------------------|
-----------------------|------------------------|--5--0--5--7b---7b-----|
---------5----3--------|------------------------|--5--0--5--7b---7b-----|
----3------------3--5--|--5----5----------3/-5--|-----------------------|
----1------------------|--3----3----3/-5--------|-----------------------|


                                                                           
------------------------|-----------------------|-------------------------|
------------------------|-----------------------|-------------------------|
------------------------|-----------------------|-------------------------|
------------------------|---------5----3--------|--7----------------------|
--2----2----2--2--2--3--|----3------------3--5--|--5----5--5--5--5--5--5--|
--0----0----0--0--0--1--|----1------------------|-------------------------|


                                                                                
--------------------------|--------------------------|-------------------------|
--------------------------|--------------------------|-------------------------|
--------------------------|--------------------------|-------------------------|
--------------------------|--------------------------|-------------------------|
--5--5--5--5--5--5--5--3--|--------------------------|--------------5--5--5----|
--------------------------|--1--1--1--1--1--1--1--1--|--3--3--3--3--3--3--3----|


                                                              
------------------|-------------------|----------------------|
------------------|-------------------|----------------------|
------------------|--9----------------|--7------9------10----|
------------------|-------------------|----------------------|
------------------|-------------------|----------------------|
------------------|-------------------|----------------------|


                                                                     
---------------------|----------------------|-----------------------|
---------------------|----------------------|-----------------------|
--9------------------|--7-------------------|--10------9------10----|
-----------10--------|---------10------9----|-----------------------|
---------------------|----------------------|-----------------------|
---------------------|----------------------|-----------------------|


                                                                     
------------------------|-------------------|-----------------------|
------------------------|-------------------|-----------------------|
--14------12------10----|--7----------------|-----------------------|
------------------------|-------------------|--9------10------12----|
------------------------|-------------------|-----------------------|
------------------------|-------------------|-----------------------|


                                                                 
-------------------|----------------------|---------------------|
-------------------|----------------------|---------------------|
--9----------------|--7------9------10----|--9------------------|
-------------------|----------------------|-----------10--------|
-------------------|----------------------|---------------------|
-------------------|----------------------|---------------------|


                                                                  
----------------------|--------------------|---------------------|
----------------------|--------------------|---------------------|
--7-------------------|--10----------------|---------------------|
---------10------9----|--------------------|---------------------|
----------------------|--------------------|---------------------|
----------------------|--------------------|----------12/---3----|


                                                               
------------------|------------------|------------------------|
------------------|------------------|--------5----------5----|
------------------|------------------|--------5----------5----|
------------------|------------------|--------5----------5----|
------------------|------------------|--3--3-------3--3-------|
------------------|------------------|------------------------|


                                                                          
------------------------|------------------------|-----------------------|
--------5----------5----|--------5----------5----|-----------------------|
--------5----------5----|--------5----------5----|-----------------------|
--------5----------5----|--------5----------5----|-----------------------|
--3--3-------3--3-------|--3--3-------3--3-------|--3--3----5----5--5----|
------------------------|------------------------|--1--1----3----3--3----|


                                                                           
------------------------|------------------------|------------------------|
--------5----------5----|--------5----------5----|--------5----------5----|
--------5----------5----|--------5----------5----|--------5----------5----|
--------5----------5----|--------5----------5----|--------5----------5----|
--3--3-------3--3-------|--3--3-------3--3-------|--3--3-------3--3-------|
------------------------|------------------------|------------------------|


                                                                         
-----------------------|------------------------|-----------------------|
-----------------------|------------------------|-----------------------|
-----------------------|------------------------|-----------------------|
-----------------------|------------------------|---------5----3--------|
--3--3----5----5--5----|--2----2----2--2--2--3--|----3------------3--5--|
--1--1----3----3--3----|--0----0----0--0--0--1--|----1------------------|


                                                                           
-------------------------|-----------------------|------------------------|
-------------------------|-----------------------|------------------------|
-------------------------|--5--0--5--7b---7b-----|------------------------|
-------------------------|--5--0--5--7b---7b-----|------------------------|
--5----------3/-5--5--7--|-----------------------|--2----7----7--7--7--3--|
--3----3/-5--------------|-----------------------|--0----7----7--7--7--1--|


                                                                             
-----------------------|-------------------------|--------------------------|
-----------------------|-------------------------|--------------------------|
-----------------------|-------------------------|--------------------------|
-------5--3------------|--7----------------------|--------------------7--7--|
----x----------3----5--|--5----5--5--5--5--5--5--|--5--5--5--5--5--5--5--3--|
----x------------------|-------------------------|--------------------------|


                                                                        
--------------------------|-------------------------|------------------|
--------------------------|-------------------------|------------------|
--------------------------|-------------------------|------------------|
--------------------------|-------------------------|------------------|
--3--3--------------------|--------------5--5--5----|------------------|
--1--1--1--1--1--1--1--1--|--3--3--3--3--3--3--3----|------------------|


                                                                 
-------------------|----------------------|---------------------|
-------------------|----------------------|---------------------|
--9----------------|--7------9------10----|--9------------------|
-------------------|----------------------|-----------10--------|
-------------------|----------------------|---------------------|
-------------------|----------------------|---------------------|


                                                                        
----------------------|-----------------------|------------------------|
----------------------|-----------------------|------------------------|
--7-------------------|--10------9------10----|--14------12------10----|
---------10------9----|-----------------------|------------------------|
----------------------|-----------------------|------------------------|
----------------------|-----------------------|------------------------|


                                                                
-------------------|-----------------------|-------------------|
-------------------|-----------------------|-------------------|
--7----------------|-----------------------|--9----------------|
-------------------|--9------10------12----|-------------------|
-------------------|-----------------------|-------------------|
-------------------|-----------------------|-------------------|


                                                                    
----------------------|---------------------|----------------------|
----------------------|---------------------|----------------------|
--7------9------10----|--9------------------|--7-------------------|
----------------------|-----------10--------|---------10------9----|
----------------------|---------------------|----------------------|
----------------------|---------------------|----------------------|


                                                                    
----------5----------|----------3----------|----------12-----------|
----------5----------|----------3----------|----------12-----------|
---------------------|---------------------|-----------------------|
---------------------|---------------------|------------------5----|
--3----x-------------|--5----x-------------|--2----x----------5----|
--1----x-------------|--3----x-------------|--0----x---------------|


                                                                     
----------5----------|----------5----------|------------------------|
----------5----------|----------5----------|------------------------|
---------------------|---------------------|------------------------|
---------------------|---------------------|------------------------|
--7----x-------------|--3----x-------------|--5--5--5---------------|
--5----x-------------|--1----x-------------|--3--3--3----12/---3----|


                                                                     
----------------------|----------------------|----------------------|
----------------------|----------------------|----------------------|
----------------------|----------------------|----------------------|
----------------------|----------------------|----------------------|
-----5--3-------------|-----5--3-------------|-----5--3-------------|
--5--------5----------|--3--------5----------|--2--------5----------|


                                                                    
----------------------|---------------------|----------------------|
----------------------|---------------------|----------------------|
----------------------|---------------------|----------------------|
----------------------|---------------------|----------------------|
-----5--3-------------|--------3------------|-----------2----------|
--1--------5----------|--1--1--1------------|--3--3--3-------------|


                                                      
--------------------------|--------------------------|
--------------------------|--------------------------|
--------------------------|--------------------------|
--------------------------|--------------------------|
-----5--3-----5--3--------|-----5--3-----5--3--------|
--5--------5--------x--x--|--3--------3--------x--x--|


                                                                          
--------------------------|--------------------------|--1----------------|
--------------------------|--------------------------|--1----------------|
--------------------------|--------------------------|--2----------------|
--------------------------|--------------------------|--3----------------|
-----5--3-----5--3--------|-----5--3-----5--3--------|--3----------------|
--2--------2--------x--x--|--1--------1--------x--x--|--1----------------|


                                                               
--------------1----|--3----------------|----7/-19/---7/-------|
--------------1----|--3----------------|----------------------|
--------------2----|--4----------------|----------------------|
--------------3----|--5----------------|----------------------|
--------------3----|--5----------------|----------------------|
--------------1----|--3----------------|----------------------|


                                                      
--19r---19----------------|--------------------------|
----------------17----20b-|------22--------17----18--|
--------------------------|----------19--------------|
--------------------------|--------------------------|
--------------------------|--------------------------|
--------------------------|--------------------------|


                                                          
--------------------------|------------------------------|
--20--------20--18----17--|--18--17--18--17/-------------|
--------------------------|----------------------14--16--|
--------------------------|------------------------------|
--------------------------|------------------------------|
--------------------------|------------------------------|


                                                                  
----------------------------------|------------------------------|
----------------------------------|------------------------------|
--17--16--14----------------------|------------------------------|
--------------17--19--17--15--14--|----15--15h14h12--14--12b-----|
----------------------------------|------------------------------|
----------------------------------|------------------------------|


                                                                    
----------------------------------|--------------------------------|
----------------------------------|--------------------------------|
----------------------------------|--------------------------------|
--14--14--17--14--13--14--13--12--|--------------------------------|
----------------------------------|--15--12--15--17b---17--17b-17--|
----------------------------------|--------------------------------|


                                                                      
--10------12------13------15------|--17------19------20------22------|
----------------------------------|----------------------------------|
----------------------------------|----------------------------------|
----------------------------------|----------------------------------|
----------------------------------|----------------------------------|
------12------12------12------12--|------12------12------12------12--|


                                                                              
--20r---------------|------------------|------------------|------------------|
--------------------|------------------|------------------|------------------|
--------------------|------------------|------------------|------------------|
--------------------|------------------|------------------|------------------|
--------------------|------------------|------------------|------------------|
--------------------|------------------|------------------|------------------|


                                                                                
-------------------------|--------------------------|--------------------------|
-------------------------|--------------------------|--------------------------|
-------------------------|--------------------------|--------------------------|
--7----------------------|--------------------------|--------------------5-----|
--5----5--5--5--5--5--5--|--4--4--4--4--4--4--4--4--|--3--3--3--3--3--3--3--3--|
-------------------------|--------------------------|--------------------------|


                                                                               
------------------------|--------------------------|--------------------------|
------------------------|--------------------------|--------------------------|
------------------------|--------------------------|--------------------------|
------------------------|--------------------------|--------------------------|
--------2--5------------|--3--3--3--3--3--3--3--3--|--2--2--2--2--2--2--2--2--|
--3--3----------5--3----|--------------------------|--------------------------|


                                                      
--------------------------|--------------------------|
--------------------------|--------------------------|
--------------------------|--------------------------|
--------------------------|--------------------------|
--------------------------|--------------------------|
--5--5--5--5--5--5--5--5--|--3--3--3--3--3--3--3--3--|


                                                                          
--------------------------|--------------------------|-------------------|
--------------------------|--------------------------|-------------------|
--------------------------|--------------------------|--9----------------|
--------------------------|--------------------------|-------------------|
--------------------------|--------------------------|-------------------|
--1--1--1--1--1--1--1--1--|--3--3--3--3--3--3--3--3--|-------------------|


                                                                    
----------------------|---------------------|----------------------|
----------------------|---------------------|----------------------|
--7------9------10----|--9------------------|--7-------------------|
----------------------|-----------10--------|---------10------9----|
----------------------|---------------------|----------------------|
----------------------|---------------------|----------------------|


                                                                     
-----------------------|------------------------|-------------------|
-----------------------|------------------------|-------------------|
--10------9------10----|--14------12------10----|--7----------------|
-----------------------|------------------------|-------------------|
-----------------------|------------------------|-------------------|
-----------------------|------------------------|-------------------|


                                                                   
-----------------------|-------------------|----------------------|
-----------------------|-------------------|----------------------|
-----------------------|--9----------------|--7------9------10----|
--9------10------12----|-------------------|----------------------|
-----------------------|-------------------|----------------------|
-----------------------|-------------------|----------------------|


                                                                   
---------------------|----------------------|----------5----------|
---------------------|----------------------|----------5----------|
--9------------------|--7-------------------|---------------------|
-----------10--------|---------10------9----|---------------------|
---------------------|----------------------|--3----x-------------|
---------------------|----------------------|--1----x-------------|


                                                                    
----------3----------|----------12-----------|----------5----------|
----------3----------|----------12-----------|----------5----------|
---------------------|-----------------------|---------------------|
---------------------|------------------5----|---------------------|
--5----x-------------|--2----x----------5----|--7----x-------------|
--3----x-------------|--0----x---------------|--5----x-------------|


                                                                
----------5----------|--------------------|--------------------|
----------5----------|--------------13/---|--17----------------|
---------------------|--------------------|--------------------|
---------------------|--------------------|--------------------|
--3----x-------------|--------------------|--------------------|
--1----x-------------|--------------------|--------------------|


                                                                       
------------------------|--------------------|------------------------|
--15------17------18----|--17b---------------|--15------17------18----|
------------------------|--------------------|------------------------|
------------------------|--------------------|------------------------|
------------------------|--------------------|------------------------|
------------------------|--------------------|------------------------|


                                                                           
------------------------|------------------------|------------------------|
--20--------------------|------------------------|--20b-------------------|
----------17------16----|--17------16------17----|----------------17--16--|
------------------------|------------------------|------------------------|
------------------------|------------------------|------------------------|
------------------------|------------------------|------------------------|


                                                              
---------------------|--20b---------------|------------------|
---------------------|--------------------|------------------|
--17--------5/-------|--17----------------|------------------|
---------------------|--------------------|------------------|
---------------------|--------------------|------------------|
---------------------|--------------------|------------------|


                                                                               
----------15--------|-------------------|------------------|------------------|
--------------------|----------5--------|------------------|------------------|
--------------------|-------------------|------------------|------------------|
--------------------|-------------------|------------------|------------------|
--------------------|-------------------|------------------|------------------|
--------------------|-------------------|------------------|------------------|


                                                                            
------------------|------------------|------------------|------------------|
------------------|------------------|------------------|------------------|
------------------|------------------|------------------|------------------|
------------------|------------------|------------------|------------------|
------------------|------------------|------------------|------------------|
------------------|------------------|------------------|------------------|


                                                                            
------------------|------------------|------------------|------------------|
------------------|------------------|------------------|------------------|
------------------|------------------|------------------|------------------|
------------------|------------------|------------------|------------------|
------------------|------------------|------------------|------------------|
------------------|------------------|------------------|------------------|


                    
------------------||
------------------||
------------------||
------------------||
comments
We did not receive enough feedback on this tab! Please rate:
1 2 3 4 5
I want to post or [tab]
guest
You may want to rate the tab now too:
select rating
Please do not post tabs as comments. Select "correction" instead!