Oops, an error
Loading. Please wait.

Jiyuu E No Shoutai Tab

ver1
ver1

Whole song

Interactive

More versions @911Tabs.com
7,145 views 1 this week
no commentswrite comment
1 2 3 4 5
please rate
add to favorites launch autoscroll
font size
0
reset
Autoscroll
+/-
esc
set tempo
stop
Contributor
WARNING: You are trying to view
                                    content from Ultimate-Guitar.com
                                    in an unauthorized application,
                                    which is prohibited.

                                    Please use an official Ultimate
                                    Guitar Tabs application for iPhone,
                                    iPad or Android to access legitimate
                                    chords, guitar, bass, and drum tabs
                                    from Ultimate-Guitar.com database.

                                    Type "ultimate guitar tabs" in Apple
                                    App Store's or Android Market's
                                    search to find the application.
                              Jiyuu e no Shoutai                                

email: atomicjp@yahoo.com
guys, this is the 2nd guitar of the song
                                                                             
Guitar 2



                                                                   
E||------------------|---------------------|----------------------|
B||------------------|--5------------------|-------------------5--|
G||------------------|--5------------------|-------------------5--|
D||------------------|--5------------x--x--|--x------x------x--5--|
A||------------------|--3------------x--x--|--x------x------x--3--|
E||------------------|---------------------|----------------------|


                                                                  
-------------------|-----------------------|---------------------|
--6----------------|--6--6--8--6------6----|--5------------------|
--7----------------|--7--7--9--7------7----|--5------------------|
--7----------------|--7--7--9--7------7----|--5------------x--x--|
--5----------------|--5--5--7--5------5----|--3------------x--x--|
-------------------|-----------------------|---------------------|


                                                                     
---------------------|---------------------|------------------------|
----------------5----|--6------------------|--6---------------------|
----------------5----|--7------------------|--7---------------------|
--x------x------5----|--7------------x--x--|--7---------------------|
--x------x------3----|--5------------x--x--|--5---------------------|
---------------------|---------------------|-------12/---3/-----12--|


                                                     
-------------------------|--------------------------|
-------------------------|--------------------------|
-------------------------|--------------------------|
-------------------------|--------------------------|
--5----------------------|--------------------------|
--3----3--3--3--3--3--3--|--3--3--3--3--3--3--3--3--|


                                                            
-------------------------------|---------------------------|
-------------------------------|---------------------------|
--x--12--12--12--12--12--12----|--x--x--12--12--x--12------|
--x--10--10--10--10--10--10----|--x--x--10--10--x--10------|
-------------------------------|---------------------------|
-------------------------------|---------------------------|


                                                                                
-------------------------|--------------------------|--------------------------|
-------------------------|--------------------------|--------------------------|
-------------------------|--------------------------|--------------------------|
--5----------------------|--------------------------|--------------------------|
--3----3--3--3--3--3--3--|--3--3--3--3--3--3--3--3--|--------------------------|
-------------------------|--------------------------|--5--5--5--5--5--5--5--5--|


                                                                               
-------------------------|-------------------------|--------------------------|
-------------------------|-------------------------|--------------------------|
-------------------------|-------------------------|--------------------------|
-------------------------|--5----------------------|--------------------------|
--3----3--3--5--5--5--5--|--3----3--3--3--3--3--3--|--3--3--3--3--3--3--3--3--|
--1----1--1--3--3--3--3--|-------------------------|--------------------------|


                                                                           
--------------------------|---------------------------|-------------------|
--------------------------|---------------------------|--5~---------------|
--------------------------|---------------------------|--5----------------|
--------------------------|---------------------------|-------------------|
--------------------------|--3--3--x-x-3--5--5--5--5--|-------------------|
--5--5--5--5--5--5--5--5--|--1--1--x-x-1--3--3--3--3--|-------------------|


                                                                   
---------------------|-------------------|------------------------|
--5------5------5----|--6----------------|--6--6--8--6----6--6----|
--5------5------5----|--5----------------|--5--5--7--5----5--5----|
---------------------|-------------------|------------------------|
---------------------|-------------------|------------------------|
---------------------|-------------------|------------------------|


                                                              
-------------------|---------------------|-------------------|
--5~---------------|--5------5------5----|--6----------------|
--5----------------|--5------5------5----|--5----------------|
-------------------|---------------------|-------------------|
-------------------|---------------------|-------------------|
-------------------|---------------------|-------------------|


                                                                              
------------------------|-------------------------|--------------------------|
--6--6--8--6----6--6----|-------------------------|--------------------------|
--5--5--7--5----5--5----|-------------------------|--------------------------|
------------------------|--5----------------------|--------------------------|
------------------------|--3----3--3--3--3--3--3--|--3--3--3--3--3--3--3--3--|
------------------------|-------------------------|--------------------------|


                                                                             
--------------------------|-----------------------|-------------------------|
--------------------------|-----------------------|-------------------------|
--------------------------|-----------------------|-------------------------|
--------------------------|-----------------------|--5----------------------|
--------------------------|--3----3--5----5--5----|--3----3--3--3--3--3--3--|
--5--5--5--5--5--5--5--5--|--1----1--3----3--3----|-------------------------|


                                                                                
--------------------------|--------------------------|-------------------------|
--------------------------|--------------------------|-------------------------|
--------------------------|--------------------------|-------------------------|
--------------------------|--------------------------|-------------------------|
--3--3--3--3--3--3--3--3--|--------------------------|--3--3--x--5--x--5--5----|
--------------------------|--5--5--5--5--5--5--5--5--|--1--1--x--3--x--3--3----|


                                                                          
------------------------|-----------------------|------------------------|
------------------------|-----------------------|------------------------|
------------------------|-----------------------|------------------------|
------------------------|-----------------------|------------------------|
--2----2----2--2--2--3--|----3--3--3----3--3----|--5----5----------3/-5--|
--0----0----0--0--0--1--|----1--1--1----1--1----|--3----3----3/-5--------|


                                                                         
-----------------------|------------------------|-----------------------|
-----------------------|------------------------|-----------------------|
--5--0--5--7b---7b-----|------------------------|-----------------------|
--5--0--5--7b---7b-----|------------------------|-----------------------|
-----------------------|--2----2----2--2--2--3--|----3--3--3----3--3----|
-----------------------|--0----0----0--0--0--1--|----1--1--1----1--1----|


                                                                                
-------------------------|--------------------------|--------------------------|
-------------------------|--------------------------|--------------------------|
-------------------------|--------------------------|--------------------------|
--7----------------------|--------------------7--5--|--------------------------|
--5----5--5--5--5--5--5--|--5--5--5--5--5--5--5--3--|--------------------------|
-------------------------|--------------------------|--1--1--1--1--1--1--1--1--|


                                                                                
-------------------------|--------------------------|--------------------------|
-------------------------|--5--5--3--3--1--1--------|--------------------------|
-------------------------|--------------------4-----|--------------------------|
-------------------------|-----------------------5--|--------------------------|
--------------5--5--5----|--------------------------|--3--3--3--3--3--3--3--3--|
--3--3--3--3--3--3--3----|--------------------------|--------------------------|


                                                                              
--------------------------|--------------------------|-----------------------|
--------------------------|--------------------------|-----------------------|
--------------------------|--------------------------|-----------------------|
--------------------------|--------------------------|-----------7--5b-------|
--2--2--2--2--2--2--2--2--|--------------------------|-----------------------|
--------------------------|--5--5--5--5--5--5--5--5--|--3--3--3--------------|


                                                                               
-------------------------|-------------------------|--------------------------|
-------------------------|-------------------------|--------------------------|
-------------------------|-------------------------|--------------------------|
--7--7--7--7--7--7--7----|--5b-7--7--7--7--7--7----|--7--7--7--7--7--7--7--7--|
-------------------------|-------------------------|--------------------------|
-------------------------|-------------------------|--------------------------|


                                                                                
-------------------------|--------------------------|--------------------------|
-------------------------|--------------------------|--------------------------|
-------------------------|--------------------------|--------------------------|
--5--5--5----------------|--------------------------|--------------------------|
-----------3/-5--2-------|--3--3--3--3--3--3--3--3--|--2--2--2--2--2--2--2--2--|
--------------------3----|--------------------------|--------------------------|


                                                                         
--------------------------|-------------------------|-------------------|
--------------------------|-------------------------|-------------------|
--------------------------|-------------------------|-------------------|
--------------------------|-------------------------|--3----------------|
--------------------7-----|--5-----x--x--5-----5----|--3----------------|
--5--5--5--5--5--5--5--5--|--3--3--x--x--3--3--3----|--1----------------|


                                                                    
-------------------------|-------------------|---------------------|
-------------------------|--5----------------|----------------5----|
-------------------------|--5----------------|----------------5----|
-------------------------|--5----------------|----------------5----|
--5--5--5----------------|--3----------------|----------3/-7--3----|
--3--3--3--3/-12/---3----|-------------------|---------------------|


                                                      
--------------------------|--------------------------|
--------------------------|--------------------------|
--------------------------|--------------------------|
--------------------------|--------------------------|
--3--3--3--3--3--3--3--3--|--3--3--3--3--3--3--3--3--|
--------------------------|--------------------------|


                                                                                
--------------------------|-------------------------|--------------------------|
--------------------------|-------------------------|--------------------------|
--------------------------|-------------------------|--------------------------|
--------------------------|-------------------------|--------------------------|
--------------------------|--3--3--x--5--x--5--5----|--3--3--3--3--3--3--3--3--|
--5--5--5--5--5--5--5--5--|--1--1--x--3--x--3--3----|--------------------------|


                                                                                
--------------------------|--------------------------|-------------------------|
--------------------------|--------------------------|-------------------------|
--------------------------|--------------------------|-------------------------|
--------------------------|--------------------------|-------------------------|
--3--3--3--3--3--3--3--3--|--------------------------|--3--3--x--5--x--5--5----|
--------------------------|--5--5--5--5--5--5--5--5--|--1--1--x--3--x--3--3----|


                                                                           
------------------------|-----------------------|-------------------------|
------------------------|-----------------------|-------------------------|
------------------------|-----------------------|-------------------------|
------------------------|-----------------------|-------------------------|
--2----2----2--2--2--3--|----3--3--3----3--3----|--5----------3/-5--5--7--|
--0----0----0--0--0--1--|----1--1--1----1--1----|--3----3/-5--------------|


                                                                         
-----------------------|------------------------|-----------------------|
-----------------------|------------------------|-----------------------|
--5--0--5--7b---7b-----|-------2----------------|-----------------------|
--5--0--5--7b---7b-----|-------2----------------|-----------------------|
-----------------------|--2---------2--2--2--3--|----3--3--3----3--3----|
-----------------------|--0---------0--0--0--1--|----1--1--1----1--1----|


                                                                                
-------------------------|--------------------------|--------------------------|
-------------------------|--------------------------|--------------------------|
-------------------------|--------------------------|--------------------------|
--7----------------------|--------------------7--5--|--------------------------|
--5----5--5--5--5--5--5--|--5--5--5--5--5--5--5--3--|--------------------------|
-------------------------|--------------------------|--1--1--1--1--1--1--1--1--|


                                                                                
-------------------------|--------------------------|--------------------------|
-------------------------|--5--5--3--3--1--1--------|--------------------------|
-------------------------|--------------------4-----|--------------------------|
-------------------------|-----------------------5--|--------------------------|
--------------5--5--5----|--------------------------|--3--3--3--3--3--3--3--3--|
--3--3--3--3--3--3--3----|--------------------------|--------------------------|


                                                      
--------------------------|--------------------------|
--------------------------|--------------------------|
--------------------------|--------------------------|
--------------------------|--------------------------|
--2--2--2--2--2--2--2--2--|--------------------------|
--------------------------|--5--5--5--5--5--5--5--5--|


                                                      
--------------------------|--------------------------|
--------------------------|--------------------------|
--------------------------|--------------------------|
--------------------------|--------------------------|
--------------------------|--5--5--5--5--5--5--5--5--|
--3--3--3--3--3--3--3--3--|--------------------------|


                                                                                
--------------------------|--------------------------|-------------------------|
--------------------------|--------------------------|-------------------------|
--------------------------|--------------------------|-------------------------|
--------------------------|--------------------------|-------------------------|
--4--4--4--4--4--4--4--4--|--3--3--3--3--3--3--5--3--|--------2--3--5--2-------|
--------------------------|--------------------------|--3--3--------------3----|


                                                      
--------------------------|--------------------------|
--------------------------|--------------------------|
--------------------------|--------------------------|
--------------------------|--------------------------|
--3--3--3--3--3--3--3--3--|--2--2--2--2--2--2--2--2--|
--------------------------|--------------------------|


                                                                        
--------------------------|-----------------------|--------------------|
--------------------------|-----------------------|--------------------|
--------------------------|-----------------------|--------------------|
--------------------------|-----------------------|--------------------|
--------------------------|-----------7--5--------|--3------------3----|
--5--5--5--5--5--5--5--5--|--3--3--3--5--3--------|--1------------1----|


                                                                                
-------------------|-------------------|-------------------|-------------------|
-------------------|-------------------|-------------------|-------------------|
-------------------|-------------------|-------------------|-------------------|
-------------------|-------------------|-------------------|-------------------|
--5----------------|--2----------------|--7----------------|--3----------------|
--3----------------|--0----------------|--5----------------|--1----------------|


                                                              
---------------------|-------------------|-------------------|
---------------------|-------------------|-------------------|
---------------------|-------------------|-------------------|
---------------------|-------------------|-------------------|
--5--5--5------------|-------------------|-------------------|
--3--3--3------------|--5----------------|--4----------------|


                                                                                
-------------------|-------------------|-------------------|-------------------|
-------------------|-------------------|-------------------|-------------------|
-------------------|-------------------|-------------------|-------------------|
-------------------|-------------------|-------------------|-------------------|
-------------------|-------------------|-------------------|-------------------|
--3----------------|--2----------------|--1----------------|--3----------------|


                                                                                
-------------------|-------------------|-------------------|-------------------|
-------------------|-------------------|-------------------|-------------------|
-------------------|-------------------|-------------------|-------------------|
-------------------|-------------------|-------------------|-------------------|
-------------------|-------------------|-------------------|-------------------|
--5----------------|--4----------------|--3----------------|--2----------------|


                                                             
-------------------|-------------------|--------------------|
-------------------|-------------------|--------------------|
-------------------|-------------------|--------------------|
--3----------------|--------------3----|--5------------5/---|
-------------------|-------------------|--------------------|
--1----------------|--------------1----|--3------------3/---|


                                                                
--------------------------------------|------------------------|
--------------------------------------|------------------------|
-----------------------------0--1--2--|------------------------|
--------------------0--2--3-----------|------------------------|
-----------0--2--3--------------------|--2----2----2--2--2--3--|
--0--1--3-----------------------------|--0----0----0--0--0--1--|


                                                                      
-----------------------|-----------------------|---------------------|
-----------------------|-----------------------|---------------------|
-----------------------|-----------------------|------------7b-------|
-----------------------|-----------------------|------------7b-------|
----3--3--3----3--3----|--5----5----5----------|---------------------|
----1--1--1----1--1----|--3----3----3----3/-5--|--3b---3b------------|


                                                                           
------------------------|-----------------------|-------------------------|
------------------------|-----------------------|-------------------------|
------------------------|-----------------------|-------------------------|
------------------------|-----------------------|--7----------------------|
--2----2----2--2--2--3--|----3--3--3----3--3----|--5----5--5--5--5--5--5--|
--0----0----0--0--0--1--|----1--1--1----1--1----|-------------------------|


                                                                                
--------------------------|--------------------------|-------------------------|
--------------------------|--------------------------|-------------------------|
--------------------------|--------------------------|-------------------------|
--------------------7--5--|--------------------------|-------------------------|
--5--5--5--5--5--5--5--3--|--------------------------|--------------5--5--5----|
--------------------------|--1--1--1--1--1--1--1--1--|--3--3--3--3--3--3--3----|


                                                            
-------------------|-------------------|-------------------|
-------------------|-------------------|-------------------|
-------------------|-------------------|-------------------|
-------------------|-------------------|-------------------|
--3----------------|--2----------------|-------------------|
-------------------|-------------------|--5----------------|


                                                                            
----------------------|-------------------------|--------------------------|
----------------------|-------------------------|--------------------------|
----------------------|-------------------------|--------------------------|
----------------------|--7----------------------|--------------------------|
----------------------|--5----5--5--5--5--5--5--|--4--4--4--4--4--4--4--4--|
--3--------3/---10/---|-------------------------|--------------------------|


                                                                               
--------------------------|------------------------|--------------------------|
--------------------------|------------------------|--------------------------|
--------------------------|------------------------|--------------------------|
--------------------5-----|------------------------|--------------------------|
--3--3--3--3--3--3--3--3--|--------2--5------------|--3--3--3--3--3--3--3--3--|
--------------------------|--3--3----------5--3----|--------------------------|


                                                      
--------------------------|--------------------------|
--------------------------|--------------------------|
--------------------------|--------------------------|
--------------------------|--------------------------|
--2--2--2--2--2--2--2--2--|--------------------------|
--------------------------|--5--5--5--5--5--5--5--5--|


                                                                       
--------------------------|--------------------|----------------------|
--------------------------|--------------------|--3-------------------|
--------------------------|--------------------|--4-------------------|
--------------------------|--------------------|--5-------------------|
--------------------------|--3------------3----|--5--------5--5--5----|
--3--3--3--3/-10/-3--3----|--1------------1----|--3--------3--3--3----|


                                                      
--------------------------|--------------------------|
--------------------------|--------------------------|
--------------------------|--------------------------|
--------------------------|--------------------------|
--3--3--3--3--3--3--3--3--|--2--2--2--2--2--2--2--2--|
--------------------------|--------------------------|


                                                                                
--------------------------|-------------------------|--------------------------|
--------------------------|-------------------------|--------------------------|
--------------------------|-------------------------|--------------------------|
--------------------------|-------------------------|--------------------------|
--------------------------|--------------5-----5----|--5--5--5--5--5--5--5--5--|
--5--5--5--5--5--5--5--5--|--3--3--3--3--3--3--3----|--------------------------|


                                                                               
--------------------------|--------------------------|------------------------|
--------------------------|--------------------------|------------------------|
--------------------------|--------------------------|------------------------|
--------------------------|--------------------------|------------------------|
--4--4--4--4--4--4--4--4--|--3--3--3--3--3--3--3--3--|--------2--5----2-------|
--------------------------|--------------------------|--3--3-------------3----|


                                                      
--------------------------|--------------------------|
--------------------------|--------------------------|
--------------------------|--------------------------|
--------------------------|--------------------------|
--3--3--3--3--3--3--3--3--|--2--2--2--2--2--2--2--2--|
--------------------------|--------------------------|


                                                                          
--------------------------|-------------------------|--------------------|
--------------------------|-------------------------|--------------------|
--------------------------|-------------------------|--------------------|
--------------------------|-------------------------|--------------------|
--------------------------|--5--5--5--5--5--5--5----|--3------------3----|
--5--5--5--5--5--5--5--5--|--3--3--3--3--3--3--3----|--1------------1----|


                                                                                
-------------------|-------------------|-------------------|-------------------|
-------------------|-------------------|-------------------|-------------------|
-------------------|-------------------|-------------------|-------------------|
-------------------|-------------------|-------------------|-------------------|
--5----------------|--2----------------|--7----------------|--3----------------|
--3----------------|--0----------------|--5----------------|--1----------------|


                                                                   
---------------------|---------------------|----------------------|
---------------------|--5------------------|-------------------5--|
---------------------|--5------------------|-------------------5--|
---------------------|--5------------x--x--|--x------x------x--5--|
--5--5--5------------|--3------------x--x--|--x------x------x--3--|
--3--3--3------------|---------------------|----------------------|


                                                                  
-------------------|-----------------------|---------------------|
--6----------------|--6--6--8--6------6----|--5------------------|
--7----------------|--7--7--9--7------7----|--5------------------|
--7----------------|--7--7--9--7------7----|--5------------x--x--|
--5----------------|--5--5--7--5------5----|--3------------x--x--|
-------------------|-----------------------|---------------------|


                                                                  
---------------------|---------------------|---------------------|
----------------5----|--6------------x--x--|--6------6------6----|
----------------5----|--7------------x--x--|--7------7------7----|
--x------x------5----|--7------------x--x--|--7------7------7----|
--x------x------3----|--5------------x--x--|--5------5------5----|
---------------------|---------------------|---------------------|


                                                               
-------------------|----------------------|-------------------|
--5----------------|----------------------|-------------------|
--5----------------|--4-------------------|-------------------|
--5----------------|-------5----5----5----|--------2----------|
--3----------------|----------------------|-------------------|
-------------------|----------------------|-------------------|


                                                                               
-------------------|------------------|------------------|------|------|------|
-------------------|------------------|------------------|------|------|------|
-------------------|------------------|------------------|------|------|------|
-------------------|------------------|------------------|------|------|------|
----------3--------|------------------|------------------|------|------|------|
-------------------|------------------|------------------|------|------|------|


                                           
------|------|------|------|------|------||
------|------|------|------|------|------||
------|------|------|------|------|------||
------|------|------|------|------|------||
------|------|------|------|------|------||
------|------|------|------|------|------||
comments
We did not receive enough feedback on this tab! Please rate:
print report bad tab
1 2 3 4 5
I want to post or [tab]
guest
You may want to rate the tab now too:
select rating
Please do not post tabs as comments. Select "correction" instead!