Oops, an error
Loading. Please wait.

Lose Control Tab

1,193 views 1 this week
no commentswrite comment
1 2 3 4 5
please rate
add to favorites launch autoscroll
font size
0
reset
Autoscroll
+/-
esc
set tempo
stop
Contributor
WARNING: You are trying to view
                                    content from Ultimate-Guitar.com
                                    in an unauthorized application,
                                    which is prohibited.

                                    Please use an official Ultimate
                                    Guitar Tabs application for iPhone,
                                    iPad or Android to access legitimate
                                    chords, guitar, bass, and drum tabs
                                    from Ultimate-Guitar.com database.

                                    Type "ultimate guitar tabs" in Apple
                                    App Store's or Android Market's
                                    search to find the application.
 L`Arc en Ciel
 Lose Control

 Tab por Mari no koibito


 Intro

 Guitarra 1
e|----10------8------7h8---7h8---------|----10------8------7h8---12------12----|
B|-------0------0--------0-----0----0--|-------0------0--------0----0-------0--|
G|---------10-----10-------------10----|---------10-----10------------10-------|
D|-------------------------------------|---------------------------------------|
A|-------------------------------------|---------------------------------------|
E|--0----------------------------------|--0------------------------------------|	
 Guitarra 1
e|----10------8------7h8---7h8---------|----10------8-------7---|
B|-------0------0--------0-----0----0--|-------0------0-----0---|
G|---------10-----10-------------10----|---------10-----10--10--|
D|-------------------------------------|------------------------|
A|-------------------------------------|------------------------|
E|--0----------------------------------|--0---------------------|	


 Verse A

 Guitarra 1
e|---------7------------------7-----------|--------8---------------8----------|
B|-------0---0--------------0---0---------|------0---0-----------0---0--------|
G|----10-------10---10---10-------10---0--|----5-------5---5---5-------5---0--|
D|--0-------------0----0-------------0----|--7-----------7---7-----------7----|
A|----------------------------------------|-----------------------------------|
E|----------------------------------------|-----------------------------------|	
 Guitarra 1
e|--------3---------------3----------|--------5---------------5----------|
B|------0---0-----------0---0--------|------0---0-----------0---0--------|
G|----5-------5---5---5-------5---5--|----5-------5---5---5-------5---5--|
D|--5-----------5---5-----------5----|--0-----------0---0-----------0----|
A|-----------------------------------|-----------------------------------|
E|-----------------------------------|-----------------------------------|	
 Guitarra 1
e|--------------0---------4----------|--------0---------------2----------|
B|----0-----3-----3-----5---5--------|------0---0-----------3---3--------|
G|------3s4---4-------4-------4------|----5-------5---0---2-------2---2--|
D|--2---------------6-----------6s7--|--7-----------7---4-----------4----|
A|-----------------------------------|-----------------------------------|
E|-----------------------------------|-----------------------------------|	
 Guitarra 1
e|--------0--------------------------|--------0---------------4--------|
B|------1---1-----------4p3-----3p1--|------0---0-----------5---5------|
G|----2-------2---2---2-------2------|----1-------1---1---4-------4----|
D|--0-----------0---1-------1--------|--2-----------2---6-----------6--|
A|-----------------------------------|---------------------------------|
E|-----------------------------------|---------------------------------|	
 Guitarra 1
e|---------7------------------7-----------|--------8---------------8----------|
B|-------0---0--------------0---0---------|------0---0-----------0---0--------|
G|----10-------10---10---10-------10---0--|----5-------5---5---5-------5---0--|
D|--0-------------0----0-------------0----|--7-----------7---7-----------7----|
A|----------------------------------------|-----------------------------------|
E|----------------------------------------|-----------------------------------|	
 Guitarra 1
e|--------3---------------3----------|--------5---------------5----------|
B|------0---0-----------0---0--------|------0---0-----------0---0--------|
G|----5-------5---5---5-------5---5--|----5-------5---5---5-------5---5--|
D|--5-----------5---5-----------5----|--0-----------0---0-----------0----|
A|-----------------------------------|-----------------------------------|
E|-----------------------------------|-----------------------------------|	
 Guitarra 1
e|--------------0---------4----------|--------0---------------2----------|
B|----0-----3-----3-----5---5--------|------0---0-----------3---3--------|
G|------3s4---4-------4-------4------|----5-------5---0---2-------2---2--|
D|--2---------------6-----------6s7--|--7-----------7---4-----------4----|
A|-----------------------------------|-----------------------------------|
E|-----------------------------------|-----------------------------------|	
 Guitarra 1
e|--------0--------------------------|--------0---------------4----------|--4--|
B|------1---1-----------4p3-----3p1--|------0---0-----------5---5--------|--5--|
G|----2-------2---2---2-------2------|----1-------1---1---4-------4---4--|--4--|
D|--0-----------0---1-------1--------|--2-----------2---6-----------6----|-----|
A|-----------------------------------|-----------------------------------|-----|
E|-----------------------------------|-----------------------------------|-----|	


 Coro

 Guitarra 1
e|------------------------|----------------------------------|
B|------------------------|----------------------------------|
G|---------------10-------|---------------10--9-9-9-8-8-8--*-|
D|--7-x-x-10-x-x-----5-6--|--7-x-x-10-x-x------------------*-|
A|----------------8-------|----------------8--7-7-7-6-6-6----|
E|--5-x-x--8-x-x-----3-4--|--5-x-x--8-x-x--------------------|	
 Guitarra 1
e|--------------------------------|--------------------------------|
B|--------------------------------|--------------------------------|
G|--9-x-x-5-x-x-8-x-x-4-x-x-4--7--|--7-x-x-4-x-x-5--9-9-9-8-8-8--*-|
D|--------------------------------|------------------------------*-|
A|--7-x-x-3-x-x-6-x-x-2-x-x-2--5--|--5-x-x-2-x-x-3--7-7-7-6-6-6----|
E|--------------------------------|--------------------------------|	
 Guitarra 1
e|----0------|----0-----0----|
B|------0----|------0-----0--|
G|--------2--|---------------|
D|--3--------|--0-----1------|
A|--3--------|---------------|
E|-----------|---------------|
 Guitarra 1
e|--0-0-0-0-4-4-4-4--|--12-12-12-12-16-16-16-16--|
B|--0-0-0-0-5-5-5-5--|--12-12-12-12-17-17-17-17--|
G|--1-1-1-1-4-4-4-4--|--13-13-13-13-16-16-16-16--|
D|-------------------|---------------------------|
A|-------------------|---------------------------|
E|-------------------|---------------------------|	
 Guitarra 1
e|--------------------------------|--------------------------------|
B|--------------------------------|--------------------------------|
G|--9-x-x-5-x-x-8-x-x-4-x-x-4--7--|--7-x-x-4-x-x-5--9-9-9-8-8-8--*-|
D|--------------------------------|------------------------------*-|
A|--7-x-x-3-x-x-6-x-x-2-x-x-2--5--|--5-x-x-2-x-x-3--7-7-7-6-6-6----|
E|--------------------------------|--------------------------------|	
 Guitarra 1
e|----0------|----0-----0----|
B|------0----|------0-----0--|
G|--------2--|---------------|
D|--3--------|--0-----1------|
A|--3--------|---------------|
E|-----------|---------------|	
 Guitarra 1
e|--0-0-0-0-4-4-4-4--|--12-12-12-12-16-16-16-16--|--0--|
B|--0-0-0-0-5-5-5-5--|--12-12-12-12-17-17-17-17--|--1--|
G|--1-1-1-1-4-4-4-4--|--10-10-10-10-16-16-16-16--|--2--|
D|-------------------|---------------------------|--3--|
A|-------------------|---------------------------|--x--|
E|-------------------|---------------------------|--x--|


 Ken solo

 Guitarra 1
e|-----------------------------------------------------------|
B|--8h10~--8h10~--8h10~--8h9~--------------------------------|
G|-----------------------------7~--/9~-~-~--7-7-5-4-5-4---7--|
D|------------------------------------------------------5----|
A|-----------------------------------------------------------|
E|-----------------------------------------------------------|	
 Guitarra 1
e|----------14-----19----18--17-----------------------------------------------|
B|--------------15----15--------------10-8-7-8---7-10-8-7-8---7-10-8-7-8---7--|
G|--4----------------------------7~------------9------------9------------9----|
D|-----0--0-------------------------------------------------------------------|
A|----------------------------------------------------------------------------|
E|----------------------------------------------------------------------------|	
 Guitarra 1
e|-------------------------------------14----------19-------21~--|
B|--10-8-7-8-10--15--15-15--15---------15-----------///////------|
G|---------------16--16-16--16----------//////////---------------|
D|---------------------------//////////--------------------------|
A|---------------------------------------------------------------|
E|---------------------------------------------------------------|	


 Verse A

 Guitarra 1
e|---------7------------------7-----------|--------8---------------8----------|
B|-------0---0--------------0---0---------|------0---0-----------0---0--------|
G|----10-------10---10---10-------10---0--|----5-------5---5---5-------5---5--|
D|--0-------------0----0-------------0----|--7-----------7---7-----------7----|
A|----------------------------------------|-----------------------------------|
E|----------------------------------------|-----------------------------------|	
 Guitarra 1
e|---------7------------------7-----------|--0--|
B|-------0---0--------------0---0---------|--0--|
G|----10-------10---10---10-------10---0--|--5--|
D|--0-------------0----0-------------0----|--7--|
A|----------------------------------------|-----|
E|----------------------------------------|-----|


 Verse A

 Guitarra 1
e|---------7----------------7-----------|-------8---------------8----------|
B|-------0----------------0--------0----|-----0---0-----------0---0--------|
G|----10-----10---10---10-------10---0--|---5-------5---5---5-------5---0--|
D|--0-----------0----0--------0---------|-7-----------7---7-----------7----|
A|--------------------------------------|----------------------------------|
E|--------------------------------------|----------------------------------|	
 Guitarra 1
e|--------3---------------3----------|--------5---------------5----------|
B|------0---0-----------0---0--------|------0---0-----------0---0--------|
G|----5-------5---5---5-------5---5--|----5-------5---5---5-------5---5--|
D|--5-----------5---5-----------5----|--0-----------0---0-----------0----|
A|-----------------------------------|-----------------------------------|
E|-----------------------------------|-----------------------------------|	
 Guitarra 1
e|--------------0---------4----------|--------0---------------2----------|
B|----0-----3-----3-----5---5--------|------0---0-----------3---3--------|
G|------3s4---4-------4-------4------|----5-------5---0---2-------2---2--|
D|--2---------------6-----------6s7--|--7-----------7---4-----------4----|
A|-----------------------------------|-----------------------------------|
E|-----------------------------------|-----------------------------------|	
 Guitarra 1
e|--------0--------------------------|--------0---------------4--------|
B|------1---1-----------4p3-----3p1--|------0---0-----------5---5------|
G|----2-------2---2---2-------2------|----1-------1---1---4-------4----|
D|--0-----------0---1-------1--------|--2-----------2---6-----------6--|
A|-----------------------------------|---------------------------------|
E|-----------------------------------|---------------------------------|	
 Guitarra 1
e|---------7------------------7-----------|--------8---------------8----------|
B|-------0---0--------------0---0---------|------0---0-----------0---0--------|
G|----10-------10---10---10-------10---0--|----5-------5---5---5-------5---0--|
D|--0-------------0----0-------------0----|--7-----------7---7-----------7----|
A|----------------------------------------|-----------------------------------|
E|----------------------------------------|-----------------------------------|	
 Guitarra 1
e|--------3---------------3----------|--------5---------------5----------|
B|------0---0-----------0---0--------|------0---0-----------0---0--------|
G|----5-------5---5---5-------5---5--|----5-------5---5---5-------5---5--|
D|--5-----------5---5-----------5----|--0-----------0---0-----------0----|
A|-----------------------------------|-----------------------------------|
E|-----------------------------------|-----------------------------------|	
 Guitarra 1
e|--------------0---------4----------|--------0---------------2----------|
B|----0-----3-----3-----5---5--------|------0---0-----------3---3--------|
G|------3s4---4-------4-------4------|----5-------5---0---2-------2---2--|
D|--2---------------6-----------6s7--|--7-----------7---4-----------4----|
A|-----------------------------------|-----------------------------------|
E|-----------------------------------|-----------------------------------|	
 Guitarra 1
e|--------0--------------------------|--------0---------------4----------|--4--|
B|------1---1-----------4p3-----3p1--|------0---0-----------5---5--------|--5--|
G|----2-------2---2---2-------2------|----1-------1---1---4-------4---4--|--4--|
D|--0-----------0---1-------1--------|--2-----------2---6-----------6----|-----|
A|-----------------------------------|-----------------------------------|-----|
E|-----------------------------------|-----------------------------------|-----|	


 Coro

 Guitarra 1
e|------------------------|----------------------------------|
B|------------------------|----------------------------------|
G|---------------10-------|---------------10--9-9-9-8-8-8--*-|
D|--7-x-x-10-x-x-----5-6--|--7-x-x-10-x-x------------------*-|
A|----------------8-------|----------------8--7-7-7-6-6-6----|
E|--5-x-x--8-x-x-----3-4--|--5-x-x--8-x-x--------------------|	
 Guitarra 1
e|--------------------------------|--------------------------------|
B|--------------------------------|--------------------------------|
G|--9-x-x-5-x-x-8-x-x-4-x-x-4--7--|--7-x-x-4-x-x-5--9-9-9-8-8-8--*-|
D|--------------------------------|------------------------------*-|
A|--7-x-x-3-x-x-6-x-x-2-x-x-2--5--|--5-x-x-2-x-x-3--7-7-7-6-6-6----|
E|--------------------------------|--------------------------------|	
 Guitarra 1
e|----0------|----0-----0----|
B|------0----|------0-----0--|
G|--------2--|---------------|
D|--3--------|--0-----1------|
A|--3--------|---------------|
E|-----------|---------------|
 Guitarra 1
e|--0-0-0-0-4-4-4-4--|--12-12-12-12-16-16-16-16--|
B|--0-0-0-0-5-5-5-5--|--12-12-12-12-17-17-17-17--|
G|--1-1-1-1-4-4-4-4--|--13-13-13-13-16-16-16-16--|
D|-------------------|---------------------------|
A|-------------------|---------------------------|
E|-------------------|---------------------------|	
 Guitarra 1
e|--------------------------------|--------------------------------|
B|--------------------------------|--------------------------------|
G|--9-x-x-5-x-x-8-x-x-4-x-x-4--7--|--7-x-x-4-x-x-5--9-9-9-8-8-8--*-|
D|--------------------------------|------------------------------*-|
A|--7-x-x-3-x-x-6-x-x-2-x-x-2--5--|--5-x-x-2-x-x-3--7-7-7-6-6-6----|
E|--------------------------------|--------------------------------|	
 Guitarra 1
e|----0------|----0-----0----|
B|------0----|------0-----0--|
G|--------2--|---------------|
D|--3--------|--0-----1------|
A|--3--------|---------------|
E|-----------|---------------|	
 Guitarra 1
e|--0-0-0-0-4-4-4-4--|--12-12-12-12-16-16-16-16--|
B|--0-0-0-0-5-5-5-5--|--12-12-12-12-17-17-17-17--|
G|--1-1-1-1-4-4-4-4--|--10-10-10-10-16-16-16-16--|
D|-------------------|---------------------------|
A|-------------------|---------------------------|
E|-------------------|---------------------------|
 Guitarra 1
e|------------------------|----------------------------------|
B|------------------------|----------------------------------|
G|---------------10-------|---------------10--9-9-9-8-8-8--*-|
D|--7-x-x-10-x-x-----5-6--|--7-x-x-10-x-x------------------*-|
A|----------------8-------|----------------8--7-7-7-6-6-6----|
E|--5-x-x--8-x-x-----3-4--|--5-x-x--8-x-x--------------------|	
 Guitarra 1
e|------------------------|----------------------------------|
B|------------------------|----------------------------------|
G|---------------10-------|---------------10--9-9-9-8-8-8--*-|
D|--7-x-x-10-x-x-----5-6--|--7-x-x-10-x-x------------------*-|
A|----------------8-------|----------------8--7-7-7-6-6-6----|
E|--5-x-x--8-x-x-----3-4--|--5-x-x--8-x-x--------------------|	
 Guitarra 1
e|------------------------|----------------------------------|
B|------------------------|----------------------------------|
G|---------------10-------|---------------10--9-9-9-8-8-8--*-|
D|--7-x-x-10-x-x-----5-6--|--7-x-x-10-x-x------------------*-|
A|----------------8-------|----------------8--7-7-7-6-6-6----|
E|--5-x-x--8-x-x-----3-4--|--5-x-x--8-x-x--------------------|	


 Final

 Guitarra 1
e|---------------------------------------------|
B|---------------------------------------------|
G|---------------10--9-9-9-8-8-8--8-8-8-7-7-7--|
D|--7-x-x-10-x-x-------------------------------|  Fin!!!
A|----------------8--7-7-7-6-6-6--6-6-6-5-5-5--|
E|--5-x-x--8-x-x-------------------------------|
 

  Shinshoku ~Lose Control~
  [L'Arc~en~Ciel]

 I lose control togireta kokoro, 
 sotto kaze ni sarawarete 
 boku wa ten wo aogu

 I lose control fusagareteyuku 
 anata sae kizukazu ni 
 kowashiteshimaisou

 Good morning Mr. Fear

 Kakusei sareta no wa 
 nakushiteta kizuato
 Kono karada ga ubawareteku

 Yakitsukusu taiyou 
 kage wo kuroku someru
 Mou tomaranai hanasanai de

 I lose control...I lose control 

 I lose control haru meku toki ni, 
 mada osanai hitomi wa, 
 shuumaku wo osoreta.

 I lose control hirahira ukabu 
 chouchou wa tsukamaerare 
 haritsukerareteta ne

 Good morning Mr. Fear

 Kakusei sareta no wa 
 nakushiteta kizuato
 Osaerarenai kono ude sae

 Yakitsukusu taiyou 
 kage wo kuroku someru
 Sou kizukeba waratteita

 I died then my instinct was born...
 Instincs was born.


 yaguchikun@hotmail.com
comments
We did not receive enough feedback on this tab! Please rate:
print report bad tab
1 2 3 4 5
I want to post or [tab]
guest
You may want to rate the tab now too:
select rating
Please do not post tabs as comments. Select "correction" instead!