Oops, an error
Loading. Please wait.

The Fire Cadenza Tab

ver2
ver2

Whole song

More versions @911Tabs.com
470 views 6 this week
no commentswrite comment
1 2 3 4 5
excellent!
x 2
add to favorites launch autoscroll
font size
0
reset
Autoscroll
+/-
esc
set tempo
stop
Contributor
Difficulty
Tabbers playing skills
advanced
advanced
WARNING: You are trying to view
                                    content from Ultimate-Guitar.com
                                    in an unauthorized application,
                                    which is prohibited.

                                    Please use an official Ultimate
                                    Guitar Tabs application for iPhone,
                                    iPad or Android to access legitimate
                                    chords, guitar, bass, and drum tabs
                                    from Ultimate-Guitar.com database.

                                    Type "ultimate guitar tabs" in Apple
                                    App Store's or Android Market's
                                    search to find the application.
                          The Fire Cadenza  by   Lawson Rollins      


You use finger or pick ?!                      


     Q    T  T  T  T S S H          
E||--------------------------------|
B||--------------------------------|
G||--------------------------------|
D||-------2h-3p-2p-0-2-3-2~--------|
A||--------------------------------|
E||--------------------------------|


  |--3--|      |-3-| 3     |-3-|       |--3--|        
  E  E  E   E  T T T S.    E   S  E    S  S  S  S  S  
-------------------5-8~-8g12--12-12~--12-12-12-13-12-|
-----------------5-----------------------------------|
---------------5-------------------------------------|
--------2s--7----------------------------------------|
--0--3-----------------------------------------------|
-----------------------------------------------------|


   |-3-|  |-3-|     |---3--|        |--3--|  |--3--|  |-----5-----|             
   E   S  E   S     S   S  S  S  S  S  S  S  S  S  S  T  T  T  T  T  T  T  T  T 
--16--13-12--13-12g13p-12----12-13-15-13-12-------------------------------------
--------------------------15----------------15-13-12-13-12-10----10-12-13-12-10-
--------------------------------------------------------------12----------------
--------------------------------------------------------------------------------
--------------------------------------------------------------------------------
--------------------------------------------------------------------------------


                                                                 NH        
   |--3-|  |--3-|  |--3-|  |--3-|  |--3-|                                  
   S  S S  S  S S  S  S S  S  S S  S  S S  S  S    S  S  E       H         
------------------------------------------------------------|-------------|
------------------------------------------------------------|-------------|
--12-10-9-13-10-9-12-10-9-13-10-9---------------------------|-------------|
----------------------------------12-10-9-12-10-9g10p-9-----|-------------|
--------------------------------------------------------11--|--<>0--------|
------------------------------------------------------------|-------------|


    |-3-| |--3-|  |--3-| |--3-|            |--3-| |--3-|  
    E   S S  S S  S S  S S  S S  S S  S S  S S  S S  S S  
---------------8-12-8---------8-12-8-13-8-12-8---------8-|
------------10--------10---10------------------10---10---|
----------9--------------9------------------------9------|
-------10------------------------------------------------|
--/12----------------------------------------------------|
---------------------------------------------------------|


             |--3-| |-3-| |--3-| |-3-| |-3-| |-3-|  
   S S  S S  S S  S E   S S  S S S S S S S S S S S  
--12-8-13-8-12-8----------7-10-7-------5-8-5-------|
-----------------10----10--------8---8-------6-----|
--------------------9--------------7-----------5---|
-------------------------------------------------6-|
---------------------------------------------------|
---------------------------------------------------|


  |-3-| |-3-| |-3-|          
  S S S S S S S S S T T T T  
--5-7-5-------4-7-4---------|
--------6---6-------5-------|
----------5-----------4-----|
------------------------6---|
--------------------------7-|
----------------------------|


   |-3-| |--3-|  |--3-| |--3-|            |--3-| |-3-|  
   E   S S  S S  S S  S S  S S  S S  S S  S S  S E   S  
--------------8-12-8---------8-12-8-13-8-12-8----------|
-----------10--------10---10------------------10----10-|
---------9--------------9------------------------9-----|
------10-----------------------------------------------|
--12---------------------------------------------------|
-------------------------------------------------------|


  |--3-| |-3-| |-3-| |-3-| |-3-| |-3-| |-3-|          
  S  S S S S S S S S S S S S S S S S S S S S T T T T  
--7-10-7-------5-8-5-------5-7-5-------4-7-4---------|
---------8---8-------6-----------6---6-------5-------|
-----------7-----------5-----------5-----------4-----|
-------------------------6-----------------------6---|
---------------------------------------------------7-|
-----------------------------------------------------|


  |---5---| |-3-| |-3-|   |----5----|  |----5----|  
  S S S S S S S S S S S   S  S S  S S  S S  S S  S  
----------5-8-5---------------------8-12-8---------|
--------6-------6----------------10--------10---10-|
------5-----------5------------9--------------9----|
----7---------------7-------10---------------------|
--8-------------------8s-12------------------------|
---------------------------------------------------|


  |---5---| |-3-| |-3-| |---5---| |-3-| |-3-|  
  S S S S S S S S S S S S S S S S S S S S S S  
----------5-8-5-----------------4-7-4---------|
--------6-------6-------------5-------5-------|
------5-----------5---------4-----------4-----|
----7---------------7-----6---------------6---|
--8-------------------8-7-------------------5-|
----------------------------------------------|


  |---5---| |-3-| |-3-|   |----5----|  |----5----|  
  S S S S S S S S S S S   S  S S  S S  S S  S S  S  
----------5-8-5---------------------8-12-8---------|
--------6-------6----------------10--------10---10-|
------5-----------5------------9--------------9----|
----7---------------7-------10---------------------|
--8-------------------8s-12------------------------|
---------------------------------------------------|


              |--3--|             |--3--|                                       
  T  T  T  T  S  S  S T  T  T  T  S  S  S  Q       E  E  E  E  S S S S S S S S  
--8-13-10----------10---16-13----------13-17----|--4--5--4--5------------------|
----------12----12------------15----15----------|--------------5-6-5-6---------|
-------------13------------------16-------------|----------------------4-5-4-5-|
------------------------------------------------|------------------------------|
------------------------------------------------|------------------------------|
------------------------------------------------|------------------------------|


                  |---5---|        
  S S S S S S S S S S S S S Q      
----------------------------------|
----------------------------------|
--1-2-1-2-------------------------|
----------2-3-2-3-----------------|
------------------2-3-2-3---------|
--------------------------4-5~----|


  |-3-| |--3-|  |--3-|    |-3|  |--3-|                  
  S S S T T  T  T T  T    E  S  S S  S  Q.       S   S  
------------------5h-8-8g12--8-------------------------|
----------------5--------------10----------------------|
-------------5h-------------------9--------------------|
----------7h------------------------10-----------------|
--------7------------------------------12------/11--\L-|
--0-5-8------------------------------------------------|


  |--6--| |--6-| |--6-| |--6-| |--6-| |--6-| |--6-| |--6-|  
  S  S  S S  S S S S  S S  S S S S  S S  S S S S  S S S  S  
-----------------------------------------------------------|
-----------------------------------------------------------|
-----------------------------------------------------------|
-----------------------------------------------------------|
----------7-------------7-------------7-------------7-8-10-|
--7s-8-10---10-8-7-8-10---10-8-7-8-10---10-8-7-8-10--------|


  |--6-| |--6--| |--6--| |--6--| |--6--| |--6--| |--6--|  |--6--|  
  S S  S S  S  S S  S  S S  S  S S  S  S S  S  S S  S  S  S  S  S  
------------------------------------------------------------------|
-------------------------------------------------9-10-12-10-12-13-|
-------------------------9---------------9-10-12------------------|
---------9-10-12-9-10-12---12-10-9-10-12--------------------------|
--7-8-10----------------------------------------------------------|
------------------------------------------------------------------|


   |--6--|  |--6--|  |--6--|  |--6--|  |--6--|  |----6---|  |--6--|  |--6--|  
   S  S  S  S  S  S  S  S  S  S  S  S  S  S  S  T  T  S  S  S  S  S  S  S  S  
-----------10----------------10----------------10-10-13-12-10-10-15-13-12-12-|
--10-12-13----13-12-10-12-13----13-12-10-12-13-------------------------------|
-----------------------------------------------------------------------------|
-----------------------------------------------------------------------------|
-----------------------------------------------------------------------------|
-----------------------------------------------------------------------------|


   |--6--|  |--6--|  |--6--|  |--6--|  |--6--|  |--6--|  |--6--|  |--6--|  
   S  S  S  S  S  S  S  S  S  S  S  S  S  S  S  S  S  S  S  S  S  S  S  S  
--17-13----------13-15-13-15-13----------13-17-13-15-13-17-13-17-13-------|
--------15----15----------------15----15----------------------------15----|
-----------14----------------------14----------------------------------14-|
--------------------------------------------------------------------------|
--------------------------------------------------------------------------|
--------------------------------------------------------------------------|


   7  7  7  7  7  7  7 --- |--6--|  |--6--|  |--6--|  |--6--|  |-6-|  6 6  
   S  S  S  S  S  S  S  S  S  S  S  S  S  S  S  S  S  S  S  S  S S S  S S  
-----13-15-13----------13-15-12----------12-13-10----------10-10-7--------|
--15----------15----15----------13----13----------12----12---------9----9-|
-----------------14----------------12----------------13--------------10---|
--------------------------------------------------------------------------|
--------------------------------------------------------------------------|
--------------------------------------------------------------------------|


  |-3-| |-3-| |--3--|             |-----5----|                               
  S S S S S S E  E  E    S S S S  S S  S S   S    Q    Q    S S S S S S S S  
--7-7-4-------4--5--7--7g8-7-7-5h-7-7p-5-5s-12-|--0---------8-5-0-0-8-5-0-0-|
--------6---6----------------------------------|----------------------------|
----------7------------------------------------|----------------------------|
-----------------------------------------------|----------------------------|
-----------------------------------------------|----------------------------|
-----------------------------------------------|----------------------------|


                                                        |-----5-----|   
  S S S S S S S S  S S S S  S S S S     S S S S S S S S E  E  E  E  E   
--7-4-0-0-8-5-0-0-10-7-0-0-12-8-0-0-|--10-7-0-0-8-5-0-0-7--4-----------|
------------------------------------|-------------------------5-----5--|
------------------------------------|----------------------------4-----|
------------------------------------|----------------------------------|
------------------------------------|----------------------------------|
------------------------------------|----------------------------------|


                                                          |---5---|  
  
--4-5-4-5-4-------4-7-4-5-4-7-4-7-4-------4-5-4-------4-7-4---------|
------------5---5-------------------5---5-------5---5-------5-------|
--------------4-----------------------4-----------4-----------4-----|
----------------------------------------------------------------6---|
------------------------------------------------------------------7-|
--------------------------------------------------------------------|


                           |-----5-----|                                       
     T T T T S  S   E      S  S  S  S  S  S  S  S  S  S  S  S  S  S  S  S   S  
-------------7-10s-17--|--17-17-16-16-13-13-12-12-13-13-----------------------|
-----------8-----------|--------------------------------12-13-----------------|
---------7-------------|--------------------------------------13-14-----------|
-------9---------------|--------------------------------------------14-15-----|
--7g10-----------------|--------------------------------------------------/11-|
-----------------------|------------------------------------------------------|


   W                   E   S S  E   E   E   E   
--------------------|------8-7--8--10--12--13--|
--------------------|-----10-8-10--12--13--15--|
--------------------|--------------------------|
--------------------|--------------------------|
--12----------------|--------------------------|
--------------------|--------------------------|


   E      S   S  Q     E   S S  E  E      E   Q.     E  S S E  E   
--12--10g12p-10--8-----L---8-7--8--7--|--10--12-------------------|
--13--12g13--12-10-----L--10-8-10--8--|---5---3---------5-3-5--6--|
--------------------------------------|-----------------5-4-5--7--|
--------------------------------------|---------------------------|
--------------------------------------|---------------------------|
--------------------------------------|---------------------------|


                                                                TH  
     |--3--|          |-6-| |-6-| |---7---| 7  7                    
  E  S  S  S E.  S    S S S S S S S S S S S S  S  E      Q      E   
-------------------|---------------------------8--7----7g5----<>7--|
--5--3-------------|--------------------5-6-8-17-15--15g13---------|
--5--4h-5p-4-5-----|--------4-5-7-4-5-7----------------------------|
-------------7---3-|--3-5-7----------------------------------------|
-------------------|-----------------------------------------------|
-------------------|-----------------------------------------------|


    TH   TH   TH   TH   TH          
    E    E    E    E    H           
--<>5-----------------------------||
-------<>5--<>5-------------------||
-----------------<>5--<>4~--------||
----------------------------------||
----------------------------------||
----------------------------------||




Duration Legend
---------------
W - whole
H - half
Q - quarter
E - 8th
S - 16th
T - 32nd
X - 64th
. - note dotted
|-n-|  - n-tuplets


comments
We did not receive enough feedback on this tab! Please rate:
1 2 3 4 5
I want to post or [tab]
guest
You may want to rate the tab now too:
select rating
Please do not post tabs as comments. Select "correction" instead!