Oops, an error
Loading. Please wait.

Achilles Last Stand Tab

ver3
ver3

Solo

Interactive

More versions @911Tabs.com
3,156 views 6 this week
6 commentsread comments
1 2 3 4 5
accurate
x 4
Autoscroll
+/-
esc
set tempo
stop
Contributor
Difficulty
advanced
Hey! There's an official Ultimate Guitar app which is ideal
for learning songs when you're away from computer. Get the app
WARNING: You are trying to view
                                    content from Ultimate-Guitar.com
                                    in an unauthorized application,
                                    which is prohibited.

                                    Please use an official Ultimate
                                    Guitar Tabs application for iPhone,
                                    iPad or Android to access legitimate
                                    chords, guitar, bass, and drum tabs
                                    from Ultimate-Guitar.com database.

                                    Type "ultimate guitar tabs" in Apple
                                    App Store's or Android Market's
                                    search to find the application.
Dmaj7/F# - 2 4 4 2 3 2           Em9 - 0 2 4 0 3 2 
F#m/E - 0 x x 11 10 9            Em - x x x 9 8 7 
D6/E - x 7 7 7 7 7               D/A - x x 7 7 7 5 
B5 - x 2 4 x x x                 E5/B - x 2 2 x x x 
Esus2 - x x x 9 7 7              C/E - x x x 9 8 8 
D6 - x x x 7 7 7                 E5 - 0 2 x x x x 
C5 - x 3 5 x x x                 F#m11 - 2 x 4 2 0 0 



 Intro
   Q=146
         F#m             Dmaj7/F#
 1/4    4/4
   Gtr I
|----||----------------|------2p0-----------|
|----||o---------------|--3-------3p0-------|
|----||--(0)--------2--|---------------0----|
|----||----------4-----|--------------------|
|----||o------4--------|--------------------|
|--2-||--(2)-----------|-(2)----------(2)-0-|


|---------------|------2p0------------||
|---------------|--3-------3p0-------o||
|-(0)--------0--|---------------0-----||
|---------4-----|---------------------||
|------2--------|--------------------o||
|-(0)-----------|-(0)----------(0)-2--||


  F#m11                           Em9   Em              N.C.
|--------------0-|-(0)--------||---9s=7-7-7----|-(7)---------------------|
|------------0---|------------||o-10s=8-8-8----|-(8)---------------------|
|-(0)-----2------|------------||--11s=9-9-9----|-(9)---------------------|
|------4---------|------------||---------------|--------7-7-7-(7)-7-8-9--|
|----------------|------------||o--------------|-------------------------|
|-(2)------------|-(2)--------||---------------|-------------------------|


                                    Verse
          D6/E                           F#m/E   Em
                                  4x
|---------7-(7)----|-(7)------7---||------9--(9)s7-7--|-(7)----|
|---------7-(7)----|-(7)------7--o||-----10-(10)s8-8--|-(8)----|
|---------7-(7)----|-(7)------7---||-----11-(11)s9-9--|-(9)----|
|-7-7-----7-(7)----|-(7)------7---||------------------|--------|
|-----7---7-(7)----|-(7)------7--o||------------------|--------|
|-------0----------|--------------||-0----------------|--------|


  $
|-------------5--|-(5)--------|------9--(9)s7-7--|-(7)----|
|-----7-(7)---7--|-(7)--------|-----10-(10)s8-8--|-(8)----|
|-----7-(7)-7----|------------|-----11-(11)s9-9--|-(9)----|
|-----7-(7)------|------------|------------------|--------|
|----------------|------------|------------------|--------|
|-0--------------|------------|-0----------------|-(0)----|


|-------------5--|-(5)--------|------9--(9)s7-7--|-(7)----|
|-----7-(7)---7--|-(7)--------|-----10-(10)s8-8--|-(8)----|
|-----7-(7)-7----|------------|-----11-(11)s9-9--|-(9)----|
|-----7-(7)------|------------|------------------|--------|
|----------------|------------|------------------|--------|
|-0--------------|-(0)--------|-0----------------|-(0)----|


  D/A
  Gtr I
  |                 |           |                   |
  /                 /           /                   /

  Gtr II
|-------------5--|-(5)--------|------9--(9)s7-7--|-(7)----|
|-----7-(7)---7--|-(7)--------|-----10-(10)s8-8--|-(8)----|
|-----7-(7)-7----|------------|-----11-(11)s9-9--|-(9)----|
|-----7-(7)------|------------|------------------|--------|
|----------------|------------|------------------|--------|
|-0--------------|------------|-0----------------|--------|


                       To Coda
  |                 |
  /                 /

|-------------7--|-(7)---------|
|-----7-(7)---7--|-(7)---------|
|-----7-(7)-7----|----------x--|
|-----7-(7)------|----------x--|
|----------------|-------------|
|-0--------------|-------------|


||---9s=7-7-7----|-(7)--------------------|---------7-(7)----|-(7)----------||
||o-10s=8-8-8----|-(8)--------------------|---------7-(7)----|-(7)---------o||
||--11s=9-9-9----|-(9)--------------------|---------7-(7)----|-(7)----------||
||---------------|--------7-7-7-(7)-7-8-9-|-7-7-----7-(7)----|-(7)----------||
||o--------------|------------------------|-----7---7-(7)----|-(7)---------o||
||---------------|------------------------|-------0----------|--------------||


 Verse
  Gtr I
  |                   |           |                 |
  o                   /           /                 /

  Gtr II
|------8--(8)s7-7--|-(7)--------|-------------7--|-(7)----|
|-----10-(10)s8-8--|-(8)--------|-----7-(7)---7--|-(7)----|
|-----11-(11)s9-9--|-(9)--------|-----7-(7)-7----|--------|
|------------------|------------|-----7-(7)------|--------|
|------------------|------------|----------------|--------|
|-0----------------|------------|-0--------------|--------|


  E5
  |                   |           |                 |
  /                   /           o                 /

|------9--(9)s7-7--|-(7)--------|-------------7--|-(7)----|
|-----10-(10)s8-8--|-(8)--------|-----7-(7)---7--|-(7)----|
|-----11-(11)s9-9--|-(9)--------|-----7-(7)-7----|--------|
|------------------|------------|-----7-(7)------|--------|
|------------------|------------|----------------|--------|
|-0----------------|------------|-0--------------|--------|


  E5                              E5/B
  |                   |           |                 |
  /                   /           /                 /

|------9--(9)s7-7--|-(7)--------|-------------7--|-(7)----|
|-----10-(10)s8-8--|-(8)--------|-----7-(7)---7--|-(7)----|
|-----11-(11)s9-9--|-(9)--------|-----7-(7)-7----|--------|
|------------------|------------|-----7-(7)------|--------|
|------------------|------------|----------------|--------|
|-0----------------|------------|-0--------------|--------|


  |                   |           |                 |
  /                   /           /                 /

|------9--(9)s7-7--|-(7)--------|-------------7--|-(7)----||
|-----10-(10)s8-8--|-(8)--------|-----7-(7)---7--|-(7)----||
|-----11-(11)s9-9--|-(9)--------|-----7-(7)-7----|--------||
|------------------|------------|-----7-(7)------|--------||
|------------------|------------|----------------|--------||
|-0----------------|------------|-0--------------|--------||


 1st Interlude
  Gtrs I, II
                                       ~~~~
|-------------------------|------------------|
|-------------------------|------------------|
|-9-7-8-9-(9)-7-8-9-9-7-8-|-9-7-9-10-(10)----|
|-9-7-8-9-(9)-7-8-9-9-7-8-|-9-7-9-10-(10)----|
|-------------------------|------------------|
|-------------------------|------------------|


|-------------------------|-----------------------|
|-------------------------|-----------------------|
|-9-7-8-9-(9)-7-8-9-9-7-8-|-9-7-9-10-(10)-(10)\---|
|-9-7-8-9-(9)-7-8-9-9-7-8-|-9-7-9-10-(10)-(10)\---|
|-------------------------|-----------------------|
|-------------------------|-----------------------|


  E5/B                                               C5
  Gtr I
    |                       |
    /                       /

  Gtrs III, IV
|-------------------------|--------------------------|
|-------------------------|--------------------------|
|-------------------------|--------------------------|
|-4s5-----6s7-(7)---8s9---|-5---10------11s12--------|
|-1s2---7---3-(3)-9-4s5---|---6s=7---12-----9---14---|
|-------3---------5-------|-7---------8---------10---|
|
| Gtr II
|-------0---------0-----0-|-0---------0--------------|
|-----0--------0----------|--------0----------0------|
|-------------------------|--------------------------|
|---2-------4---------5---|------7----------5----4s2-|
|-------------------------|--------------------------|
|-------------------------|--------------------------|


    |                          |
    /                          /

|---------------------------|-----------------------------|
|---------------------------|-----------------------------|
|-7s9------11-(11)------12--|-----12s14------14s16--------|
|-4s5---10--7--(7)-12-8s=9--|-14-----10---16-10s12---17---|
|--------7----------9-------|-10----------12---------14---|
|---------------------------|-----------------------------|
|
|------------------------2--|-(2)-------------------------|
|-----------3--(3)----------|---------3-3--------3------3-|
|--------0------------------|----------------------0------|
|-----2---------------------|-------------------------2---|
|---3-----------------------|-----------------------------|
|---------------------------|-----------------------------|


  E5/B
  |                        |
  /                        /

|-----------------------|---------------------------|
|-----------------------|---------------------------|
|-4-------5-(5)---5s7---|----7s=9-------9s11--------|
|-5---5-5s7-(7)-7-8s9---|--9---10---10-11s12---12---|
|-----7---------9-------|-10--------12---------14---|
|-----------------------|---------------------------|
|
|-----0---------0-------|--0---------0--------------|
|---0--------0--------0-|---------0----------0------|
|-----------------------|---------------------------|
|-2-------4---------5---|-------7----------5----4s2-|
|-----------------------|---------------------------|
|-----------------------|---------------------------|


    C5
    |                           |
    /                           /

|----------------------------|-----------------------------|
|-7s8------10-(10)----10s12--|-----12s13-----14s15---------|
|-7s9----9-11-(11)-11----12--|-12--13s14--14-15s16---16----|
|-------10---------12--------|-14---------16---------17----|
|----------------------------|-----------------------------|
|----------------------------|-----------------------------|
|
|----------------------------|---------2---------0-0-------|
|-----------3--(3)-----------|-(3)-------------------------|
|-----0----------------------|------------------------0----|
|--------2-------------------|--------------------------0--|
|---3------------------------|-----------------------------|
|----------------------------|-----------------------------|


  Gtrs III, IV
|-------------------|-------------------------|------------------|------------|
|-17b19----17-17----|-(17)--------------------|------------------|------------|
|-18-------16-16----|-(16)--------------------|------------------|------------|
|-------------------|-------------------------|------------------|------------|
|-------------------|-------------------------|------------------|------------|
|-------------------|-------------------------|------------------|------------|
|
| Gtrs I, II
|--9s====7--7--7----|--(7)--------------------|---------7-(7)----|-(7)--------|
|-10s====8--8--8----|--(8)--------------------|---------7-(7)----|-(7)--------|
|-11s====9--9--9----|--(9)--------------------|---------7-(7)----|-(7)--------|
|-------------------|---------7-7-7-(7)-7-8-9-|-7-7-----7-(7)----|-(7)--------|
|-------------------|-------------------------|-----7---7-(7)----|-(7)--------|
|-------------------|-------------------------|-------0----------|------------|


  Gtrs I, II
|--9s=7-7-7----|-(7)--------------------|---------7-(7)----|-(7)--------|
|-10s=8-8-8----|-(8)--------------------|---------7-(7)----|-(7)--------|
|-11s=9-9-9----|-(9)--------------------|---------7-(7)----|-(7)--------|
|--------------|--------7-7-7-(7)-7-8-9-|-7-7-----7-(7)----|-(7)--------|
|--------------|------------------------|-----7---7-(7)----|-(7)--------|
|--------------|------------------------|-------0----------|------------|


 Verse
  Gtr I
  |                   |           |                 |
  o                   /           /                 /

  Gtr II
|------9--(9)s7-7--|-(7)--------|-------------5--|-(5)----|
|-----10-(10)s8-8--|-(8)--------|-----7-(7)---7--|-(7)----|
|-----11-(11)s9-9--|-(9)--------|-----7-(7)-7----|--------|
|------------------|------------|-----7-(7)------|--------|
|------------------|------------|----------------|--------|
|-0----------------|------------|-0--------------|--------|


  |                   |           |                 |
  /                   /           /                 /

|------9--(9)s7-7--|-(7)--------|-------------5--|-(5)----|
|-----10-(10)s8-8--|-(8)--------|-----7-(7)---7--|-(7)----|
|-----11-(11)s9-9--|-(9)--------|-----7-(7)-7----|--------|
|------------------|------------|-----7-(7)------|--------|
|------------------|------------|----------------|--------|
|-0----------------|------------|-0--------------|--------|


  D/A
  |                   |           |                 |
  /                   /           /                 /

|------9--(9)s7-7--|-(7)--------|-------------7--|-(7)----|
|-----10-(10)s8-8--|-(8)--------|-----7-(7)---7--|-(7)----|
|-----11-(11)s9-9--|-(9)--------|-----7-(7)-7----|--------|
|------------------|------------|-----7-(7)------|--------|
|------------------|------------|----------------|--------|
|-0----------------|------------|-0--------------|--------|


  |                   |           |                 |
  /                   /           /                 /

|------9--(9)s7-7--|-(7)--------|-------------7--|-(7)---------|
|-----10-(10)s8-8--|-(8)--------|-----7-(7)---7--|-(7)---------|
|-----11-(11)s9-9--|-(9)--------|-----7-(7)-7----|----------x--|
|------------------|------------|-----7-(7)------|----------x--|
|------------------|------------|----------------|-------------|
|-0----------------|------------|-0--------------|-------------|


||---9s=7-7-7----|-----(7)----------------------------------|
||o-10s=8-8-8----|-----(8)----------------------------------|
||--11s=9-9-9----|-----(9)----------------------------------|
||---------------|----------------------7--7----7-(7)-7-8-9-|
||o--------------|------------------------------------------|
||---------------|------------------------------------------|
|
|   Gtrs III, IV
||---------------|-----12--9-----9b10--(9)----9----7--------|
||o--------------|---x-------10-10b12-(10)---10----8--------|
||---------------|-x----------------------------------------|
||---------------|------------------------------------------|
||o--------------|------------------------------------------|
||---------------|------------------------------------------|


|-----------7-(7)----|-----(7)------------------------||
|-----------7-(7)----|-----(7)-----------------------o||
|-----------7-(7)----|-----(7)------------------------||
|--7--7-----7-(7)----|-----(7)------------------------||
|-------7---7-(7)----|-----(7)-----------------------o||
|---------0----------|--------------------------------||
|
|-(7)----------------|-----10--7---7s=9--(9)----------||
|-(8)----------------|---x-------8-8s10-(10)-10------o||
|--------------------|-x---------------------11-11----||
|--------------------|--------------------------12----||
|--------------------|-------------------------------o||
|--------------------|--------------------------------||


 verse
  Gtr I
  |                         |           |                 |
  o                         /           /                 /

|------------8--(8)s7-7--|-(7)--------|-------------7--|-(7)----|
|-----------10-(10)s8-8--|-(8)--------|-----7-(7)---7--|-(7)----|
|-----------11-(11)s9-9--|-(9)--------|-----7-(7)-7----|--------|
|------------------------|------------|-----7-(7)------|--------|
|------------------------|------------|----------------|--------|
|-0----------------------|------------|-0--------------|--------|
|
|------------------------|------------|----------------|--------|
|----------------8-------|-(8)--------|----------------|--------|
|-9b11-(9)-------9-------|-(9)--------|----------------|--------|
|------------------------|------------|----------------|--------|
|------------------------|------------|----------------|--------|
|------------------------|------------|----------------|--------|


  E5/B
  |                   |           |                 |
  /                   /           o                 /

|------9--(9)s7-7--|-(7)--------|-------------7--|-(7)----|
|-----10-(10)s8-8--|-(8)--------|-----7-(7)---7--|-(7)----|
|-----11-(11)s9-9--|-(9)--------|-----7-(7)-7----|--------|
|------------------|------------|-----7-(7)------|--------|
|------------------|------------|----------------|--------|
|-0----------------|------------|-0--------------|--------|


  E5                              E5/B
  |                   |           |                 |
  /                   /           o                 /

|------9--(9)s7-7--|-(7)--------|-------------7--|-(7)----|
|-----10-(10)s8-8--|-(8)--------|-----7-(7)---7--|-(7)----|
|-----11-(11)s9-9--|-(9)--------|-----7-(7)-7----|--------|
|------------------|------------|-----7-(7)------|--------|
|------------------|------------|----------------|--------|
|-0----------------|------------|-0--------------|--------|


  |                   |           |                 |
  /                   /           /                 /

|------9--(9)s7-7--|-(7)--------|-------------7--|-(7)----|
|-----10-(10)s8-8--|-(8)--------|-----7-(7)---7--|-(7)----|
|-----11-(11)s9-9--|-(9)--------|-----7-(7)-7----|--------|
|------------------|------------|-----7-(7)------|--------|
|------------------|------------|----------------|--------|
|-0----------------|------------|-0--------------|--------|


   2nd inter
    Gtrs I, II
                                         ~~~~
                                                3x
||--------------------------|-------------------||
||o-------------------------|------------------o||
||--9-7-8-9-(9)-7-8-9-9-7-8-|-9-7-9-10-(10)-----||
||--9-7-8-9-(9)-7-8-9-9-7-8-|-9-7-9-10-(10)-----||
||o-------------------------|------------------o||
||--------------------------|-------------------||


  Gtrs I, II
                                       ~~~~
|-------------------------|---------------------------||
|-------------------------|---------------------------||
|-9-7-8-9-(9)-7-8-9-9-7-8-|-9-7-9-10-(10)-----(10)\---||
|-9-7-8-9-(9)-7-8-9-9-7-8-|-9-7-9-10-(10)-----(10)\---||
|-------------------------|---------------------------||
|-------------------------|---------------------------||
|
| Gtr V
|-------------------------|-------------------------7-||
|-------------------------|---------------------------||
|-------------------------|---------------------7-----||
|-------------------------|---------------7s9---------||
|-------------------------|---------------------------||
|-------------------------|---------------------------||


 solo
  E5/B
  Gtr I
  |                  |
  /                  /

  Gtr V
          ~
|-----------------|-----------------------------|
|-7s==5-5-5-------|-(5)-8b10==(8)r==(8)---------|
|-----------------|-----------------------7b9r==|
|-----------------|-----------------------------|
|-----------------|-----------------------------|
|-----------------|-----------------------------|
|
| Gtr II
|-----0-----0---0-|--0------------0-------------|
|---0-----0-------|------------0--------0-------|
|-----------------|-----------------------------|
|-2-----4-----5---|-----7------------5----4s==2-|
|-----------------|-----------------------------|
|-----------------|-----------------------------|


  C5
  |                    |
  /                    /

           ~~~
|-------------------|-----------3---5---------|
|-------5--5---(5)--|-(5)---------------------|
|-7s==5-5--5---(5)--|-(5)-----5---------5-----|
|-------------------|-------------------------|
|-------------------|-------------------------|
|-------------------|-------------------------|
|
|---------------2---|-(2)---------------------|
|-------3-(3)-------|-----3-3---3---------3---|
|-----0-------------|-------------0-----------|
|---2---------------|-----------------2-------|
|-3-----------------|-------------------------|
|-------------------|-------------------------|


  E5/B
  |                          |
  /                          /

                 ~~~
|---3h5p3p0---3-(3)-------|-(3)---3-------3h5p==3-|
|-------------------------|-----------------------|
|-----------4---(4)-------|-(4)-4-----4---4-------|
|-------------------------|-----------------------|
|-------------------------|-----------------------|
|-------------------------|-----------------------|
|
|-----------0-------0---0-|--0------0-------------|
|-----0----------0--------|-------0-----0---------|
|-------------------------|-----------------------|
|-2-----------4-------5---|-----7-----5---4s==2---|
|-------------------------|-----------------------|
|-------------------------|-----------------------|


  C5
  |                      |
  /                      /

|-----3---0----5------|-(5)------------7----|
|-5-------0-----------|---------------------|
|---------0----5------|-(5)----------7------|
|---------------------|----------7s9--------|
|---------------------|---------------------|
|---------------------|---------------------|
|
|------------------2--|-(2)-----------------|
|-----------3-(3)-----|-----3-3----3-----3--|
|-------0-------------|--------------0------|
|---2-----------------|----------------2----|
|-3-------------------|---------------------|
|---------------------|---------------------|


  E5/B
  |                  |
  /                  /

          ~~~~~~~~~~~~~~
|-----------------|-----------------------------|
|-7s==5-5-5-------|-(5)---7---8---10-8h10p8p7---|
|-----------------|-----------------------------|
|-----------------|-----------------------------|
|-----------------|-----------------------------|
|-----------------|-----------------------------|
|
|-----0-----0---0-|--0----------0---------------|
|---0-----0-------|---------0--------0----------|
|-----------------|-----------------------------|
|-2-----4-----5---|-----7----------5------4s==2-|
|-----------------|-----------------------------|
|-----------------|-----------------------------|


  C5
  |                            |
  /                            /

|--------------10b12=======|=(10)r(10)---------12---14----|
|-8---7---8---(10)b12======|=(10)r(10)----12--------------|
|--------------------------|------------------------------|
|--------------------------|------------------------------|
|--------------------------|------------------------------|
|--------------------------|------------------------------|
|
|-----------------------2--|--(2)-------------------------|
|-----------3--(3)---------|--------3--3---3-----------3--|
|-------0------------------|-----------------0------------|
|---2----------------------|----------------------2-------|
|-3------------------------|------------------------------|
|--------------------------|------------------------------|


  E5/B
   |                                             |
   /                                             /

|-14b15r14p12---14b15==(14)r(14)p==12-(12)---|-(12)---12---14---14b15r==(14)p12---15-|
|--------------------------------------------|---------------------------------------|
|--------------------------------------------|---------------------------------------|
|--------------------------------------------|---------------------------------------|

|--------------------------------------------|---------------------------------------|
|--------------------------------------------|---------------------------------------|
|
|-----------0--------------------0---------0-|---0------------0----------------------|
|--------0---------------0-------------------|-----------0------------0--------------|
|--------------------------------------------|---------------------------------------|
|--2----------4-------------------------5----|------7------------5------------4s2----|
|--------------------------------------------|---------------------------------------|
|--------------------------------------------|---------------------------------------|


  C5
   |                          |
   /                          /

                   ~~~~~~~~~~~~~~
|-15b17r==(15)------------|-------------------------|
|--------------13-13------|-(13)------12-13----12---|
|-------------------------|-----------------14------|
|-------------------------|-------------------------|
|-------------------------|-------------------------|
|-------------------------|-------------------------|
|
|----------------------2--|--(2)--------------------|
|---------------3-(3)-----|------3-3---3--------3---|
|-----------0-------------|---------------0---------|
|-------2-----------------|------------------2------|
|--3----------------------|-------------------------|
|-------------------------|-------------------------|


  Q=97
 5/4
  Gtr V
            ~~~~~~~~~~~~~~~~~~
|--------------------------------------------------|
|--------------------------------------------------|
|-12-----------------------------------------12-14-|
|----14-14-14-(14)-------(14)-------------14-------|
|--------------------------------------------------|
|--------------------------------------------------|
|
| Gtrs I, II
|--------------------------------------------------|
|--------------------------------------------------|
|--------------------------------------------------|
|--4--4--4--2---4--4-4-2---4--4-4-2-4-4-4--2-------|
|--2--2--2--2---2--2-2-2---2--2-2-2-2-2-2--2-------|
|--------------------------------------------------|


                                          ~~~~~~~~~~~~~~
|---------------------------------------------------------------------|
|---------------------------------------------------------------------|
|-14pb16r==(14)b16====(14)r(14)-12-----------------------------12-14--|
|----------------------------------14-14-14-14-------14-----14--------|
|---------------------------------------------------------------------|
|---------------------------------------------------------------------|
|
|---------------------------------------------------------------------|
|---------------------------------------------------------------------|
|---------------------------------------------------------------------|
|--4-----4----------4---3--------4--4--4--3--4-4-4-3--4-4-4--3--------|
|--3-----3----------3---3--------3--3--3--3--3-3-3-3--3-3-3--3--------|
|---------------------------------------------------------------------|


|----------------------------------------------------------------------|
|-12---13---15p13p12h13p12----12----12-13p12----12-(12)-------12-13-15-|
|--------------------------14----14----------14------------------------|
|----------------------------------------------------------------------|
|----------------------------------------------------------------------|
|----------------------------------------------------------------------|
|
|----------------------------------------------------------------------|
|----------------------------------------------------------------------|
|----------------------------------------------------------------------|
|--4-4----4--2--------4--4--4--2-----4--4--4--2------4--4-4-2----------|
|--2-2----2--2--------2--2--2--2-----2--2--2--2------2--2-2-2----------|
|----------------------------------------------------------------------|


|-12---14---15-15p14p12-14-------(14)p====12----12-----------------------------------------|
|--------------------------------------------15----15p12h==13p==12----12-------------------|
|------------------------------------------------------------------14----14p12----14-------|
|------------------------------------------------------------------------------14----14----|
|------------------------------------------------------------------------------------------|
|------------------------------------------------------------------------------------------|
|
|------------------------------------------------------------------------------------------|
|------------------------------------------------------------------------------------------|
|------------------------------------------------------------------------------------------|
|--4-4----4--3-----------4-4-4-3---4--4-4-----3-----4----4----4-----3----------------------|
|--3-3----3--3-----------3-3-3-3---3--3-3-----3-----3----3----3-----3----------------------|
|------------------------------------------------------------------------------------------|


  Q=146
  E5/B
 4/4
  Gtr I
   |                          |
   /                          /

  Gtr V
               ~~                                ~~~~~~~
|---------------------------|--------------15-------------15------|
|---------------------------|-----------15------17-(17)------17---|
|-12-14p12---------12-------|-----14s16---------------------------|
|----------14-14------------|-------------------------------------|
|---------------------------|-------------------------------------|
|---------------------------|-------------------------------------|
|
| Gtr II
|--------------0------0---0-|-0---------------0-------------------|
|--------0----------0-------|------------0--------------0---------|
|---------------------------|-------------------------------------|
|--2-------------4------5---|---7--------------------5--------4s2-|
|---------------------------|-------------------------------------|
|---------------------------|-------------------------------------|


  C5
   |                    |
   /                    /

|-17b19--------------|--x--17-x--------12-|
|--------------------|--------------------|
|--------------------|--------------------|
|--------------------|--------------------|
|--------------------|--------------------|
|--------------------|--------------------|
|
|--------------------|------2----0-0------|
|-----------3-(3)----|-(3)----------------|
|-------0------------|---------------0----|
|---------2----------|------------------0-|
|--3-----------------|--------------------|
|--------------------|--------------------|


  E5/B
   |                               |
   /                               /

                                                          ~~~
|-12-----------(12)-15b17r(15)-|-(15)-----------15p14p12-14-|
|------------------------------|----------------------------|
|------------------------------|----------------------------|
|------------------------------|----------------------------|
|------------------------------|----------------------------|
|------------------------------|----------------------------|
|
|------0-----0-------0---------|---0------0-----------------|
|----0-----0-------------------|--------0-----0-------------|
|------------------------------|----------------------------|
|--2-----4-------5-------------|------7-----5----4s=======2-|
|------------------------------|----------------------------|
|------------------------------|----------------------------|


  C5
    |                                 |
    /                                 /

 ~~~~~~
|-(14)-----12h14p12-----12h14p12p0-|-------------------------------|
|----------------------------------|-15b17-----(15)-15---13--------|
|----------------------------------|--------------------------14---|
|----------------------------------|-------------------------------|
|----------------------------------|-------------------------------|
|----------------------------------|-------------------------------|
|
|---------------------2------------|-(2)---------------------------|
|-----------3----(3)---------------|-------3-3-------3-----------3-|
|--------0-------------------------|-------------------0-----------|
|------2---------------------------|------------------------2------|
|---3------------------------------|-------------------------------|
|----------------------------------|-------------------------------|


  E5/B
   |                       |
   /                       /

            ~~~~~~~
|------------------------|-------------------12-14-15p14p12-|
|-13s12-12-12-(12)-------|------12---15-(15)----------------|
|------------------------|---12-----------------------------|
|------------------------|----------------------------------|
|------------------------|----------------------------------|
|------------------------|----------------------------------|
|
|--------0---------0---0-|-0-------0------------------------|
|-----0---------0--------|-------0------------0-------------|
|------------------------|----------------------------------|
|--2--------4--------5---|----7-----------5------4s=2-------|
|------------------------|----------------------------------|
|------------------------|----------------------------------|


  C5
   |                              |
   /                              /

   ~~
|-14---12-14-15--17-19--20b22-|-(20)------(20)-20-19-17-|
|-----------------------------|-------------------------|
|-----------------------------|-------------------------|
|-----------------------------|-------------------------|
|-----------------------------|-------------------------|
|-----------------------------|-------------------------|
|
|--------------------2--------|--(2)--------------------|
|----------3-(3)--------------|------3-3----3---------3-|
|-------0---------------------|-----------------0-------|
|----2------------------------|--------------------2----|
|--3--------------------------|-------------------------|
|-----------------------------|-------------------------|


  E5/B
 4/4
   |                          |
   /                          /

   ~~~~~~~~~~~~~~~~~
|-19-----------(19)-(19)\---|---17b18-------17-15-17-|
|---------------------------|------------------------|
|---------------------------|------------------------|
|---------------------------|------------------------|
|---------------------------|------------------------|
|---------------------------|------------------------|
|
|------0-----0------------0-|-0---------0------------|
|----0-----0----------------|---------0------0-------|
|---------------------------|------------------------|
|--2-----4-------5----------|----7--------5-----4s=2-|
|---------------------------|------------------------|
|---------------------------|------------------------|


  C5
   |                    |
   /                    /

|-17b19--------------|-17b18---17-15-17b19---17---15-----|
|--------------------|-----------------------------------|
|--------------------|-----------------------------------|
|--------------------|-----------------------------------|
|--------------------|-----------------------------------|
|--------------------|-----------------------------------|
|
|--------------------|-------2--------0----0-------------|
|-----------3-(3)----|-(3)-------------------------------|
|-------0------------|--------------------------0--------|
|---------2----------|-------------------------------0---|
|--3-----------------|-----------------------------------|
|--------------------|-----------------------------------|


  Q=97
 5/4
  Gtr V
   ~~~~~~~~~~~~~~~~~~~~~                 ~~~~~~~
|-14---------------(14)-14h==15p==14p12-14-(14)-------12-14-|
|-----------------------------------------------------------|
|-----------------------------------------------------------|
|-----------------------------------------------------------|
|-----------------------------------------------------------|
|-----------------------------------------------------------|
|
| Gtrs I, II
|--7-7-7-7-7-7-7-7---7-----7----7-----7------7--7-7-7--7--7-|
|--8-8-8-7-8-8-8-7---8-----8----8-----7------8--8-8-7--8--7-|
|--9-9-9-9-9-9-9-9---9-----9----9-----9------9--9-9-9--9--7-|
|-----------------------------------------------------------|
|-----------------------------------------------------------|
|-----------------------------------------------------------|


|-15-----17s15-(15)---15---15-(15)-------12-15-14-------14---------|
|------------------------------------------------------------------|
|------------------------------------------------------------14----|
|------------------------------------------------------------------|
|------------------------------------------------------------------|
|------------------------------------------------------------------|
|
|--8-8-8--7------8--8--8-7------8--8-8-7--------8-8-8-7--8-7-------|
|--8-8-8--7------8--8--8-7------8--8-8-7--------8-8-8-7--8-7-------|
|--9-9-9--7------9--9--9-7------9--9-9-7--------9-9-9-7--9-7-------|
|------------------------------------------------------------------|
|------------------------------------------------------------------|
|------------------------------------------------------------------|


                                                     ~~~~~
|--------------------------------------------------------|
|-13p12-12-(12)---------(12)-----------------------------|
|--------------------------------14-12--------12----12---|
|----------------------------------------14------14------|
|--------------------------------------------------------|
|--------------------------------------------------------|
|
|--7--7--7---7--7-7-7-7---7--7-7--7--7-7--7-7-----7----7-|
|--8--8--8---7--8-8-8-7---8--8-8--7--8-8--8-7-----8----7-|
|--9--9--9---9--9-9-9-9---9--9-9--9--9-9--9-9-----9----7-|
|--------------------------------------------------------|
|--------------------------------------------------------|
|--------------------------------------------------------|


 ~~~~~~            ~~~~~~~~~~~
|---------------------------------------------------------|
|--------------------------------------------------12-----|
|-(12)------------12-----(12)-------------------12--------|
|------------14---------------------------12s14-----------|
|---------------------------------------------------------|
|---------------------------------------------------------|
|
|---8--8-8-7--8-8----8-7---8--8-8-7-8-8-8-----7--8----7---|
|---8--8-8-7--8-8----8-7---8--8-8-7-8-8-8-----7--8----7---|
|---9--9-9-7--9-9----9-7---9--9-9-7-9-9-9-----7--9----7---|
|---------------------------------------------------------|
|---------------------------------------------------------|
|---------------------------------------------------------|


  Q=Q=146
         E5/B                                           C5
 4/4
  Gtr I  Gtr I
      |                        |
      /                        /

  Gtr V
|----------------------------|--------------------------|
|---(12)---------------------|--------------------------|
|----------------------------|--------------------------|
|----------------------------|--------------------------|
|----------------------------|--------------------------|
|----------------------------|--------------------------|
|
|        Gtrs III, IV
|----------------------------|--------------------------|
|----------------------------|--------------------------|
|----------------------------|--------------------------|
|-4s==5------6s7-(7)---8s9---|-5---10------11s12--------|
|-1s==2----7---3-(3)-9-4s5---|---6s=7---12-----9---14---|
|----------3---------5-------|-7---------8---------10---|
|
| Gtr II Gtr II
|----------0---------0-----0-|-0---------0--------------|
|--------0--------0----------|--------0----------0------|
|----------------------------|--------------------------|
|-----2--------4---------5---|------7----------5----4s2-|
|----------------------------|--------------------------|
|----------------------------|--------------------------|


    |                          |
    /                          /

|---------------------------|------------------------------|
|---------------------------|------------------------------|
|---------------------------|------------------------------|
|---------------------------|------------------------------|
|---------------------------|------------------------------|
|---------------------------|------------------------------|
|
|---------------------------|------------------------------|
|---------------------------|------------------------------|
|-7s9------11-(11)------12--|-----12s14------14s16---------|
|-4s5---10--7--(7)-12-8s=9--|-14-----10---16-10s12---17----|
|--------7----------9-------|-10----------12---------14----|
|---------------------------|------------------------------|
|
|------------------------2--|-(2)--------------------------|
|-----------3--(3)----------|---------3-3--------3------3--|
|--------0------------------|----------------------0-------|
|-----2---------------------|-------------------------2----|
|---3-----------------------|------------------------------|
|---------------------------|------------------------------|


  E5/B                                            C5
  Gtr I
   |                           |
   /                           /

  Gtr V
                         ~~       ~~
|-17pb19r17---15-(15)--------|--------------------|
|-----------------------17---|---15---------------|
|----------------------------|----------16---14---|
|----------------------------|--------------------|
|----------------------------|--------------------|
|----------------------------|--------------------|
|
| Gtr II
|-----------0---------0----0-|-0------0-----------|
|---------0--------0---------|------0------0------|
|----------------------------|--------------------|
|--2-----------4---------5---|----7------5----4s2-|
|----------------------------|--------------------|
|----------------------------|--------------------|


   |                            |
   /                            /

                                          PM------|
|---------------------------|------------------------||
|---------------------------|------------------------||
|-14b16r==(14)-12-(12)------|------------------------||
|-----------------------14--|-(14)-12----------------||
|---------------------------|------------14-10----10-||
|---------------------------|------------------10----||
|
|------------------------2--|--(2)-------------------||
|---------------3--(3)------|-------3-3---3--------3-||
|-----------0---------------|----------------0-------||
|-------2-------------------|-------------------2----||
|--3------------------------|------------------------||
|---------------------------|------------------------||


 verse
                         D.S. al Coda
         >
   PM|   ~~~~~~~~~~~~~~~~~~~~~~
|-----------------------|-------------|
|-----------------------|-------------|
|-----------------------|-------------|
|-----------------------|-------------|
|-12-14-----------------|-------------|
|-------12--------------|-(12)--------|
|
|-----------9--(9)s7-7--|--(7)--------|
|----------10-(10)s8-8--|--(8)--------|
|----------11-(11)s9-9--|--(9)--------|
|-----------------------|-------------|
|-----------------------|-------------|
|--0--------------------|-------------|


    &
    Gtrs I, II
||---9s====7--7--7----------------|-(7)--------------------------------|
||o-10s====8--8--8----------------|-(8)--------------------------------|
||--11s====9--9--9----------------|-(9)--------------------------------|
||--------------------------------|--------------7-7------7--(7)-7-8-9-|
||o-------------------------------|------------------------------------|
||--------------------------------|------------------------------------|
|
|   Gtrs III, IV
|    PM PM PM PM PMPMPMPMPMPM
||---9--9----------7-7------------|------------------------------------|
||o-10-10-10-10----8-8-8-----10-8-|-10b12-(10)-----8b10==(8)r(8)-------|
||--------11-11-11-----9-9-9-11-9-|-11b12-(11)-----7b9===(7)r(7)-----9-|
||--------------11-------9-9------|----------------------------------9-|
||o-------------------------------|------------------------------------|
||--------------------------------|------------------------------------|


|---------7-(7)-------------|-(7)--------------------------||
|---------7-(7)-------------|-(7)-------------------------o||
|---------7-(7)-------------|-(7)--------------------------||
|-7-7-----7-(7)-------------|-(7)--------------------------||
|-----7---7-(7)-------------|-(7)-------------------------o||
|-------0-------------------|------------------------------||
|
| PMPMPMPMPM PM PMPMPMPM
|-7-7--------5--5-----------|------------------------------||
|-8-8-8-8----7--7-7-----8-7-|--8b10-(8)--8b10==(8)r(8)--7-o||
|-----9-9-9-------7-7-7-9-7-|--9b11-(9)--7b9===(7)r(7)-----||
|---------9---------7-7-----|---------------------------7--||
|---------------------------|-----------------------------o||
|---------------------------|------------------------------||


 verse
  Gtr I
  |                           |
  o                           /

  Gtr II
|--------8--(8)s7--7-------|-(7)--------------------|
|-------10-(10)s8--8-------|-(8)--------------------|
|-------11-(11)s9--9-------|-(9)--------------------|
|--------------------------|------------------------|
|--------------------------|------------------------|
|-0------------------------|------------------------|
|
|-7-7-----------7-(7)s=8s7-|--7--7-------7-(7)s=8s7-|
|-8-8-8--8------8-(8)s10s8-|--8--8-8-8---8-(8)s10s8-|
|-----9--9---9-------------|-------9-9-9------------|
|------------9-------------|-----------9------------|
|--------------------------|------------------------|
|--------------------------|------------------------|


  |                        |
  /                        /

|----------------7------|-(7)-------------------|
|-------7-(7)----7------|-(7)-------------------|
|-------7-(7)-7---------|-----------------------|
|-------7-(7)-----------|-----------------------|
|-----------------------|-----------------------|
|-0---------------------|-----------------------|
|
|-5-5---------5-(5)s7s5-|--5--5-------5-(5)s7s5-|
|-7-7-7-7-----7-(7)s8s7-|--7--7-7-7---7-(7)s8s7-|
|-----7-7--7------------|-------7-7-7-----------|
|----------7------------|-----------7-----------|
|-----------------------|-----------------------|
|-----------------------|-----------------------|


  E5/B
  |                           |
  /                           /

|--------8--(8)s7--7-------|-(7)--------------------|
|-------10-(10)s8--8-------|-(8)--------------------|
|-------11-(11)s9--9-------|-(9)--------------------|
|--------------------------|------------------------|
|--------------------------|------------------------|
|-0------------------------|------------------------|
|
|-7-7-----------7-(7)s=8s7-|--7--7-------7-(7)s=8s7-|
|-8-8-8--8------8-(8)s10s8-|--8--8-8-8---8-(8)s10s8-|
|-----9--9---9-------------|-------9-9-9------------|
|------------9-------------|-----------9------------|
|--------------------------|------------------------|
|--------------------------|------------------------|


  |                        |
  o                        /

|----------------7------|-(7)-------------------|
|-------7-(7)----7------|-(7)-------------------|
|-------7-(7)-7---------|-----------------------|
|-------7-(7)-----------|-----------------------|
|-----------------------|-----------------------|
|-0---------------------|-----------------------|
|
|-5-5---------5-(5)s7s5-|--5--5-------5-(5)s7s5-|
|-7-7-7-7-----7-(7)s8s7-|--7--7-7-7---7-(7)s8s7-|
|-----7-7--7------------|-------7-7-7-----------|
|----------7------------|-----------7-----------|
|-----------------------|-----------------------|
|-----------------------|-----------------------|


  E5
  |                           |
  /                           /

|--------8--(8)s7--7-------|-(7)--------------------|
|-------10-(10)s8--8-------|-(8)--------------------|
|-------11-(11)s9--9-------|-(9)--------------------|
|--------------------------|------------------------|
|--------------------------|------------------------|
|-0------------------------|------------------------|
|
|-7-7-----------7-(7)s=8s7-|--7--7-------7-(7)s=8s7-|
|-8-8-8--8------8-(8)s10s8-|--8--8-8-8---8-(8)s10s8-|
|-----9--9---9-------------|-------9-9-9------------|
|------------9-------------|-----------9------------|
|--------------------------|------------------------|
|--------------------------|------------------------|


  E5/B
  |                        |
  o                        /

|----------------7------|-(7)-------------------|
|-------7-(7)----7------|-(7)-------------------|
|-------7-(7)-7---------|-----------------------|
|-------7-(7)-----------|-----------------------|
|-----------------------|-----------------------|
|-0---------------------|-----------------------|
|
|-5-5---------5-(5)s7s5-|--5--5-------5-(5)s7s5-|
|-7-7-7-7-----7-(7)s8s7-|--7--7-7-7---7-(7)s8s7-|
|-----7-7--7------------|-------7-7-7-----------|
|----------7------------|-----------7-----------|
|-----------------------|-----------------------|
|-----------------------|-----------------------|


  |                           |
  /                           /

|--------8--(8)s7--7-------|-(7)--------------------|
|-------10-(10)s8--8-------|-(8)--------------------|
|-------11-(11)s9--9-------|-(9)--------------------|
|--------------------------|------------------------|
|--------------------------|------------------------|
|-0------------------------|------------------------|
|
|-7-7-----------7-(7)s=8s7-|--7--7-------7-(7)s=8s7-|
|-8-8-8--8------8-(8)s10s8-|--8--8-8-8---8-(8)s10s8-|
|-----9--9---9-------------|-------9-9-9------------|
|------------9-------------|-----------9------------|
|--------------------------|------------------------|
|--------------------------|------------------------|


  |                        |
  /                        /

|----------------7------|-(7)-------------------|
|-------7-(7)----7------|-(7)-------------------|
|-------7-(7)-7---------|-----------------------|
|-------7-(7)-----------|-----------------------|
|-----------------------|-----------------------|
|-0---------------------|-----------------------|
|
|-5-5---------5-(5)s7s5-|--5--5-------5-(5)s7s5-|
|-7-7-7-7-----7-(7)s8s7-|--7--7-7-7---7-(7)s8s7-|
|-----7-7--7------------|-------7-7-7-----------|
|----------7------------|-----------7-----------|
|-----------------------|-----------------------|
|-----------------------|-----------------------|


 3rd interlude
  E5/B                                  C5
  |                  |                   |                   |
  /                  /                   /                   /

|-----0-----0-----|--0------0---------|-------------2---0-|-(0)-2-0------------|
|---0-----0-----0-|-------0-----0-----|-------3-(3)---3-3-|-(3)-----3---3------|
|-----------------|-------------------|-----0-------------|-----------0---0-0--|
|-2-----4-----5---|-----7-----5---4s2-|-------------------|--------------------|
|-----------------|-------------------|--3----------------|--------------------|
|-----------------|-------------------|-------------------|--------------------|
|
|-5S3-3-----------|-(3)---------------|-(3)---------------|--------------------|
|-7S5-5-----------|-(5)---------------|-(5)---------------|--------------------|
|-----------------|-------------------|-------------------|--------------------|
|-----------------|-------------------|-------------------|--------------------|
|-----------------|-------------------|-------------------|--------------------|
|-----------------|-------------------|-------------------|--------------------|


    E5/B
    |                 |
    /                 /

||------0-----0-----|-0-----0---------|
||o---0-----0-----0-|-----0-----0-----|
||------------------|-----------------|
||--2-----4-----5---|---7-----5---4s2-|
||o-----------------|-----------------|
||------------------|-----------------|


  C5
  |                      |
  /                      /

                                         3x
|-----------2---0--|-(0)-2-0-------------||
|-----3-(3)---3-3--|-(3)-----3---3------o||
|---0--------------|-----------0---0-0---||
|------------------|---------------------||
|-3----------------|--------------------o||
|------------------|---------------------||


 4th
  QQ=97
 5/4
   Gtr II
|--7-7-7-7-7-7-7-7-7-7-7-7-7-7-7-7--7-7-|-8-8-8-7-8-8-8-7-8-8-8-7--8-8-8-7-8-7-|
|--8-8-8-7-8-8-8-7-8-8-8-7-8-8-8-7--8-7-|-8-8-8-7-8-8-8-7-8-8-8-7--8-8-8-7-8-7-|
|--9-9-9-9-9-9-9-9-9-9-9-9-9-9-9-9--9-7-|-9-9-9-7-9-9-9-7-9-9-9-7--9-9-9-7-9-7-|
|---------------------------------------|--------------------------------------|
|---------------------------------------|--------------------------------------|
|---------------------------------------|--------------------------------------|


|---7-7-7-7-7-7-7-7-7--7-7--7--7-7-7--7-----7--7-|
|---8-8-8-7-8-8-8-7-8--8-8--7--8-8-8--7-----8--7-|
|---9-9-9-9-9-9-9-9-9--9-9--9--9-9-9--9-----9--7-|
|------------------------------------------------|
|------------------------------------------------|
|------------------------------------------------|
|
| Gtrs III, IV, VI
|------------------------------------------------|
|------------------------------------------------|
|------------------------------------------------|
|---5-------7-------9------10-----------10s12----|
|-1s2-----7-3-----9-5-10----7-12---------7s=9-14-|
|---------3-------5----7-------8--------------10-|


|-8-8-8-7--8-8-8-7--8-8-8--7--8-8-8--7--8--7-----------|
|-8-8-8-7--8-8-8-7--8-8-8--7--8-8-8--7--8--7-----------|
|-9-9-9-7--9-9-9-7--9-9-9--7--9-9-9--7--9--7-----------|
|------------------------------------------------------|
|------------------------------------------------------|
|------------------------------------------------------|
|
|------------------------------------------------------|
|------------------------------------------------------|
|-7s====9----------11--------12--------14-------16-----|
|-------5-10-----5s=7-----12--9-----14-10-16-10s12-17--|
|----------7---------------9--------10----12-------14--|
|------------------------------------------------------|


    Q=Q=146
      E5/B                                      C5
   4/4
      Gtr I
      |                  |
      /                  /

      Gtrs III, IV
              ~~~~~~~~~~~~~~
||--3s5-----3-3-------|-(3)-------5s7---5---3---|
||o-5s7-----5-5-------|-(5)-------7-8---7---5---|
||--------------------|-------------------------|
||--------------------|-------------------------|
||o-------------------|-------------------------|
||--------------------|-------------------------|
|
|     Gtr II
||--------0-----0---0-|--0------0---------------|
||o-----0-----0-------|-------0-------0---------|
||--------------------|-------------------------|
||----2-----4-----5---|-----7-------5-----4s==2-|
||o-------------------|-------------------------|
||--------------------|-------------------------|


                   1.                   2.
  |                  |                    |
  /                  /                    /

           ~~~~~~~~~~~~~                  ~~~
|-2-----3---------|-------------------||----------------------||
|-3-----5--5------|-(5)--------------o||-(5)------5/----------||
|----------5------|-(5)---------------||-(5)------5/----------||
|-----------------|-------------------||----------------------||
|-----------------|------------------o||----------------------||
|-----------------|-------------------||----------------------||
|
|--------------2--|-(2)---------------||--2-------------------||
|-------3-(3)-----|-----3-3--3-----3-o||-----3-3--3------3----||
|-----0-----------|------------0------||-------------0--------||
|---2-------------|--------------2----||---------------2------||
|-3---------------|------------------o||----------------------||
|-----------------|-------------------||----------------------||


               ~~~~~~~~~~~~
||---9s=12-12-12----|-(12)--------------------|
||o-10s=12-12-12----|-(12)--------------------|
||------------------|-------------------------|
||------------------|-------------------------|
||o-----------------|-------------------------|
||------------------|-------------------------|
|
||---9s==7--7--7----|--(7)--------------------|
||o-10s==8--8--8----|--(8)--------------------|
||--11s==9--9--9----|--(9)--------------------|
||------------------|---------7-7-7-(7)-7-8-9-|
||o-----------------|-------------------------|
||------------------|-------------------------|


                        1.                           2.
                 ~~~~      ~~~~
|--9s====12-12-(12)----|-(12)------(12)\-----||-(12)----12s======|
|-10s====12-12--12-----|-(12)------(12)\----o||-(12)----12-------|
|----------------------|---------------------||------------------|
|----------------------|---------------------||------------------|
|----------------------|--------------------o||------------------|
|----------------------|---------------------||------------------|
|
|------------7--(7)----|--(7)--------7-------||--(7)--------7----|
|------------7--(7)----|--(7)--------7------o||--(7)--------7----|
|------------7--(7)----|--(7)--------7-------||--(7)--------7----|
|--7-7-------7--(7)----|--(7)--------7-------||--(7)--------7----|
|------7-----7--(7)----|--(7)--------7------o||--(7)--------7----|
|---------0------------|---------------------||------------------|


 5th
|-15----------------------|-(15)----------------------|
|-17----------------------|-(17)----------------------|
|-------------------------|---------------------------|
|-------------------------|---------------------------|
|-------------------------|---------------------------|
|-------------------------|---------------------------|
|
|  PM------| ~~~~~~           PM-------| ~~~~~~
|-------------------------|---------------------------|
|------------8-(8)-7-8s10-|--------------8-(8)-7-8s10-|
|------------9-(9)-7-9s11-|--------------9-(9)-7-9s11-|
|--------7-9--------------|----------7-9--------------|
|--7-9-9------------------|---7--9-9------------------|
|-------------------------|---------------------------|


|---------------------------|------------------------------|
|---------------------------|------------------------------|
|---------------------------|------------------------------|
|---------------------------|------------------------------|
|---------------------------|------------------------------|
|---------------------------|------------------------------|
|
| PM------| ~~~~~~PM------------------| ~~~~~~PM------|
|---------------------------|------------------------------|
|-----------7-(7)-----------|-----------7-(7)--------------|
|-----------7-(7)-----------|-----------7-(7)--------------|
|-------7-9-------9-9-7-7---|-------7-9-------9-9-7-7------|
|-7-9-9-------------------9-|-7-9-9-------------------9----|
|---------------------------|------------------------------|


    Gtrs I, II
    PM------| ~~~~~~         PM------| ~~~~~~
||-------------------------|------------------------|
||o-----------8-(8)-7-8s10-|-----------8-(8)-7-8s10-|
||------------9-(9)-7-9s11-|-----------9-(9)-7-9s11-|
||--------7-9--------------|-------7-9--------------|
||o-7-9-9------------------|-7-9-9------------------|
||-------------------------|------------------------|


  PM------| ~~~~~~PM------------------| ~~~~~~PM------|
                                                           4x
|---------------------------|------------------------------||
|-----------7-(7)-----------|-----------7-(7)-------------o||
|-----------7-(7)-----------|-----------7-(7)--------------||
|-------7-9-------9-9-7-7---|-------7-9-------9-9-7-7------||
|-7-9-9-------------------9-|-7-9-9-------------------9---o||
|---------------------------|------------------------------||


                                   C5
                                   Gtr I
                                   |
                                   /

  Gtr II                           Gtr II
|---0-(0)------|-----------------|--------------|-----2---0--------|
|---0-(0)------|-----------------|--------------|-----------3-3----|
|--------------|-----------------|---------0----|-(0)--------------|
|-2-4-(4)-4--5-|-(5)-5h7---5-4s2-|---2-(2)------|------------------|
|--------------|-----------------|-3------------|------------------|
|--------------|-----------------|--------------|------------------|


  E5/B                                 C5
  |                   |                |             |
  /                   /                /             /

|------------------|-----------------|-------------|---2--0----------|
|---0------------0-|-(0)-------------|-------------|--------3-3------|
|----------------0-|-(0)-------------|---------0---|-0----------0----|
|-2---2s4-4-(4)--5-|-(5)-5s7---5-4s2-|---2-(2)-----|-----------------|
|------------------|-----------------|-3-----------|-----------------|
|------------------|-----------------|-------------|-----------------|


  E5/B                                             C5
  Gtr I
    |                      |
    /                      /

  Gtrs III, IV
|------------------------|-------------------------|
|------------------------|-------------------------|
|------------------------|-------------------------|
|-4s5------7-(7)-----9---|-5-9s10--------12--------|
|-1s2---7--3-(3)-9-4s5---|------7---12-7s=9---14---|
|-------3--------5-------|-7---------8--------10---|
|
| Gtr II
|-------0--------0-----0-|-0---------0-------------|
|-----0-------0----------|--------0---------0------|
|------------------------|-------------------------|
|---2------4---------5---|------7---------5----4s2-|
|------------------------|-------------------------|
|------------------------|-------------------------|


    |                        |
    /                        /

|-------------------------|-----------------------------|
|-------------------------|-----------------------------|
|---9------11-11------12--|-----12s14---------16--------|
|-4s5---10--7--7--12---9--|-14---9s10---16-11s12---17---|
|--------7---------9------|-10----------12---------14---|
|-------------------------|-----------------------------|
|
|----------------------2--|-(2)-------------------------|
|-----------3-(3)---------|---------3-3--------3------3-|
|--------0----------------|----------------------0------|
|-----2-------------------|-------------------------2---|
|---3---------------------|-----------------------------|
|-------------------------|-----------------------------|


    E5/B
    |                        |
    /                        /

|-------------------------|------------------------|
|-------------------------|------------------------|
|---4-----4s5-(5)-----7---|------9-------11--------|
|-4s5---5---7-(7)-7-8s9---|--9--10---10--12---12---|
|-------7---------9-------|-10-------12-------14---|
|-------------------------|------------------------|
|
|-------0---------0-------|--0--------0------------|
|-----0--------0--------0-|--------0--------0------|
|-------------------------|------------------------|
|---2-------4---------5---|------7--------5----4s2-|
|-------------------------|------------------------|
|-------------------------|------------------------|


    C5
    |                           |
    /                           /

|----------------------------|-----------------------------|
|-7s8--------10-(10)-----12--|--------13------15-----------|
|-7s9----9-9s11-(11)-11--12--|-12--13s14--14--16---16------|
|-------10-----------12------|-14---------16-------17------|
|----------------------------|-----------------------------|
|----------------------------|-----------------------------|
|
|----------------------------|---------2-------0-0---------|
|-------------3--(3)---------|-(3)--------------------13---|
|-----0----------------------|----------------------0------|
|--------2-------------------|-------------------------0---|
|---3------------------------|-----------------------------|
|----------------------------|-----------------------------|


 6th
  Q=97
 5/4
  Gtr III
   ~~~~~~~~~~~~~~~~~~~~~~~~~~~~~~~~~~~~~~~~~~~~~~~~~~~~~                                                        ~~~
|-----------------12-(12)----------------------------12----|--12--------------------------------------------------|
|-12----------------------------12--------------(12)-------|---------------------------------------------12s13-12-|
|----------------------------------------------------------|----------------------14-(14)s====12--12--------------|
|----------------------------------------------------------|------------------------------------------------------|
|----------------------------------------------------------|------------------------------------------------------|
|----------------------------------------------------------|------------------------------------------------------|
|
| Gtr IV
|----------------------------------------------------------|------------------------------------------------------|
|-12-------15s====17-(17)s======15-------------------------|---------------------------------------------------12-|
|------------------------------------11---12s14--14-----12-|-(12)-----14s16----------(16)s====14--12--------12----|
|----------------------------------------------------------|------------------------------------------------------|
|----------------------------------------------------------|------------------------------------------------------|
|----------------------------------------------------------|------------------------------------------------------|
|
| Gtr II
|----------------------------------------------------------|------------------------------------------------------|
|----------------------------------------------------------|------------------------------------------------------|
|----------------------------------------------------------|------------------------------------------------------|
|--4-4-4-2--4-4-4--2---4--4-4-2--4-4--4-2------------------|---4--4-4--3--4-4-4-3------4--4-4--3---4-4-4--3-------|
|--2-2-2-2--2-2-2--2---2--2-2-2--2-2--2-2------------------|---3--3-3--3--3-3-3-3------3--3-3--3---3-3-3--3-------|
|----------------------------------------------------------|------------------------------------------------------|


 ~~~~~~
|------------------------------------------15s17----15-------|
|-(12)-----15s17-------(17)s====15---------------------------|
|------------------------------------------------------------|
|------------------------------------------------------------|
|------------------------------------------------------------|
|------------------------------------------------------------|
|
|------------------------------------------------------12----|
|-(12)------------------13s=====12--12-----------12----------|
|------------------------------------------------------------|
|------------------------------------------------------------|
|------------------------------------------------------------|
|------------------------------------------------------------|
|
|------------------------------------------------------------|
|------------------------------------------------------------|
|------------------------------------------------------------|
|---4--4-4--2--4-4-4-2---4--4-4--2---4-4-4-----2-------------|
|---2--2-2--2--2-2-2-2---2--2-2--2---2-2-2-----2-------------|
|------------------------------------------------------------|


                   ~~~~~~~~~~~~~                                                          ~~~~~
|--------------------------------------------------------|-------------------------------12----------------------|
|------15s16-(16)s17-(17)-(17)\------12s13-12------------|-(12)----------13-(13)s=12-----12----------------------|
|--------------------------------------------------------|-------------------------------------------------------|
|--------------------------------------------------------|-------------------------------------------------------|
|--------------------------------------------------------|-------------------------------------------------------|
|--------------------------------------------------------|-------------------------------------------------------|
|
|   ~~~~                         ~~
|-(12)---------------------------------------------------|-------------------------------------------------------|
|---------------------------------------12---------------|----------------------------------------13s15-13-------|
|-----------------14-(14)s=12---12---12-------16---------|-(16)-14-12-14s16------(16)---(16)\--------------------|
|--------------------------------------------------------|-------------------------------------------------------|
|--------------------------------------------------------|-------------------------------------------------------|
|--------------------------------------------------------|-------------------------------------------------------|
|
|--------------------------------------------------------|-------------------------------------------------------|
|--------------------------------------------------------|-------------------------------------------------------|
|--------------------------------------------------------|-------------------------------------------------------|
|---4---4--4---3---4---4----4----3-4--4--4--3--4-4-4-3---|---4---4--4--2--4---4----4--2---4---4-4--2--4--4-4-2---|
|---3---3--3---3---3---3----3----3-3--3--3--3--3-3-3-3---|---2---2--2--2--2---2----2--2---2---2-2--2--2--2-2-2---|
|--------------------------------------------------------|-------------------------------------------------------|


|-(12)-15s=17--(17)-----------(17)-----15-------------------------|
|-(12)------------------------------------17-15-17s===============|
|-----------------------------------------------------------------|
|-----------------------------------------------------------------|
|-----------------------------------------------------------------|
|-----------------------------------------------------------------|
|
|                                             ~~          ~~
|-----------------------------------------------------------------|
|--12--13-(13)----------------------------------12-12-------|
|-----------------------------------12-12-------12-12-12----|
|-----------------------------------------------14s12-12----12----|
|-----------------------------------------------------------------|
|-----------------------------------------------------------------|
|
|-----------------------------------------------------------------|
|-----------------------------------------------------------------|
|-----------------------------------------------------------------|
|---4---4---4----3--4--4---4----3---4---4--4--3--4--4--4--3-------|
|---3---3---3----3--3--3---3----3---3---3--3--3--3--3--3--3-------|
|-----------------------------------------------------------------|


           ~~~~~~~~~~~~~~~~~~~~~~~
|----------------------------------------------------------|
|--15-----15----(15)---------(15)-----14s=15-12------------|
|------16-----------------------------------------14-------|
|----------------------------------------------------------|
|----------------------------------------------------------|
|----------------------------------------------------------|
|
|----------------------------------------------------------|
|------------13s=12--(12)-12------12-(12)s===13s===========|
|-(12)-----------------------------------------------------|
|-(12)-----------------------------------------------------|
|----------------------------------------------------------|
|----------------------------------------------------------|
|
|----------------------------------------------------------|
|----------------------------------------------------------|
|----------------------------------------------------------|
|---4---4--4--2---4----4---4---2---4---4---4--2-4--4-4-2---|
|---2---2--2--2---2----2---2---2---2---2---2--2-2--2-2-2---|
|----------------------------------------------------------|


             ~~~~~~~~~~~
|--------------------------------15s=17s=====15-----------|
|---------------------------------------------------------|
|-12----12s=14--12-(12)------0----------------------------|
|----14---------------------------------------------------|
|---------------------------------------------------------|
|---------------------------------------------------------|
|
|                ~~~~~~~~~~~~~~~
|---------------------------------------------------------|
|-14--------------------12-(12)-(12)s10---10--------------|
|-------14-(14)-12-(12)-----------------------------------|
|---------------------------------------------------------|
|---------------------------------------------------------|
|---------------------------------------------------------|
|
|---------------------------------------------------------|
|---------------------------------------------------------|
|---------------------------------------------------------|
|--4--4--4---3---4---4---4---3----4---4-4--3--4-4-4-3-----|
|--3--3--3---3---3---3---3---3----3---3-3--3--3-3-3-3-----|
|---------------------------------------------------------|


  QQ=146
 4/4
                       >
|--(15)------------|-------------------------|---------------------|-----------|
|-------17-17------|-(17)--------------------|-(17)----------------|-(17)------|
|------------------|-------------------------|---------------------|-----------|
|------------------|-------------------------|---------------------|-----------|
|------------------|-------------------------|---------------------|-----------|
|------------------|-------------------------|---------------------|-----------|
|
|                                                >
|------------------|-------------------------|---------------------|-----------|
|--(10)s=8--8s7----|--(7)--------------------|--(7)----------------|--(7)------|
|------------------|-------------------------|---------------------|-----------|
|------------------|-------------------------|---------------------|-----------|
|------------------|-------------------------|---------------------|-----------|
|------------------|-------------------------|---------------------|-----------|
|
| Gtrs I, II
|----9s==7--7-7----|--(7)--------------------|------------7-(7)----|--(7)------|
|---10s==8--8-8----|--(8)--------------------|------------7-(7)----|--(7)------|
|---11s==9--9-9----|--(9)--------------------|------------7-(7)----|--(7)------|
|------------------|---------7-7-7-(7)-7-8-9-|---7--7-----7-(7)----|--(7)------|
|------------------|-------------------------|--------7---7-(7)----|--(7)------|
|------------------|-------------------------|----------0----------|-----------|


  Gtrs I, II
|--9s=7-7-7----|-(7)--------------------|---------7-(7)----|-(7)--------||
|-10s=8-8-8----|-(8)--------------------|---------7-(7)----|-(7)--------||
|-11s=9-9-9----|-(9)--------------------|---------7-(7)----|-(7)--------||
|--------------|--------7-7-7-(7)-7-8-9-|-7-7-----7-(7)----|-(7)--------||
|--------------|------------------------|-----7---7-(7)----|-(7)--------||
|--------------|------------------------|-------0----------|------------||


   7th
    PM------| ~~~~~~          PM------| ~~~~~~
||--------------------------|-------------------------|
||o-----------8-(8)-7-8s10--|-----------8-(8)-7-8s10--|
||------------9-(9)-7-9s11--|-----------9-(9)-7-9s11--|
||--------7-9---------------|-------7-9---------------|
||o-7-9-9-------------------|-7-9-9-------------------|
||--------------------------|-------------------------|


  PM------| ~~~~~~PM------------------| ~~~~~~PM------|
                                                         4x
|---------------------------|----------------------------||
|-----------7-(7)-----------|-----------7-(7)-----------o||
|-----------7-(7)-----------|-----------7-(7)------------||
|-------7-9-------9-9-------|-------7-9-------9-9--------||
|-7-9-9---------------7-7-9-|-7-9-9---------------7-7-9-o||
|---------------------------|----------------------------||


|--9s=7-7-7----|-(7)--------------------|---------7-(7)----|-(7)--------|
|-10s=8-8-8----|-(8)--------------------|---------7-(7)----|-(7)--------|
|-11s=9-9-9----|-(9)--------------------|---------7-(7)----|-(7)--------|
|--------------|--------7-7-7-(7)-7-8-9-|-7-7-----7-(7)----|-(7)--------|
|--------------|------------------------|-----7---7-(7)----|-(7)--------|
|--------------|------------------------|-------0----------|------------|


                                                            9/8
|--9s=7-7-7----|-(7)--------------------|---------7-(7)----|-(7)-(7)---------|
|-10s=8-8-8----|-(8)--------------------|---------7-(7)----|-(7)-(7)---------|
|-11s=9-9-9----|-(9)--------------------|---------7-(7)----|-(7)-(7)---------|
|--------------|--------7-7-7-(7)-7-8-9-|-7-7-----7-(7)----|-(7)-(7)---------|
|--------------|------------------------|-----7---7-(7)----|-(7)-(7)---------|
|--------------|------------------------|-------0----------|---------------2-|


   4/4
    Gtrs I, VI
||----------------|------2p=0---------------|
||o---------------|--3---------3p=0---------|
||--(0)--------2--|-------------------0-----|
||----------4-----|-------------------------|
||o------4--------|-------------------------|
||--(2)-----------|-(2)--------------(2)--0-|


|-------------|-----2p0--------------||
|-------------|--3------3p0---------o||
|-(0)-------0-|--------------0-------||
|--------4----|----------------------||
|-----2-------|---------------------o||
|-(0)---------|-(0)---------(0)-2----||

comments
print report bad tab
6 comments total. Showing first comments.
0 reply
Maitinin wrote on December 8 2005, 01:12 pm

...now he's doing it again - copying a tab, cutting out the rhythm indications (to make it look like he's done it himself) and posting it on a public site, while getting all the credits for it.
If you want to see the original, follow the link:

http://www.mikesguitarsite.co.uk/tabs/led_zeppelin/achilles_last_stand.php

0 reply
2020vision wrote on December 8 2005, 01:23 pm

seriously.. i hate when people post guitar pro/powertabs.. theres just soooo much extra stuff and repeated riffs you just dont need

0 reply
nflfan04 wrote on December 28 2005, 04:25 pm

its way wrong. the 2nd tab on this site is the best. the ascending part is way off. i say Page play it. he didnt play it like that

I want to post or [tab]
guest
You may want to rate the tab now too:
select rating
Please do not post tabs as comments. Select "correction" instead!