Oops, an error
Loading. Please wait.

Achilles Last Stand Tab

ver4
ver4

Solo

More versions @911Tabs.com
2,338 views 3 this week
6 commentsread comments
1 2 3 4 5
accurate
x 6
Autoscroll
+/-
esc
set tempo
stop
Contributor
Difficulty
intermediate
WARNING: You are trying to view
                                    content from Ultimate-Guitar.com
                                    in an unauthorized application,
                                    which is prohibited.

                                    Please use an official Ultimate
                                    Guitar Tabs application for iPhone,
                                    iPad or Android to access legitimate
                                    chords, guitar, bass, and drum tabs
                                    from Ultimate-Guitar.com database.

                                    Type "ultimate guitar tabs" in Apple
                                    App Store's or Android Market's
                                    search to find the application.
ok i rekon dis is led zep's best song eva! but its abit hard 2 play nd memorise 
i fink dis tab is 99% correct
although there r multiple guitar prts iv just tabbed da main prt just like jimmy wud play live

eBGDAE

Intro
 
|-------------2p0----------|--------------2p0-------------|
|----------3------3p0------|-----------3-------3p0--------|
|-0------0-------------0---|--0------2--------------0-----|
|------4-------------------|-------4----------------------|
|----2---------------------|-----4------------------------|
|-0------------------------|--2---------------------------|       x3

|-------------2p0----------|----------------0---------|
|-----------3-----3p0------|------------0--(0)--------|
|-0-------0------------0---|--0------2----------------|
|------4-------------------|-------4------------------|
|----2---------------------|--------------------------|
|-0------------------------|--2-----------------------|

Main Riff
  
|----9.-------7----7~-----------------------------7~----------------|
|---10.-------8----8~-----------------------------7~----------------|
|---11.-------9----9~-----------------------------7~----------------|
|------------------------7-7--7-7-8-9--7-7--------7~----------------|
|------------------------------------------7-7----------------------|
|----------------------------------------------0--------------------|    x4

Verse 1                
                  
|---------9------7~----------------5~-------------------------------|
|--------10------8~-----------7----7~-------------------------------|
|--------11------9~-----------7----7~-------------------------------|
|-----------------------------7-------------------------------------|
|-------------------------------------------------------------------|
|---0~--------------------0~----------------------------------------|          x2

                         
|---------9------7~----------------7~-------------------------------|
|--------10------8~-----------7----7~-------------------------------|
|--------11------9~-----------7----7~-------------------------------|
|-----------------------------7-------------------------------------|
|-------------------------------------------------------------------|          
|---0~--------------------0~----------------------------------------|            x2

Main Riff
  
|----9.-------7----7~-----------------------------7~----------------|
|---10.-------8----8~-----------------------------7~----------------|
|---11.-------9----9~-----------------------------7~----------------|
|------------------------7-7--7-7-8-9--7-7--------7~----------------|
|------------------------------------------7-7----------------------|
|----------------------------------------------0--------------------|    x2

Verse 2 
               
|---------9------7~----------------7~-------------------------------|
|--------10------8~-----------7----7~-------------------------------|
|--------11------9~-----------7----7~-------------------------------|
|-----------------------------7-------------------------------------|
|-------------------------------------------------------------------|          
|---0~--------------------0~----------------------------------------|            x1
                  
|---------9------7~----------------5~-------------------------------|
|--------10------8~-----------7----7~-------------------------------|
|--------11------9~-----------7----7~-------------------------------|
|-----------------------------7-------------------------------------|
|-------------------------------------------------------------------|
|---0~--------------------0~----------------------------------------|            x2
                         
|---------9------7~----------------7~-------------------------------|
|--------10------8~-----------7----7~-------------------------------|
|--------11------9~-----------7----7~-------------------------------|
|-----------------------------7-------------------------------------|
|-------------------------------------------------------------------|          
|---0~--------------------0~----------------------------------------|            x1

Bridge 1
 
|---------------------------------------|---------|-----------------|
|--9---7--8--9--------------------------|---------|-----------------|
|--9---7--8--9---7-8-9-9--7-8-9--7-9----|--10~----|--10~~\----------|
|--9---7--8--9---7-8-9-9--7-8-9--7-9----|--10~----|--10~~\----------|
|---------------------------------------|---------|-----------------|
|---------------------------------------|---------|-----------------|           x2

Lead Part I

|-------------------------------------------------------------------|
|-------------------------------------------------------------------|
|-------------------------------------------------------------------|
|--4s5----5s7---7s9-----10-----10s12--------------------------------|
|------7------9-----10------12--------14----------------------------|
|-------------------------------------------------------------------|

|-------------------------------------------------------------------|
|-------------------------------------------------------------------|
|--7s9-----11----12-----12s14-----14s16-----------------------------|
|------10-----12----14---------16--------17s12----------------------|
|-------------------------------------------------------------------|
|-------------------------------------------------------------------|

|-------------------------------------------------------------------|
|-------------------------------------------------------------------|
|--2s4----5----5s7---7s9-----9s11-----------------------------------|
|------5----7------9-----10-------12s9------------------------------|
|-------------------------------------------------------------------|
|-------------------------------------------------------------------|

|-------------------------------------------------------------------|
|--7s8----10----10s12------13------15--------17s19---17--17~~~------|
|------9-----11---------12------14-----16---------------------------|
|-------------------------------------------------------------------|
|-------------------------------------------------------------------|
|-------------------------------------------------------------------|

Main Riff
  
|----9.-------7----7~-----------------------------7~----------------|
|---10.-------8----8~-----------------------------7~----------------|
|---11.-------9----9~-----------------------------7~----------------|
|------------------------7-7--7-7-8-9--7-7--------7~----------------|
|------------------------------------------7-7----------------------|
|----------------------------------------------0--------------------|    x2

Verse 3               
                  
|---------9------7~----------------5~-------------------------------|
|--------10------8~-----------7----7~-------------------------------|
|--------11------9~-----------7----7~-------------------------------|
|-----------------------------7-------------------------------------|
|-------------------------------------------------------------------|
|---0~--------------------0~----------------------------------------|            x1
                         
|---------9------7~----------------7~-------------------------------|
|--------10------8~-----------7----7~-------------------------------|
|--------11------9~-----------7----7~-------------------------------|
|-----------------------------7-------------------------------------|
|-------------------------------------------------------------------|          
|---0~--------------------0~----------------------------------------|            x1

|---------9------7~----------------5~-------------------------------|
|--------10------8~-----------7----7~-------------------------------|
|--------11------9~-----------7----7~-------------------------------|
|-----------------------------7-------------------------------------|
|-------------------------------------------------------------------|
|---0~--------------------0~----------------------------------------|            x1
                         
|---------9------7~----------------7~-------------------------------|
|--------10------8~-----------7----7~-------------------------------|
|--------11------9~-----------7----7~-------------------------------|
|-----------------------------7-------------------------------------|
|-------------------------------------------------------------------|          
|---0~--------------------0~----------------------------------------|            x1

Guitar Solo I

|---(9.)---(7)-(7~)----'12--9---------------------------------------|
|--(10.)---(8)-(8~)---'10-----10--10b12--10--8~---------------------|
|--(11.)---(9)-(9~)---11--------------------------------------------|
|-------------------------------------------------------------------|
|-------------------------------------------------------------------|
|-------------------------------------------------------------------|
                      
|--------------------(7~)----'10---7--------------------------------|
|--------------------(7~)---'7-------8--8s10--7---------------------|
|--------------------(7~)---7--------------------7~-----------------|
|--(7)-(7)-----------(7~)-------------------------------------------|
|----------(7)-(7)--------------------------------------------------|
|-----------------(0)-----------------------------------------------|
                             
|---(9.)---(7)-(7~)----'12--9-----9b10---9--7~----------------------|
|--(10.)---(8)-(8~)---'10-----10------------------------------------|
|--(11.)---(9)-(9~)---11--------------------------------------------|
|-------------------------------------------------------------------|
|-------------------------------------------------------------------|
|-------------------------------------------------------------------|

|---------------------(7~)----'10--7----7s9--------|----------------|
|---------------------(7~)---'7------8------10-----|----------------|
|---------------------(7~)---7-----------------11--|--9b11r9---9~---|
|--(7)-(7)------------(7~)-------------------------|----------------|
|----------(7)-(7)---------------------------------|----------------|
|-----------------(0)------------------------------|----------------|

Verse 4              
                  
|---------9------7~----------------5~-------------------------------|
|--------10------8~-----------7----7~-------------------------------|
|--------11------9~-----------7----7~-------------------------------|
|-----------------------------7-------------------------------------|
|-------------------------------------------------------------------|
|---0~--------------------0~----------------------------------------|            x1
                         
|---------9------7~----------------7~-------------------------------|
|--------10------8~-----------7----7~-------------------------------|
|--------11------9~-----------7----7~-------------------------------|
|-----------------------------7-------------------------------------|
|-------------------------------------------------------------------|          
|---0~--------------------0~----------------------------------------|            x1

|---------9------7~----------------5~-------------------------------|
|--------10------8~-----------7----7~-------------------------------|
|--------11------9~-----------7----7~-------------------------------|
|-----------------------------7-------------------------------------|
|-------------------------------------------------------------------|
|---0~--------------------0~----------------------------------------|            x1
                         
|---------9------7~----------------7~-------------------------------|
|--------10------8~-----------7----7~-------------------------------|
|--------11------9~-----------7----7~-------------------------------|
|-----------------------------7-------------------------------------|
|-------------------------------------------------------------------|          
|---0~--------------------0~----------------------------------------|            x1

Bridge 1
 
|---------------------------------------|---------|-----------------|
|--9---7--8--9--------------------------|---------|-----------------|
|--9---7--8--9---7-8-9-9--7-8-9--7-9----|--10~----|--10~~\----------|
|--9---7--8--9---7-8-9-9--7-8-9--7-9----|--10~----|--10~~\----------|
|---------------------------------------|---------|-----------------|
|---------------------------------------|---------|-----------------|           x4

Guitar Solo II

|----------7---------------------------------------------------5----|
|--------------7--5--5~~----8b10r8--------------5--5~-------8-------|
|-------7-----------------------------7b9r7-----5--5~----5-(5)------|
|--7s9------------------------------------------5--5~---------------|
|-------------------------------------------------------------------|
|-------------------------------------------------------------------|

|--3h5p3----3~--------3------3h5p3-------3-----5~---------------7---|
|--------5---------------------------5------5-(5)~------------------|
|--------4--4~-----4----4------------5------5-(5)~-----------7------|
|--------------------------------------------------------7s9--------|
|-------------------------------------------------------------------|
|-------------------------------------------------------------------|

|-------------------------------------------10b12r10---------12.-14.|
|--7--5--5~----7-8-10--8h10p8--7--8--7--8----------------12.--------|
|-------------------------------------------------------------------|
|-------------------------------------------------------------------|
|-------------------------------------------------------------------|
|-------------------------------------------------------------------|

|---14b15r14p12--14b15r14p12---12--14--14b15r14p12---15b17r15-------|
|-------------------------------------------------------------------|
|-------------------------------------------------------------------|
|-------------------------------------------------------------------|
|-------------------------------------------------------------------|
|-------------------------------------------------------------------|

|------------------------------------------------------------------|
|-13--13~~----12--13----12-----------------------------------------|
|--------------------14------12------------------12--14------------|
|--------------------------------14--14~~~----14-------------------|
|------------------------------------------------------------------|
|------------------------------------------------------------------|

|------------------------------------------------------------------|
|--------------------------------------------12-13--15p13p12-13p12-|
|-14b16r14b16r14p12-------------------12--14-----------------------|
|---------------------14--14~~----14-------------------------------|
|------------------------------------------------------------------|
|------------------------------------------------------------------|

|---------------------------------------12-14-15.-15p14p12---------|
|---12-----12h13p12----12-----12-13-15-----------------------------|
|14----14-----------14---------------------------------------------|
|------------------------------------------------------------------|
|------------------------------------------------------------------|
|------------------------------------------------------------------|

|14~~~~p12-----12-------12-----------------------------------------|
|-----------15----15p12-13--12-----12------------------------------|
|-------------------------------14----14-12----14-----12h14p12-----|
|-------------------------------------------14----14---------------|
|------------------------------------------------------------------|
|------------------------------------------------------------------|

|----------------------------------15------15------17b19-----------|
|------------------------------15----17.-----17--------------------|
|--------12--------------14s16-------------------------------------|
|-14--14-----------------------------------------------------------|
|------------------------------------------------------------------|
|------------------------------------------------------------------|

|x--17.--x----12--12~~~~---15b17r15~----15p14p12h14~~---12h14p12~--|
|------------------------------------------------------------------|
|------------------------------------------------------------------|
|------------------------------------------------------------------|
|------------------------------------------------------------------|
|------------------------------------------------------------------|

|12h14p12---------------------------------------------------12-----|
|----------15b17-----15-13----13--12-12-12~~~~--------12-15--------|
|--------------------------14----------------------12--------------|
|------------------------------------------------------------------|
|------------------------------------------------------------------|
|-----------------------------------------------------------------|

|14--15p14p12--14~---12-14-15-17-19-20b22~~~-----20.--19.--17------|
|------------------------------------------------------------------|
|------------------------------------------------------------------|
|------------------------------------------------------------------|
|------------------------------------------------------------------|
|------------------------------------------------------------------|

|19~~~--x------17b18-------17--15--17--17b19~-------17b19----17----|
|-----------0.-----------------------------------------------------|
|-----------------------0.-----------------------0-----------------|
|------------------------------------------------------------------|
|------------------------------------------------------------------|
|-----------------------------------------------------------------|

|-15---17b19----17--15---14~~~~~----14h15p14p12--14~~---12--14-15--|
|------------------------------------------------------------------|
|------------------------------------------------------------------|
|------------------------------------------------------------------|
|------------------------------------------------------------------|
|------------------------------------------------------------------|

|-17p15~~---15--15~~----12--15s14~---------------------------------|
|----------------------------------------13s12~--------------------|
|------------------------------------14-------------14--12.--------|
|------------------------------------------------------------14----|
|------------------------------------------------------------------|
|------------------------------------------------------------------|

|------------------------------------------------------------------|
|-------------------------------------------12---------------------|
|-12-----12~~--------12~~~~--------------12------------------------|
|---14----------------------------12h14----------------------------|
|------------------------------------------------------------------|
|------------------------------------------------------------------|

|-------------------------------------------------------------------|
|-------------------------------------------------------------------|
|-------------------------------------------------------------------|
|--4s5----5s7---7s9-----10-----10s12--------------------------------|
|------7------9-----10------12--------14----------------------------|
|-------------------------------------------------------------------|

|-------------------------------------------------------------------|
|-------------------------------------------------------------------|
|--7s9-----11----12-----12s14-----14s16-----------------------------|
|------10-----12----14---------16--------17s12----------------------|
|-------------------------------------------------------------------|
|-------------------------------------------------------------------|

|-17b19r17----15~--------------------------------------------------|
|------------------17~--15.----------------------------------------|
|----------------------------16--14---14b16r14----12---------------|
|----------------------------------------------------14--12.------|
|------------------------------------------------------------------|
|------------------------------------------------------------------|

|------------------------------------------------------------------|
|-------------17b19----17--17~~~-----------------------------------|
|------------------------------------------------------------------|
|-9----12----------------------------------------------------------|
|---10-------------------------------------------------------------|
|------------------------------------------------------------------|

Verse 5               
                  
|---------9------7~----------------5~-------------------------------|
|--------10------8~-----------7----7~-------------------------------|
|--------11------9~-----------7----7~-------------------------------|
|-----------------------------7-------------------------------------|
|-------------------------------------------------------------------|
|---0~--------------------0~----------------------------------------|          x2

                         
|---------9------7~----------------7~-------------------------------|
|--------10------8~-----------7----7~-------------------------------|
|--------11------9~-----------7----7~-------------------------------|
|-----------------------------7-------------------------------------|
|-------------------------------------------------------------------|          
|---0~--------------------0~----------------------------------------|            x2

Lead Part II

|------------------------------------------------------------------|
|--------8--------7--5---7b8---------------------------------------|
|-11-------9--------------------7b9r7------------------------------|
|---11-------9-9------------------------9--------------------------|
|------------------------------------------------------------------|
|------------------------------------------------------------------|

|-----------------------------------------------------------------|
|-8-8--------7-----------------------------------------------------|
|-----9-9-------7------9--7----9b11--7b9---------------------------|
|---------9-------7-7-----------------------7----------------------|
|-----------------------------------------------------------------|
|------------------------------------------------------------------|

|9---9--------7----------------------------------------------------|
|------10---------8-------10------10b12----8b10r8------------------|
|---------11--------9-9-------9----------------------9-------------|
|------------------------------------------------------------------|
|------------------------------------------------------------------|
|------------------------------------------------------------------|

|-7-7--------5-5---------------------------------------------------|
|-----8-8--------7-------8--7--8b10---8b10-------------------------|
|---------9--------7-7------------------------11-------------------|
|------------------------------------------------------------------|
|------------------------------------------------------------------|
|------------------------------------------------------------------|

Middle
          
|------------------------|
|-8-8--------8b10r8------|
|-----9-9----------------|
|---------9--------------|
|------------------------|
|------------------------|        x2

|----------------------|
|-7-7--------7b8r7-----|
|-----7-7--------------|
|---------7------------|
|----------------------|
|----------------------|        x2

|------------------------|
|-8-8--------8b10r8------|
|-----9-9----------------|
|---------9--------------|
|------------------------|
|------------------------|        x2

|----------------------|
|-7-7--------7b8r7-----|
|-----7-7--------------|
|---------7------------|
|----------------------|
|----------------------|        x2

|------------------------|
|-8-8--------8b10r8------|
|-----9-9----------------|
|---------9--------------|
|------------------------|
|------------------------|        x2

|----------------------|
|-7-7--------7b8r7-----|
|-----7-7--------------|
|---------7------------|
|----------------------|
|----------------------|        x2

|------------------------|
|-8-8--------8b10r8------|
|-----9-9----------------|
|---------9--------------|
|------------------------|
|------------------------|        x2

|----------------------|
|-7-7--------7b8r7-----|
|-----7-7--------------|
|---------7------------|
|----------------------|
|----------------------|        x2

|------0------0------0-----0---------------------------------------|
|----0------0------0-----0-----------------------------------------|
|-------------------------------0----------------------------------|
|-2------4------5------7------5----4p2-----------------------------|
|------------------------------------------------------------------|
|------------------------------------------------------------------|

|---------2p0-------2p0------------------------|
|------3------3----------3---------------------|
|----0----------------------0--0---------------|
|----------------------------------------------|
|-3--------------3-----------------------------|
|----------------------------------------------|

|------0------0------0-----0---------------------------------------|
|----0------0------0-----0-----------------------------------------|
|-------------------------------0----------------------------------|
|-2------4------5------7------5----4p2-----------------------------|
|------------------------------------------------------------------|
|------------------------------------------------------------------|

|--------------0------2p0-----0-|
|------3----------3--------3----|
|----0---0--0-------------------|
|-------------------------------|
|-3-----------------------------|
|-------------------------------|

|------0------0------0-----0---------------------------------------|
|----0------0------0-----0-----------------------------------------|
|-------------------------------0----------------------------------|
|-2------4------5------7------5----4p2-----------------------------|
|------------------------------------------------------------------|
|------------------------------------------------------------------|

|----------2p0---------------0-----|
|--------3-----3---------------3---|
|------0-------------------0-----0-|
|----2-------------4--2--4---------|
|--3-------------------------------|
|----------------------------------|

|------0------0------0-----0---------------------------------------|
|----0------0------0-----0-----------------------------------------|
|-------------------------------0----------------------------------|
|-2------4------5------7------5----4p2-----------------------------|
|------------------------------------------------------------------|
|------------------------------------------------------------------|

|--------------0------2p0-----0-|
|------3----------3--------3----|
|----0---0--0-------------------|
|-------------------------------|
|-3-----------------------------|
|-------------------------------|

Bridge II
                                      
|7-7-7-7--7-7-7-7--7-7-7-7--7-7-7-7---7----------------------------|
|8-8-8-7--8-8-8-7--8-8-8-7--8-8-8-7---8--7-------------------------|
|9-9-9-9--9-9-9-9--9-9-9-9--9-9-9-9---9--7-------------------------|
|----------------------------------------7-------------------------|
|------------------------------------------------------------------|
|------------------------------------------------------------------|
   
|8-8-8-7--8-8-8-7--8-8-8-7--8-8-8-7---8----------------------------|
|8-8-8-7--8-8-8-7--8-8-8-7--8-8-8-7---8--7-------------------------|
|9-9-9-7--9-9-9-7--9-9-9-7--9-9-9-7---9--7-------------------------|
|----------------------------------------7-------------------------|
|------------------------------------------------------------------|
|------------------------------------------------------------------|

Lead Part III

|-------------------------------------------------------------------|
|-------------------------------------------------------------------|
|-------------------------------------------------------------------|
|--4s5----5s7---7s9-----10-----10s12--------------------------------|
|------7------9-----10------12--------14----------------------------|
|-------------------------------------------------------------------|

|-------------------------------------------------------------------|
|-------------------------------------------------------------------|
|--7s9-----11----12-----12s14-----14s16-----------------------------|
|------10-----12----14---------16--------17s12----------------------|
|-------------------------------------------------------------------|
|-------------------------------------------------------------------|

|-------------------------------------------------------------------|
|--5s7--5--5~~----7s8--7--5---3---5---------------------------------|
|------------------------------------5~~~---------------------------|
|-------------------------------------------------------------------|
|-------------------------------------------------------------------|
|-------------------------------------------------------------------|

                x4
|---------|--9s12--12~--|---12ss15~~--------------------------------|
|---------|-10s12--12~--|---12ss17~~--------------------------------|
|-5sssss9-|-------------|-------------------------------------------|
|---------|-------------|-------------------------------------------|
|---------|-------------|-------------------------------------------|
|---------|-------------|-------------------------------------------|

Chorus

              x2                               x2
|----------------------------|--------------------------------------|
|--------------8~---7--8--x--|------------7-------------------------|
|--------------9~---7--9--x--|------------7-------------------------|
|--------7-9-----------------|-------7-9--7---9-9-7-7---------------|
|--7-9-9---------------------|-7-9-9------------------9-------------|
|----------------------------|--------------------------------------|                    x5

Bridge III

|--0-(0)~-----------------------------0-(0)~--------------0---------|
|--0-(0)~-----------------------------3-(3)~-----------------3--3p0-|
|--0--0-------------------------------0-(0)~------0--(0)------------|
|--2-(2)----4~---5~---7~--5~---4p2----x-------2~--------------------|
|--2-(2)------------------------------3-(3)~----------3-------------|
|--0-(0)~-----------------------------------------------------------|                     x2

Lead Prt I

|-------------------------------------------------------------------|
|-------------------------------------------------------------------|
|-------------------------------------------------------------------|
|--4s5----5s7---7s9-----10-----10s12--------------------------------|
|------7------9-----10------12--------14----------------------------|
|-------------------------------------------------------------------|

|-------------------------------------------------------------------|
|-------------------------------------------------------------------|
|--7s9-----11----12-----12s14-----14s16-----------------------------|
|------10-----12----14---------16--------17s12----------------------|
|-------------------------------------------------------------------|
|-------------------------------------------------------------------|

|-------------------------------------------------------------------|
|-------------------------------------------------------------------|
|--2s4----5----5s7---7s9-----9s11-----------------------------------|
|------5----7------9-----10-------12s9------------------------------|
|-------------------------------------------------------------------|
|-------------------------------------------------------------------|

|-------------------------------------------------------------------|
|--7s8----10----10s12------13------15--------17s19---17--17~~~------|
|------9-----11---------12------14-----16---------------------------|
|-------------------------------------------------------------------|
|-------------------------------------------------------------------|
|-------------------------------------------------------------------|

Guitar Solo III

|-------------------------------------------------------------------|
|-13--12---15b17~~------------------------------------12--13--12----|
|-----------------------12b14r12~~~-----14b16r14~-------------------|
|-------------------------------------------------------------------|
|-------------------------------------------------------------------|
|-------------------------------------------------------------------|

|-------------15b17----15-------------------------------------------|
|-15b17~-------------------15b17~--------12b13----12----------------|
|-----------------------------------------------------14--12--------|
|-------------------------------------------------------------------|
|-------------------------------------------------------------------|
|-------------------------------------------------------------------|

|-----------------------------------15b17~------15--12------12------|
|------------12--13b15----13.--12-----------------------15------15--|
|--14b16~-----------------------------------------------------------|
|-------------------------------------------------------------------|
|-------------------------------------------------------------------|
|-------------------------------------------------------------------|

|-----------------------------------------------15b17r15----12--12~-|
|-12--15~----12b15r12~~----10---------------------------------------|
|-----------------------------12----12-14-12~~----------------------|
|--------------------------------14---------------------------------|
|-------------------------------------------------------------------|
|-------------------------------------------------------------------|

Main Riff
  
|----9.-------7----7~-----------------------------7~----------------|
|---10.-------8----8~-----------------------------7~----------------|
|---11.-------9----9~-----------------------------7~----------------|
|------------------------7-7--7-7-8-9--7-7--------7~----------------|
|------------------------------------------7-7----------------------|
|----------------------------------------------0--------------------|    x1

Chorus

              x2                               x2
|----------------------------|--------------------------------------|
|--------------8~---7--8--x--|------------7-------------------------|
|--------------9~---7--9--x--|------------7-------------------------|
|--------7-9-----------------|-------7-9--7---9-9-7-7---------------|
|--7-9-9---------------------|-7-9-9------------------9-------------|
|----------------------------|--------------------------------------|                    x4

Main Riff
  
|----9.-------7----7~-----------------------------7~----------------|
|---10.-------8----8~-----------------------------7~----------------|
|---11.-------9----9~-----------------------------7~----------------|
|------------------------7-7--7-7-8-9--7-7--------7~----------------|
|------------------------------------------7-7----------------------|
|----------------------------------------------0--------------------|    x1

Outro

|-------------2p0----------|--------------2p0-------------|
|----------3------3p0------|-----------3-------3p0--------|
|-0------0-------------0---|--0------2--------------0-----|
|------4-------------------|-------4----------------------|
|----2---------------------|-----4------------------------|
|-0------------------------|--2---------------------------|       x4 (begins fadeout after 2)

ok there u go have a gr8 time playin dis wiked song 
peace out
rocktabber
comments
print report bad tab
6 comments total. Showing first comments.
0 reply
Maitinin wrote on January 10 2006, 09:37 am

you really miss a sort of rhythm indication, which is vital to learn this song 100%. that's actually the only thing, as you say: it's 99% correct which to me is 4 stars. very good tab!

0 reply
Jibbs wrote on January 10 2006, 10:46 pm

Why do I get the feeling I've seen this exact tab before but displayed a little better than this one?...

0 reply
nflfan04 wrote on March 16 2006, 09:54 pm

the only thing i like better about this tab than the #2 version, is that shows the order, in order. it doesnt tell you the riff and then puts the order on another page. i like to play through as i look, i dont like to have to keep looking at it for the order.

I want to post or [tab]
guest
You may want to rate the tab now too:
select rating
Please do not post tabs as comments. Select "correction" instead!