Oops, an error
Loading. Please wait.

Babe Im Gonna Leave You Tab

ver4
ver4

Intro

Whole song

Video

More versions @911Tabs.com
15,061 views 27 this week
7 commentsread comments
1 2 3 4 5
accurate
x 20
Autoscroll
+/-
esc
set tempo
stop
Contributor
WARNING: You are trying to view
                                    content from Ultimate-Guitar.com
                                    in an unauthorized application,
                                    which is prohibited.

                                    Please use an official Ultimate
                                    Guitar Tabs application for iPhone,
                                    iPad or Android to access legitimate
                                    chords, guitar, bass, and drum tabs
                                    from Ultimate-Guitar.com database.

                                    Type "ultimate guitar tabs" in Apple
                                    App Store's or Android Market's
                                    search to find the application.
BABE, I'M GONNA LEAVE YOU
 

Am       x 0 2 2 1 0
A7sus4/G 3 0 2 0 3 0
Am7/G    3 0 2 0 1 0
D/F#     2 0 0 2 3 2 
D7/F#    2 0 0 2 1 2
F	 1 3 3 2 1 1
E	 0 2 2 1 0 0
Am7	 x 0 2 2 1 3
Am7/G(type 2) 3 0 2 0 1 3
F6	 1 0 3 2 3 1
E7	 0 2 2 1 3 0
Em/G	 3 2 2 0 0 3 
Am7VII	 x 0 7 9 8 0
Dmadd9	 x 0 7 7 6 0
Dsus4/A	 x 0 7 7 8 x
Dm/A	 x 0 7 7 6 x 
Amadd11	 x 0 2 2 0 1
G7	 3 5 0 0 0 1
G6	 3 5 0 0 0 0
Dadd9/F# 2 0 4 2 3 0 
Fmaj7    1 0 3 2 1 0
C/G	 3 3 2 0 1 0
E7(type 2) 0 2 0 1 0 0
E5	 0 2 2 4 0 0 
A/C#	 9 0 7 9 10 x
Cm6	 8 0 7 8 10 x
Bm7	 7 0 7 7 10 x
Bbmaj7   6 0 7 7 10 x 
Amadd9   x 0 7 5 0 0 



 Intro
  Moderately Q=138
  Am                  A7sus4/G  Am7/G       D/F#      D7/F#
 4/4
  Gtr II
|-------0-(0)-------|---------------------|---------------------|
|-----1-----------1-|-(1)-----3-(3)-----1-|-(1)-----3-(3)-----1-|
|---------------2---|-------0---------0---|-------2---------2---|
|---2---------2-----|-----2---------2-----|-----0---------0-----|
|-0--------0--------|---------------------|---------------------|
|-------------------|--3---------3--------|--2---------2--------|


  F         E           Am7       Am
|---------------------|---------3-(3)-----0---|
|-(1)-----1-(1)-----0-|-(0)-------------------|
|-------2---------1---|-------2---------2-----|
|-----3---------2-----|-----2---------2-------|
|---------------------|--0---------0----------|
|--1---------0--------|-----------------------|


  Am7/G                 D/F#      D7/F#
|-(0)-----3-(3)-----0-|-(0)-----------------|
|---------------------|---------3-(3)-----1-|
|-------0---------0---|-------2---------2---|
|-----2---------2-----|-----0---------0-----|
|---------------------|---------------------|
|--3---------3--------|--2---------2--------|


                       Verse
  F         E           Am7       Am          A7sus4/G  Am7/G
|---------------------|---------3-(3)-----0-|-(0)-----3-(3)-----0-|
|-(1)-----1-(1)-----0-|-(0)-----------------|---------------------|
|-------2---------1---|-------2---------2---|-------0---------0---|
|-----3---------2-----|-----2---------2-----|-----2---------2-----|
|---------------------|--0---------0--------|---------------------|
|--1---------0--------|---------------------|--3---------3--------|


  D/F#      D7/F#       F         E
|-(0)-----------------|---------------------|
|---------3-(3)-----1-|-(1)-----1-(1)-----0-|
|-------2---------2---|-------2---------1---|
|-----0---------0-----|-----3---------2-----|
|---------------------|---------------------|
|--2---------2--------|--1---------0--------|


  Am7       Am          A7sus4/G  Am7/G       D/F#      D7/F#
|---------3-(3)-----0-|-(0)-----3-(3)-----0-|-(0)-----------------|
|-(0)-----------------|---------------------|---------3-(3)-----1-|
|-------2---------2---|-------0---------0---|-------2---------2---|
|-----2---------2-----|-----2---------2-----|-----0---------0-----|
|--0---------0--------|---------------------|---------------------|
|---------------------|--3---------3--------|--2---------2--------|


  F         E           Am7       Am
|---------------------|---------3-(3)-----0-|
|-(1)-----1-(1)-----0-|-(0)-----------------|
|-------2---------1---|-------2---------2---|
|-----3---------2-----|-----2---------2-----|
|---------------------|--0---------0--------|
|--1---------0--------|---------------------|


  A7sus4/G  Am7/G       D/F#      D7/F#       F         E
|-(0)-----3-(3)-----0-|-(0)-----------------|---------------------|
|---------------------|---------3-(3)-----1-|-(1)-----1-(1)-----0-|
|-------0---------0---|-------2---------2---|-------2---------1---|
|-----2---------2-----|-----0---------0-----|-----3---------2-----|
|---------------------|---------------------|---------------------|
|--3---------3--------|--2---------2--------|--1---------0--------|


  Am7       Am          Am7/G(type 2)
|---------3-(3)-----0-|-(0)-----3-(3)-----0-|
|-(0)-----------------|---------------------|
|-------2---------2---|-------0---------0---|
|-----2---------2-----|-----2---------2-----|
|--0---------0--------|---------------------|
|---------------------|--3---------3--------|


  D/F#      D7/F#       F         E
|-(0)-----------------|---------------------|
|---------3-(3)-----1-|-(1)-----1-(1)-----0-|
|-------2---------2---|-------2---------1---|
|-----0---------0-----|-----3---------2-----|
|---------------------|---------------------|
|--2---------2--------|--1---------0--------|


  F6        F           E7        E
|---------------------|---------------------|
|-(0)-----3-(3)-----1-|-(1)-----3-(3)-----0-|
|-------2---------2---|-------1---------1---|
|-----3---------3-----|-----2---------2-----|
|---------------------|---------------------|
|--1---------1--------|--0---------0--------|


  F6        F           E7        E           Am
|---------------------|---------------------|-------0-(0)-----0-|
|-(0)-----3-(3)-----1-|-(1)-----3-(3)-----0-|-------------------|
|-------2---------2---|-------1---------1---|-----2---------2---|
|-----3---------3-----|-----2---------2-----|---2---------2-----|
|---------------------|---------------------|-0--------0--------|
|--1---------1--------|--0---------0--------|-------------------|


  Em/G                  D7/F#     D/F#
|-(0)-----3-(3)-----0-|-(0)-----------------|
|---------------------|---------1-(1)-----1-|
|-------0---------0---|-------2---------2---|
|-----2---------2-----|-----0---------0-----|
|---------------------|---------------------|
|--3---------3--------|--2---------2--------|


  F         E           Am    AmDmadd9
                      Gtr II
                        ||||| | |  ||||||||
                        ///// / /  ////////

|---------------------|----------|-----------|
|-(1)-----1-(1)-----0-|----------|-----------|
|-------2---------1---|----------|-----------|
|-----3---------2-----|----------|-----------|
|---------------------|----------|-----------|
|--1---------0--------|----------|-----------|


  Am    AmDmadd9       Am    AmDmadd9
  ||||| | |  ||||||||  ||||| | |  ||||||||
  ///// / /  ////////  ///// / /  ////////

|----------|---------|----------|---------|
|----------|---------|----------|---------|
|----------|---------|----------|---------|
|----------|---------|----------|---------|
|----------|---------|----------|---------|
|----------|---------|----------|---------|


                      Verse
  Am    AmDmadd9       Am7     Am          A7sus4/G  Am7/G
  ||||| | |  ||||||||
  ///// / /  ////////

                       Gtr II
|----------|---------|-------3-(3)-----0-|-(0)-----3-(3)-----0--|
|----------|---------|-------------------|----------------------|
|----------|---------|-----2---------2---|-------0---------0----|
|----------|---------|---2---------2-----|-----2---------2------|
|----------|---------|-0--------0--------|----------------------|
|----------|---------|-------------------|--3---------3---------|


  D/F#      D7/F#       F         E
|-(0)-----------------|---------------------|
|---------3-(3)-----1-|-(1)-----1-(1)-----0-|
|-------2---------2---|-------2---------1---|
|-----0---------0-----|-----3---------2-----|
|---------------------|---------------------|
|--2---------2--------|--1---------0--------|


  Am7       Am          A7sus4/G  Am7/G
|---------3-(3)-----0-|-(0)-----3-(3)-----0-|
|-(0)-----------------|---------------------|
|-------2---------2---|-------0---------0---|
|-----2---------2-----|-----2---------2-----|
|--0---------0--------|---------------------|
|---------------------|--3---------3--------|


  D/F#      D7/F#       F         E
|-(0)-----------------|---------------------|
|---------3-(3)-----1-|-(1)-----1-(1)-----0-|
|-------2---------2---|-------2---------1---|
|-----0---------0-----|-----3---------2-----|
|---------------------|---------------------|
|--2---------2--------|--1---------0--------|


  Am7       Am          A7sus4/G  Am7/G
|---------3-(3)-----0-|-(0)-----3-(3)-----0-|
|-(0)-----------------|---------------------|
|-------2---------2---|-------0---------0---|
|-----2---------2-----|-----2---------2-----|
|--0---------0--------|---------------------|
|---------------------|--3---------3--------|


  D/F#      D7/F#       F         E
|-(0)-----------------|---------------------|
|---------3-(3)-----1-|-(1)-----1-(1)-----0-|
|-------2---------2---|-------2---------1---|
|-----0---------0-----|-----3---------2-----|
|---------------------|---------------------|
|--2---------2--------|--1---------0--------|


  Am7       Am          A7sus4/G  Am7/G
|---------3-(3)-----0-|-(0)-----3-(3)-----0-|
|-(0)-----------------|---------------------|
|-------2---------2---|-------0---------0---|
|-----2---------2-----|-----2---------2-----|
|--0---------0--------|---------------------|
|---------------------|--3---------3--------|


  D/F#          D7/F#            F             E
|-(0)--------------------------|---------------------------------|
|---------3-----(3)------1-----|-(1)-------1---(1)---------0-----|
|-------2--------------2-------|--------2----------------1-------|
|-----0--------------0---------|------3----------------2---------|
|------------------------------|---------------------------------|
|--2-------------2-------------|--1-------------0----------------|
|
| Gtr I
|-------------7-10--12-------7-|-10--12---10p8--8h10p8-7-8-7h8p7-|
|-----------8--------------8---|---------------------------------|
|---------9--------------9-----|---------------------------------|
|------------------------------|---------------------------------|
|------------------------------|---------------------------------|
|------------------------------|---------------------------------|


  F6        F           E7         E
|---------------------|----------------------|
|-(0)-----3-(3)-----1-|--(1)-----3-(3)-----0-|
|-------2---------2---|--------1---------1---|
|-----3---------3-----|------2---------2-----|
|---------------------|----------------------|
|--1---------1--------|---0---------0--------|
|
|---------------------|----------------------|
|-10------------------|-(10)-----------------|
|---------------------|----------------------|
|---------------------|----------------------|
|---------------------|----------------------|
|---------------------|----------------------|


  F6        F           E7        E
|---------------------|---------------------|
|-(0)-----3-(3)-----1-|-(1)-----3-(3)-----0-|
|-------2---------2---|-------1---------1---|
|-----3---------3-----|-----2---------2-----|
|---------------------|---------------------|
|--1---------1--------|--0---------0--------|


  Am                  Em/G
|-------0-(0)-----0-|-(0)-----3-(3)-----0-|
|-------------------|---------------------|
|-----2---------2---|-------0---------0---|
|---2---------2-----|-----2---------2-----|
|-0--------0--------|---------------------|
|-------------------|--3---------3--------|


  D/F#      D7/F#       F         E           Am    AmDmadd9
                                            Gtr II
                                              ||||| | |  ||||||||
                                              ///// / /  ////////

|-(0)-----------------|---------------------|----------|----------|
|---------3-(3)-----1-|-(1)-----1-(1)-----0-|----------|----------|
|-------2---------2---|-------2---------1---|----------|----------|
|-----0---------0-----|-----3---------2-----|----------|----------|
|---------------------|---------------------|----------|----------|
|--2---------2--------|--1---------0--------|----------|----------|


  Am    AmDmadd9       Am    AmDmadd9
  ||||| | |  ||||||||  ||||| | |  ||||||||
  ///// / /  ////////  ///// / /  ////////

|----------|---------|----------|---------|
|----------|---------|----------|---------|
|----------|---------|----------|---------|
|----------|---------|----------|---------|
|----------|---------|----------|---------|
|----------|---------|----------|---------|


                      Pre Chorus
  Am    AmDmadd9       Am7                 Dsus4/A   Dm/A
  ||||| | |  ||||||||
  ///// / /  ////////

                       Gtr II
|----------|---------|-------------------|----------------------|
|----------|---------|-----------------8-|-(8)-----8-(8)-----6--|
|----------|---------|-----4-5-(5)---9---|-------7---------7----|
|----------|---------|---2---------9-----|-----7---------7------|
|----------|---------|-0--------0--------|--0---------0---------|
|----------|---------|-------------------|----------------------|


  Am7                   Dsus4/A   Dm/A
|---------------------|---------------------|
|-(6)-----5-(5)-----8-|-(8)-----8-(8)-----6-|
|-------4---------9---|-------7---------7---|
|-----2---------9-----|-----7---------7-----|
|--0---------0--------|--0---------0--------|
|---------------------|---------------------|


  Am7                   Dsus4/A   Dm/A        Am7
|---------------------|---------------------|---------------------|
|-(6)-----5-(5)-----8-|-(8)-----8-(8)-----6-|-(6)-----5-(5)-----8-|
|-------4---------9---|-------7---------7---|-------4---------9---|
|-----2---------9-----|-----7---------7-----|-----2---------9-----|
|--0---------0--------|--0---------0--------|--0---------0--------|
|---------------------|---------------------|---------------------|


                       Chorus
  Dsus4/A   Dm/A        Am               Am7/G(type 2)
  Gtr II
|---------------------|-0-0-0-0-0--0---|-3-3-3-0-3--3---|
|-(8)-----8-(8)-----6-|-1-1-1-0-1--1---|-1-1-1-0-1--1---|
|-------7---------7---|-2-2-2-0-2--2---|-0-0-0-0-0--0---|
|-----7---------7-----|-2-2-2---2--2---|-2-2-2---2--2---|
|--0---------0--------|-0-0-0---0--0---|----------------|
|---------------------|----------------|-3-3-3---3--3---|
|
| Gtr III
|---------------------|----------------|----------------|
|---------------------|----------------|----------------|
|---------------------|----------------|----------------|
|---------------------|-7-7-7---7--7\--|---5-5---5--5\--|
|---------------------|-7-7-7---7--7\--|---5-3---5--5\--|
|---------------------|-5-5-5-0-5--5\--|-0-3-3-0-3--3\--|


  D7/F#            F       E        Am
|-2-2-2-0-2--2---|-1-1-1-1-0-0-0--0-|-0-0-0-0-0--0----|
|-1-1-1-0-1--1---|-1-1-1-1-0-0-0--0-|-1-1-1-0-1--1----|
|-2-2-2-0-2--2---|-2-2-2-2-1-1-1--1-|-2-2-2-0-2--2----|
|-0-0-0---0--0---|-3-3-3-3-2-2-2--2-|-2-2-2---2--2----|
|----------------|-3-3-3-3-2-2-2--2-|-0-0-0---0--0----|
|-2-2-2---2--2---|-1-1-1-1-0-0-0--0-|-----------------|
|
|----------------|------------------|-----------------|
|----------------|------------------|-----------------|
|----------------|------------------|-----------------|
|---4-4---4--4\--|---3-3---2---2\---|-7-7-7---7--7\---|
|---2-2---2--2\--|---3-3---2---2\---|-7-7-7---7--7\---|
|-0-2-2-0-2--2\--|-0-1-1-0-0---0\---|-5-5-5-0-5--5\---|


  Am7/G(type 2)    D7/F#            F       E
|-3-3-3-0-3--3---|-2-2-2-0-2--2---|-1-1-1-1-0-0-0--0-|
|-1-1-1-0-1--1---|-1-1-1-0-1--1---|-1-1-1-1-0-0-0--0-|
|-0-0-0-0-0--0---|-2-2-2-0-2--2---|-2-2-2-2-1-1-1--1-|
|-2-2-2---2--2---|-0-0-0---0--0---|-3-3-3-3-2-2-2--2-|
|----------------|----------------|-3-3-3-3-2-2-2--2-|
|-3-3-3---3--3---|-2-2-2---2--2---|-1-1-1-1-0-0-0--0-|
|
|----------------|----------------|------------------|
|----------------|----------------|------------------|
|----------------|----------------|------------------|
|---5-5---5--5\--|---4-4---4--4\--|---3-3---2---2\---|
|---5-3---5--5\--|---2-2---2--2\--|---3-3---2---2\---|
|-0-3-3-0-3--3\--|-0-2-2-0-2--2\--|-0-1-1-0-0---0\---|


  Am               Am7/G(type 2)    D7/F#
|-0-0-0-0-0--0---|-3-3-3-0-3--3---|-2-2-2-0-2--2----|
|-1-1-1-0-1--1---|-1-1-1-0-1--1---|-1-1-1-0-1--1----|
|-2-2-2-0-2--2---|-0-0-0-0-0--0---|-2-2-2-0-2--2----|
|-2-2-2---2--2---|-2-2-2---2--2---|-0-0-0---0--0----|
|-0-0-0---0--0---|----------------|-----------------|
|----------------|-3-3-3---3--3---|-2-2-2---2--2----|
|
|----------------|----------------|-----------------|
|----------------|----------------|-----------------|
|----------------|----------------|-----------------|
|-7-7-7---7--7\--|---5-5---5--5\--|---4-4---4--4\---|
|-7-7-7---7--7\--|---5-3---5--5\--|---2-2---2--2\---|
|-5-5-5-0-5--5\--|-0-3-3-0-3--3\--|-0-2-2-0-2--2\---|


  F       E          Am
|-1-1-1-1-0-0-0--0-|-0-0-0-0-0--0---|
|-1-1-1-1-0-0-0--0-|-1-1-1-0-1--1---|
|-2-2-2-2-1-1-1--1-|-2-2-2-0-2--2---|
|-3-3-3-3-2-2-2--2-|-2-2-2---2--2---|
|-3-3-3-3-2-2-2--2-|-0-0-0---0--0---|
|-1-1-1-1-0-0-0--0-|----------------|
|
|------------------|----------------|
|------------------|----------------|
|------------------|----------------|
|---3-3---2---2\---|-7-7-7---7--7\--|
|---3-3---2---2\---|-7-7-7---7--7\--|
|-0-1-1-0-0---0\---|-5-5-5-0-5--5\--|


  Am7/G            D7/F#            F       E
|-3-3-3-0-3--3---|-2-2-2-0-2--2---|-1-1-1-1-0-0-0-0-|
|-1-1-1-0-1--1---|-1-1-1-0-1--1---|-1-1-1-1-0-0-0-0-|
|-0-0-0-0-0--0---|-2-2-2-0-2--2---|-2-2-2-2-1-1-1-1-|
|-2-2-2---2--2---|-0-0-0---0--0---|-3-3-3-3-2-2-2-2-|
|----------------|----------------|-3-3-3-3-2-2-2-2-|
|-3-3-3---3--3---|-2-2-2---2--2---|-1-1-1-1-0-0-0-0-|
|
|----------------|----------------|-----------------|
|----------------|----------------|-----------------|
|----------------|----------------|-----------------|
|---5-5---5--5\--|---4-4---4--4\--|---3-3---2---2---|
|---5-3---5--5\--|---2-2---2--2\--|---3-3---2---2---|
|-0-3-3-0-3--3\--|-0-2-2-0-2--2\--|-0-1-1-0-0---0---|


  F                E
|-1-1-1-1-1--1---|-0-0-0-0-0-0-0--0-|
|-1-1-1-1-1--1---|-0-0-0-0-0-0-0--0-|
|-2-2-2-2-2--2---|-1-1-1-1-1-1-1--1-|
|-3-3-3-3-3--3---|-2-2-2-2-2-2-2--2-|
|-3-3-3-3-3--3---|-2-2-2-2-2-2-2--2-|
|-1-1-1-1-1--1---|-0-0-0-0-0-0-0--0-|
|
|----------------|------------------|
|----------------|------------------|
|----------------|------------------|
|-3-3-3---3--3\--|-2-2-2-2-2---2\---|
|-3-3-3---3--3\--|-2-2-2-2-2---2\---|
|-1-1-1-0-1--1\--|-0-0-0-0-0---0\---|


  F                E                  Am    AmDmadd9
                                    Gtr III
                                      ||||| | |
                                      ///// / /

|-1-1-1-1-1--1---|-0-0-0-0-0-0-0--0-|------------|
|-1-1-1-1-1--1---|-0-0-0-0-0-0-0--0-|------------|
|-2-2-2-2-2--2---|-1-1-1-1-1-1-1--1-|------------|
|-3-3-3-3-3--3---|-2-2-2-2-2-2-2--2-|------------|
|-3-3-3-3-3--3---|-2-2-2-2-2-2-2--2-|------------|
|-1-1-1-1-1--1---|-0-0-0-0-0-0-0--0-|------------|
|
|----------------|------------------|------------|
|----------------|------------------|------------|
|----------------|------------------|------------|
|-3-3-3---3--3\--|-2-2-2-2-2---2\---|------------|
|-3-3-3---3--3\--|-2-2-2-2-2---2\---|------------|
|-1-1-1-0-1--1\--|-0-0-0-0-0---0\---|------------|


            Am    AmDmadd9       Am    AmDmadd9
  ||||||||  ||||| | |  ||||||||  ||||| | |
  ////////  ///// / /  ////////  ///// / /

|---------|----------|---------|----------|
|---------|----------|---------|----------|
|---------|----------|---------|----------|
|---------|----------|---------|----------|
|---------|----------|---------|----------|
|---------|----------|---------|----------|


                                Guitar Solo
            Am    AmDmadd9       Am                  Am7/G
  ||||||||  ||||| | |  ||||||||
  ////////  ///// / /  ////////

                               Gtr II
|---------|----------|---------|-------0-(0)-------|-----------------------|
|---------|----------|---------|-----1-----------1-|-(1)-----3-(3)-----1---|
|---------|----------|---------|---------------2---|-------0---------0-----|
|---------|----------|---------|---2---------2-----|-----2---------2-------|
|---------|----------|---------|-0--------0--------|-----------------------|
|---------|----------|---------|-------------------|--3---------3----------|


  D7/F#                     F               E
|-------------------------|-------------------------------|
|-(1)-----3-(3)---------1-|-(1)---------1---(1)---------0-|
|-------2-----------2-----|---------2---------------1-----|
|-----0---------0---------|-----3---------------2---------|
|-------------------------|-------------------------------|
|--2---------2------------|--1---------------0------------|
|
| Gtr I
|-----------------0---1---|--3----1---0h1p0-------0-------|
|-------------------------|------------------3--------3---|
|-------------------------|-------------------------------|
|-------------------------|-------------------------------|
|-------------------------|-------------------------------|
|-------------------------|-------------------------------|


  Am7            Am          A7sus4/G  Am7/G
|--------------3-(3)-----0-|-(0)-----3-(3)-----0-|
|-(0)----------------------|---------------------|
|-----------2----------2---|-------0---------0---|
|--------2-----------2-----|-----2---------2-----|
|--0--------------0--------|---------------------|
|--------------------------|--3---------3--------|
|
|--------------------------|---------------------|
|--1h3p1-0-(0)-------------|-------1-------------|
|--------------2--2--------|-----2-------------2-|
|--------------------------|---------------------|
|--------------------------|---------------------|
|--------------------------|---------------------|


  D/F#      D7/F#               F                E
|-(0)-------------------------|------------------------------------|
|---------3-(3)-----------1---|-(1)----------1---(1)-----------0---|
|-------2-------------2-------|----------2-----------------1-------|
|-----0-----------0-----------|------3-----------------2-----------|
|-----------------------------|------------------------------------|
|--2---------2----------------|--1----------------0----------------|
|
|---------0-(0)---------------|------------------------------------|
|--0--1-3-------3p1p0-1p0-----|------------------------------------|
|---------------------------2-|--4p2p==0---------------------------|
|-----------------------------|----------3p2p==0--0----------------|
|-----------------------------|----------------------3p==2-2h3p==2p|
|-----------------------------|------------------------------------|


 Verse
  Am7       Amadd11     G7        G6
|---------3-(3)-----1-|-(1)-----1-(1)-----0-|
|-(0)-----------------|-------0---------0---|
|-------2---------2---|-----0---------0-----|
|-----2---------2-----|---------------------|
|--0---------0--------|---------------------|
|---------------------|--3---------3--------|
|
|---------------------|---------------------|
|---------------------|---------------------|
|---------------------|---------------------|
|---------------------|---------------------|
|--0------------------|---------------------|
|---------------------|---------------------|


  Dadd9/F#  D/F#        Fmaj7     E
|-(0)-----0-(0)-------|---------0-(0)-----0-|
|-------------------3-|-(3)-----------------|
|-------2---------2---|-------2---------1---|
|-----4---------4-----|-----3---------2-----|
|---------------------|---------------------|
|--2---------2--------|--1---------0--------|


  Am                    C/G
|-(0)---0-------------|---------------------|
|---------1-(1)-----1-|-(1)-----1-(1)-----1-|
|-----------------2---|-------0---------0---|
|-----2---------2-----|-----2---------2-----|
|--0---------0--------|---------------------|
|---------------------|--3---------3--------|


  D7/F#                 F         E           Am7       Amadd11
|---------------------|---------------------|---------3-(3)-----1-|
|-(1)-----3-(3)-----1-|-(1)-----1-(1)-----0-|-(0)-----------------|
|-------2---------2---|-------2---------1---|-------2---------2---|
|-----0---------0-----|-----3---------2-----|-----2---------2-----|
|---------------------|---------------------|--0---------0--------|
|--2---------2--------|--1---------0--------|---------------------|


  G7        G6          Dadd9/F#  D/F#
|-(1)-----1-(1)-----0-|-(0)-----0-(0)-------|
|-------0---------0---|-------------------3-|
|-----0---------0-----|-------2---------2---|
|---------------------|-----4---------4-----|
|---------------------|---------------------|
|--3---------3--------|--2---------2--------|


  Fmaj7     E           Am
|---------0-(0)-----0-|-(0)---0-------------|
|-(3)-----------------|---------1-(1)-----1-|
|-------2---------1---|-----------------2---|
|-----3---------2-----|-----2---------2-----|
|---------------------|--0---------0--------|
|--1---------0--------|---------------------|


  C/G                   D7/F#                 F         E
|---------------------|---------------------|---------------------|
|-(1)-----1-(1)-----1-|-(1)-----3-(3)-----1-|-(1)-----1-(1)-----0-|
|-------0---------0---|-------2---------2---|-------2---------1---|
|-----2---------2-----|-----0---------0-----|-----3---------2-----|
|---------------------|---------------------|---------------------|
|--3---------3--------|--2---------2--------|--1---------0--------|


 Chorus
  Am               Am7/G(type 2)    D7/F#
|-0-0-0-0-0--0---|-3-3-3-0-3--3---|-2-2-2-0-2--2---|
|-1-1-1-0-1--1---|-1-1-1-0-1--1---|-1-1-1-0-1--1---|
|-2-2-2-0-2--2---|-0-0-0-0-0--0---|-2-2-2-0-2--2---|
|-2-2-2---2--2---|-2-2-2---2--2---|-0-0-0---0--0---|
|-0-0-0---0--0---|----------------|----------------|
|----------------|-3-3-3---3--3---|-2-2-2---2--2---|
|
| Gtr III
|----------------|----------------|----------------|
|----------------|----------------|----------------|
|----------------|----------------|----------------|
|-7-7-7---7--7\--|---5-5---5--5\--|---4-4---4--4\--|
|-7-7-7---7--7\--|---5-3---5--5\--|---4-4---4--4\--|
|-5-5-5-0-5--5\--|-0-3-3-0-3--3\--|-0-2-2-0-2--2\--|


  F       E        Am
|-1-1-1-1-0-0-0--0-|-0-0-0-0-0--0---|-3-3-3-0-3--3----|
|-1-1-1-1-0-0-0--0-|-1-1-1-0-1--1---|-1-1-1-0-1--1----|
|-2-2-2-2-1-1-1--1-|-2-2-2-0-2--2---|-0-0-0-0-0--0----|
|-3-3-3-3-2-2-2--2-|-2-2-2---2--2---|-2-2-2---2--2----|
|-3-3-3-3-2-2-2--2-|-0-0-0---0--0---|-----------------|
|-1-1-1-1-0-0-0--0-|----------------|-3-3-3---3--3----|
|
|------------------|----------------|-----------------|
|------------------|----------------|-----------------|
|------------------|----------------|-----------------|
|---3-3---2---2\---|-7-7-7---7--7\--|---5-5---5--5\---|
|---3-3---2---2\---|-7-7-7---7--7\--|---5-3---5--5\---|
|-0-1-1-0-0---0\---|-5-5-5-0-5--5\--|-0-3-3-0-3--3\---|


                                     Verse
  D7/F#            F       E        Am
|-2-2-2-0-2--2---|-1-1-1-1-0-0-0--0-|-------0-(0)-------|
|-1-1-1-0-1--1---|-1-1-1-1-0-0-0--0-|-----1-----------1-|
|-2-2-2-0-2--2---|-2-2-2-2-1-1-1--1-|---------------2---|
|-0-0-0---0--0---|-3-3-3-3-2-2-2--2-|---2---------2-----|
|----------------|-3-3-3-3-2-2-2--2-|-0--------0--------|
|-2-2-2---2--2---|-1-1-1-1-0-0-0--0-|-------------------|
|
|----------------|------------------|-------------------|
|----------------|------------------|-------------------|
|----------------|------------------|-------------------|
|---4-4---4--4\--|---3-3---2---2\---|-------------------|
|---2-2---2--2\--|---3-3---2---2\---|-------------------|
|-0-2-2-0-2--2\--|-0-1-1-0-0---0\---|-------------------|


  A7sus4/G  Am7/G       D/F#      D7/F#       F         E
|---------------------|---------------------|----------------------|
|-(1)-----3-(3)-----1-|-(1)-----3-(3)-----1-|-(1)-----1-(1)-----0--|
|-------2---------2---|-------2---------2---|-------2---------1----|
|-----2---------2-----|-----0---------0-----|-----3---------2------|
|---------------------|---------------------|----------------------|
|--3---------3--------|--2---------2--------|--1---------0---------|
|
|---------------------|---------------------|----------------------|
|---------------------|---------------------|----------------------|
|---------------------|---------------------|----------------------|
|---------------------|---------------------|----------------------|
|---------------------|---------------------|----------------------|
|---------------------|---------------------|----------------------|


  Am7       Amadd11                           G7         G6
|---------3-(3)---------------------1-------|--(1)-----1-(1)-----0-|
|-(0)---------------------------------------|--------0---------0---|
|-------2----------------------2------------|------0---------0-----|
|-----2---------------2---------------------|----------------------|
|--0---------0------------------------------|----------------------|
|-------------------------------------------|---3---------3--------|
|
| Gtr IV
|---------------15s17s==15-15s17s15---15s17-|-(17)-----------------|
|-------------------------------------------|----------------------|
|-------------------------------------------|----------------------|
|-------------------------------------------|----------------------|
|-------------------------------------------|----------------------|
|-------------------------------------------|----------------------|


  Dadd9/F#  D/F#        F                          E
|-(0)-----0-(0)-------|---------------------0------(0)-----------------0---------|
|-------------------3-|-(3)------------------------------------------------------|
|-------2---------2---|-----------------2--------------------------1-------------|
|-----4---------4-----|----------3--------------------------2--------------------|
|---------------------|----------------------------------------------------------|
|--2---------2--------|--1--------------------------0----------------------------|
|
|---------------------|----------------------------------------------------------|
|---------------------|-----8s10s==8-8s10s8---8s10s=8--8s10s==8-8s10s8---8s10----|
|---------------------|----------------------------------------------------------|
|---------------------|----------------------------------------------------------|
|---------------------|----------------------------------------------------------|
|---------------------|----------------------------------------------------------|


  Am7                Amadd11     G7        G6
|--(0)-------------3-(3)-----1-|-(1)-----1-(1)-----0-|
|------------------------------|-------0---------0---|
|---------------2----------2---|-----0---------0-----|
|-----------2------------2-----|---------------------|
|---0-----------------0--------|---------------------|
|------------------------------|--3---------3--------|
|
|------8-----------------------|---------------------|
|-(10)---8s10-(10)-------------|---------------------|
|------------------------------|---------------------|
|------------------------------|---------------------|
|------------------------------|---------------------|
|------------------------------|---------------------|


  Dadd9/F#  D/F#         F         E               Am7       Amadd11
|-(0)-----0-(0)--------|---------0--(0)--------0-|-(0)-----3--(3)-----1--|
|--------------------3-|-(3)---------------------|-----------------------|
|-------2---------2----|-------2------------1----|-------2----------2----|
|-----4---------4------|-----3-----------2-------|-----2----------2------|
|----------------------|-------------------------|--0----------0---------|
|--2---------2---------|--1----------0-----------|-----------------------|
|
|----------------------|-------------------------|-----------------------|
|-------------------10s|=12--------(12)-10s12-10s|=12s10-----(10)--------|
|----------------------|-------------------------|-----------------------|
|----------------------|-------------------------|-----------------------|
|----------------------|-------------------------|-----------------------|
|----------------------|-------------------------|-----------------------|


  G7         G6          Dadd9/F#  D/F#        F         E
|--(1)-----1-(1)-----0-|-(0)-----0-(0)-------|---------0-(0)-----0-|
|--------0---------0---|-------------------3-|-(3)-----------------|
|------0---------0-----|-------2---------2---|-------2---------1---|
|----------------------|-----4---------4-----|-----3---------2-----|
|----------------------|---------------------|---------------------|
|---3---------3--------|--2---------2--------|--1---------0--------|
|
|----------------------|---------------------|---------------------|
|-(10)-----------------|---------------------|---------------------|
|----------------------|---------------------|---------------------|
|----------------------|---------------------|---------------------|
|----------------------|---------------------|---------------------|
|----------------------|---------------------|---------------------|


 Chorus
  Am               Am7/G            D/F#
|-0-0-0-0-0--0---|-3-3-3-0-3--3---|-2-2-2-0-2--2----|
|-1-1-1-0-1--1---|-1-1-1-0-1--1---|-1-1-1-0-1--1----|
|-2-2-2-0-2--2---|-0-0-0-0-0--0---|-2-2-2-0-2--2----|
|-2-2-2---2--2---|-2-2-2---2--2---|-0-0-0---0--0----|
|-0-0-0---0--0---|----------------|-----------------|
|----------------|-3-3-3---3--3---|-2-2-2---2--2----|
|
|----------------|----------------|-----------------|
|----------------|----------------|-----------------|
|----------------|----------------|-----------------|
|-7-7-7---7--7\--|---5-5---5--5\--|---4-4---4--4\---|
|-7-7-7---7--7\--|---5-3---5--5\--|---4-4---4--4\---|
|-5-5-5-0-5--5\--|-0-3-3-0-3--3\--|-0-2-2-0-2--2\---|


  F       E          Am               Am7/G
|-1-1-1-1-0-0-0--0-|-0-0-0-0-0--0---|-3-3-3-0-3--3---|
|-1-1-1-1-0-0-0--0-|-1-1-1-0-1--1---|-1-1-1-0-1--1---|
|-2-2-2-2-1-1-1--1-|-2-2-2-0-2--2---|-0-0-0-0-0--0---|
|-3-3-3-3-2-2-2--2-|-2-2-2---2--2---|-2-2-2---2--2---|
|-3-3-3-3-2-2-2--2-|-0-0-0---0--0---|----------------|
|-1-1-1-1-0-0-0--0-|----------------|-3-3-3---3--3---|
|
|------------------|----------------|----------------|
|------------------|----------------|----------------|
|------------------|----------------|----------------|
|---3-3---2---2\---|-7-7-7---7--7\--|---5-5---5--5\--|
|---3-3---2---2\---|-7-7-7---7--7\--|---5-3---5--5\--|
|-0-1-1-0-0---0\---|-5-5-5-0-5--5\--|-0-3-3-0-3--3\--|


                                     Guitar Solo
  D7/F#            F       E          Am
|-2-2-2-0-2--2---|-1-1-1-1-0-0-0--0-|-------0-(0)--------|
|-1-1-1-0-1--1---|-1-1-1-1-0-0-0--0-|-----1-----------1--|
|-2-2-2-0-2--2---|-2-2-2-2-1-1-1--1-|---------------2----|
|-0-0-0---0--0---|-3-3-3-3-2-2-2--2-|---2---------2------|
|----------------|-3-3-3-3-2-2-2--2-|-0--------0---------|
|-2-2-2---2--2---|-1-1-1-1-0-0-0--0-|--------------------|
|
|----------------|------------------|--------------------|
|----------------|------------------|--------------------|
|----------------|------------------|--------------------|
|---4-4---4--4\--|---3-3---2---2\---|--------------------|
|---4-4---4--4\--|---3-3---2---2\---|--------------------|
|-0-2-2-0-2--2\--|-0-1-1-0-0---0\---|--------------------|


  A7sus4/G         Am7/G            D/F#           D7/F#
|---------------------------------|--------------------------|
|-(1)----------3---(3)-------1----|-(1)----------3-(3)-----1-|
|------------0-----------0--------|------------2---------2---|
|-----2----------------2----------|--------0-----------0-----|
|---------------------------------|--------------------------|
|--3----------------3-------------|--2--------------2--------|
|
| Gtr I
|---------7-10---8-(8)-7-8-7------|--7-----------------------|
|-------8----------------------10-|-----10---8-7-------------|
|-----9---------------------------|--------------------------|
|---------------------------------|--------------------------|
|---------------------------------|--------------------------|
|---------------------------------|--------------------------|


  F               E           Am7       Amadd11     G7            G6
|---------------------------|---------3-(3)-----1-|-(1)-----1-----(1)-----------0--------|
|-(1)-----------1-(1)-----0-|-(0)-----------------|-------0------------------0-----------|
|-----------2-----------1---|-------2---------2---|-----0-------------0------------------|
|-----3---------------2-----|-----2---------2-----|--------------------------------------|
|---------------------------|--0---------0--------|--------------------------------------|
|--1---------------0--------|---------------------|--3-------------3---------------------|
|
|---------------------------|---------------------|--------------------------------------|
|---------------------------|---------------------|-----------3s5--5----3s5-(5)-5-3-1----|
|-------5s7---5----4--5-4-2-|--4------------------|--------------------------------------|
|---------------------------|-----2-----(2)-------|--------------------------------------|
|---------------------------|---------------------|--------------------------------------|
|---------------------------|---------------------|--------------------------------------|


  Dadd9/F#  D/F#                F           E           Am7           Amadd11
|-(0)-----0-(0)---------------|---------0---(0)-----0-|-------------3-(3)-----1-|
|-------------------------3---|-(3)-------------------|-0-----------------------|
|-------2----------2----------|-------2-----------1---|----------2----------2---|
|-----4---------4-------------|-----3-----------2-----|-----2-------------2-----|
|-----------------------------|-----------------------|-0--------------0--------|
|--2---------2----------------|--1-----------0--------|-------------------------|
|
|-----------------------------|-----------------------|-------------------------|
|--3--------------(3)-4s5---4-|--3------3-1--1--1---3-|-1-----------------------|
|-----------------------------|-----------------------|---2---------------------|
|-----------------------------|-----------------------|-------2-(2)---(2)-------|
|-----------------------------|-----------------------|-------------------------|
|-----------------------------|-----------------------|-------------------------|


  G7            G6                Dadd9/F#    D/F#
|-(1)-------1---(1)-----------0-|-(0)-------0-(0)----------|
|---------0-------------0-------|---------------------3----|
|-----0-------------0-----------|---------2---------2------|
|-------------------------------|-------4---------4--------|
|-------------------------------|--------------------------|
|--3-------------3--------------|--2-----------2-----------|
|
|-------------------------------|--------------------------|
|-------------------------------|--------------------------|
|---------------------0---------|--0-----------------------|
|-----------0-0s=2--------0s2---|-----0s2-----(2)----------|
|-----0-2s3---------------------|--------------------------|
|-------------------------------|--------------------------|


  F           E                 Am
|-----------0-(0)-------0-----|-(0)------0--------------|
|-(3)-------------------------|-------------1-(1)-----1-|
|---------2-----------1-------|---------------------2---|
|-----3-------------2---------|-------2-----------2-----|
|-----------------------------|--0-------------0--------|
|--1-----------0--------------|-------------------------|
|
|-----------------------------|-------------------------|
|-----------------------------|-------------------------|
|-----------0-(0)-----0-------|-------------------------|
|-(2)-0-0s2-------0s2---2s0---|--0----------------------|
|---------------------------3-|-----3-0-(0)---(0)-------|
|-----------------------------|-------------------------|


  C/G                                     D7/F#
|---------------------------------------|------------------------------------------|
|-(1)----------1-----(1)----------1-----|-(1)----------1-----(1)----------1--------|
|------------0------------------0-------|------------2------------------2----------|
|-----2------------------2--------------|-----0------------------0-----------------|
|---------------------------------------|------------------------------------------|
|--3------------------3-----------------|--2------------------2--------------------|
|
|---------7-10-----7-10------7-10-----7-|-10------7-10-----7-10------7-10-----7----|
|-------8--------8---------8--------8---|-------8--------8---------8--------8------|
|-----9--------9---------9--------9-----|-----9--------9---------9--------9--------|
|---------------------------------------|------------------------------------------|
|---------------------------------------|------------------------------------------|
|---------------------------------------|------------------------------------------|


  F             E                    Am
|----------------------------------|-------0----------------|
|-(1)-------1---(1)------------0---|-(0)------1--(1)------1-|
|-------2------------------1-------|--------------------2---|
|-----3---------------2------------|-----2------------2-----|
|----------------------------------|--0-----------0---------|
|--1-------------0-----------------|------------------------|
|
|-10--8-7-8---7-----7--------------|------------------------|
|---------------10------10-8-7---8-|-(8)-----10-(10)\-------|
|----------------------------------|------------------------|
|----------------------------------|------------------------|
|----------------------------------|------------------------|
|----------------------------------|------------------------|


  C/G                         D7/F#                 F         E
|---------------------------|---------------------|-----------------------|
|-(1)-----1-(1)-----------1-|-(1)-----1-(1)-----1-|-(1)-----1-(1)-----0---|
|-------0------------0------|-------2---------2---|-------2---------1-----|
|-----2---------2-----------|-----0---------0-----|-----3---------2-------|
|---------------------------|---------------------|-----------------------|
|--3---------3--------------|--2---------2--------|--1---------0----------|
|
|---------------------------|---------------------|-----------------------|
|-----------------10---10---|-10\-----------------|-----------------------|
|---------------------------|---------------------|-----------------------|
|---------------------------|---------------------|-----------------------|
|---------------------------|---------------------|-----------------------|
|---------------------------|---------------------|-----------------------|


 Chorus
  Am               Am7/G(type 2)    D7/F#
|-0-0-0-0-0--0---|-3-3-3-0-3--3---|-2-2-2-0-2--2---|
|-1-1-1-0-1--1---|-1-1-1-0-1--1---|-1-1-1-0-1--1---|
|-2-2-2-0-2--2---|-0-0-0-0-0--0---|-2-2-2-0-2--2---|
|-2-2-2---2--2---|-2-2-2---2--2---|-0-0-0---0--0---|
|-0-0-0---0--0---|----------------|----------------|
|----------------|-3-3-3---3--3---|-2-2-2---2--2---|
|
| Gtr III
|----------------|----------------|----------------|
|----------------|----------------|----------------|
|----------------|----------------|----------------|
|-7-7-7---7--7\--|---5-5---5--5\--|---4-4---4--4\--|
|-7-7-7---7--7\--|---5-3---5--5\--|---2-2---2--2\--|
|-5-5-5-0-5--5\--|-0-3-3-0-3--3\--|-0-2-2-0-2--2\--|


  F       E        Am                 Am7/G
|-1-1-1-1-0-0-0--0-|-0-0-0-0-0--0---|-3-3-3-0-3--3----|
|-1-1-1-1-0-0-0--0-|-1-1-1-0-1--1---|-1-1-1-0-1--1----|
|-2-2-2-2-1-1-1--1-|-2-2-2-0-2--2---|-0-0-0-0-0--0----|
|-3-3-3-3-2-2-2--2-|-2-2-2---2--2---|-2-2-2---2--2----|
|-3-3-3-3-2-2-2--2-|-0-0-0---0--0---|-----------------|
|-1-1-1-1-0-0-0--0-|----------------|-3-3-3---3--3----|
|
|------------------|----------------|-----------------|
|------------------|----------------|-----------------|
|------------------|----------------|-----------------|
|---3-3---2---2\---|-7-7-7---7--7\--|---5-5---5--5\---|
|---3-3---2---2\---|-7-7-7---7--7\--|---5-3---5--5\---|
|-0-1-1-0-0---0\---|-5-5-5-0-5--5\--|-0-3-3-0-3--3\---|


  D7/F#            F       E          Am
|-2-2-2-0-2--2---|-1-1-1-1-0-0-0--0-|-0-0-0-0-0--0---|
|-1-1-1-0-1--1---|-1-1-1-1-0-0-0--0-|-1-1-1-0-1--1---|
|-2-2-2-0-2--2---|-2-2-2-2-1-1-1--1-|-2-2-2-0-2--2---|
|-0-0-0---0--0---|-3-3-3-3-2-2-2--2-|-2-2-2---2--2---|
|----------------|-3-3-3-3-2-2-2--2-|-0-0-0---0--0---|
|-2-2-2---2--2---|-1-1-1-1-0-0-0--0-|----------------|
|
|----------------|------------------|----------------|
|----------------|------------------|----------------|
|----------------|------------------|----------------|
|---4-4---4--4\--|---3-3---2---2\---|-7-7-7---7--7\--|
|---4-4---4--4\--|---3-3---2---2\---|-7-7-7---7--7\--|
|-0-2-2-0-2--2\--|-0-1-1-0-0---0\---|-5-5-5-0-5--5\--|


  Am7/G            D7/F#            F       E
|-3-3-3-0-3--3---|-2-2-2-0-2--2---|-1-1-1-1-0-0-0--0--|
|-1-1-1-0-1--1---|-1-1-1-0-1--1---|-1-1-1-1-0-0-0--0--|
|-0-0-0-0-0--0---|-2-2-2-0-2--2---|-2-2-2-2-1-1-1--1--|
|-2-2-2---2--2---|-0-0-0---0--0---|-3-3-3-3-2-2-2--2--|
|----------------|----------------|-3-3-3-3-2-2-2--2--|
|-3-3-3---3--3---|-2-2-2---2--2---|-1-1-1-1-0-0-0--0--|
|
|----------------|----------------|-------------------|
|----------------|----------------|-------------------|
|----------------|----------------|-------------------|
|---5-5---5--5\--|---4-4---4--4\--|---3-3---2---2\----|
|---5-3---5--5\--|---4-4---4--4\--|---3-3---2---2\----|
|-0-3-3-0-3--3\--|-0-2-2-0-2--2\--|-0-1-1-0-0---0\----|


  Am               Am7/G            D7/F#
|-0-0-0-0-0--0---|-3-3-3-0-3--3---|-2-2-2-0-2--2---|
|-1-1-1-0-1--1---|-1-1-1-0-1--1---|-1-1-1-0-1--1---|
|-2-2-2-0-2--2---|-0-0-0-0-0--0---|-2-2-2-0-2--2---|
|-2-2-2---2--2---|-2-2-2---2--2---|-0-0-0---0--0---|
|-0-0-0---0--0---|----------------|----------------|
|----------------|-3-3-3---3--3---|-2-2-2---2--2---|
|
|----------------|----------------|----------------|
|----------------|----------------|----------------|
|----------------|----------------|----------------|
|-7-7-7---7--7\--|---5-5---5--5\--|---4-4---4--4\--|
|-7-7-7---7--7\--|---5-3---5--5\--|---4-4---4--4\--|
|-5-5-5-0-5--5\--|-0-3-3-0-3--3\--|-0-2-2-0-2--2\--|


                    Outro
                   Free Time  Q=65
  F       E          F
|-1-1-1-1-0-0-0--0-|-1--------:-(1)----:
|-1-1-1-1-0-0-0--0-|-1--------:-(1)----:
|-2-2-2-2-1-1-1--1-|-2--------:-(2)----:
|-3-3-3-3-2-2-2--2-|-3--------:-(3)----:
|-3-3-3-3-2-2-2--2-|-3--------:-(3)----:
|-1-1-1-1-0-0-0--0-|-1--------:-(1)----:
|
|------------------|----------:--------:
|------------------|----------:--------:
|------------------|----------:--------:
|---3-3---2---2\---|----------:--------:
|---3-3---2---2\---|----------:--------:
|-0-1-1-0-0---0\---|----------:--------:


  Q=140                    Q=123
  E7(type 2)               F
|-^0--------:-(0)--------:-!1--------:-(1)--------:
|-^0--------:-(0)--------:-!1--------:-(1)--------:
|-^1--------:-(1)--------:-!2--------:-(2)--------:
|-^0--------:-(0)--------:-!3--------:-(3)--------:
|-^2--------:-(2)--------:-!3--------:-(3)--------:
|-^0--------:-(0)--------:-!1--------:-(1)--------:
|
| Gtr I
|-----------:------------:-----------:------------:
|-----------:------------:-----------:------------:
|-----------:------------:-----------:------------:
|-----------:------------:-----------:------------:
|-----------:------------:-----------:------------:
|-----------:------------:-----------:------------:


  Q=140                      Q=65         Q=140
  E5                                        A/C#
|-^0-------------------------:------------:-------------------:
|-^0-------------------------:------------:-------------10----:
|-^4--(4)p2h4p2h4--(4)p2h4p2h:==4---------:----------9--------:
|-^2-------------------------:-(2)--------:------7------------:
|-^2-------------------------:-(2)--------:-------------------:
|-^0-------------------------:-(0)--------:-------------------:
|
|----------------------------:------------:-------------------:
|----------------------------:------------:-10--10--10--10----:
|----------------------------:------------:--9---9---9---9----:
|----------------------------:------------:-------------------:
|----------------------------:------------:-------------------:
|----------------------------:------------:--9---9---9---9----:


                  H.=H                                 Q
  Cm6               Bm7               Bbmaj7
|-----------------:-----------------:------------------:
|-------------10--:-------------10--:-------------10---:
|----------8------:----------7------:----------7-------:
|------7----------:------7----------:------7-----------:
|-----------------:-----------------:------------------:
|-----------------:-----------------:------------------:
|
|-----------------:-----------------:------------------:
|-10--10--10--10--:-10--10--10--10--:-10--10--10--10---:
|--8---8---8---8--:--7---7---7---7--:--7---7---7---7---:
|-----------------:-----------------:------------------:
|-----------------:-----------------:----------------0-:
|--8---8---8---8--:--7---7---7---7--:--6---6---6---6---:
|
| Gtr IV
|-----------------:-----------------:------------------:
|-----------------:-----------------:------------------:
|-----------------:-----------------:------------------:
|-----------------:-----------------:------------------:
|-----------------:-----------------:------------------:
|-----------------:-----------------:------------------:


 =80
  Amadd9
|-----------------------------------------:-------------------:--------*|
|-----------------------------------------:-------------------:--------*|
|-----------------------------------------:-------------------:--------*|
|-----------------------------------------:-------------------:--------*|
|-----------------------------------------:-------------------:--------*|
|-----------------------------------------:-------------------:--------*|
|
|-----------------------------------------:--------------0----:-(0)----*|
|-------0---------0---------0-------0-----:-------0-(0)--0----:-(0)----*|
|-----5---------5---------5-------5-------:-----5--------5----:-(5)----*|
|--7---------7---------7--------7---------:--7-----------7----:-(7)----*|
|-(0)-----0-(0)-----0-(0)-----0-0-----(0)-:-(0)----------0----:-(0)----*|
|-----------------------------------------:-------------------:--------*|
|
|-----------------------------------------:--------------5----:-(5)----*|
|-----------------------------------------:-------------------:--------*|
|-----------------------------------------:-------------------:--------*|
|-----------------------------------------:-------------------:--------*|
|-----------------------------------------:-------------------:--------*|
|-----------------------------------------:-------------------:--------*|
comments
print report bad tab
7 comments total. Showing first comments.
0 reply
mrdeetag wrote on February 26 2004, 12:00 am

well done.

0 reply
tiftcte wrote on February 29 2004, 12:00 am

i agree with [02/29/2004] by UG Stranger

0 reply
wil wrote on March 1 2004, 12:00 am

I hope you did copy this out of a book becuase this is the most note-accurate tab I have ever seen of this song- No-one else attempts those little spanish-guitar flurries in the background of this song. I didn't think the song had that many chords/implied tonalities as you have here. Seriously, I hope you opied this out of a book- otherwise you are a complete saddo and there is no hope for people like us.

I want to post or [tab]
guest
You may want to rate the tab now too:
select rating
Please do not post tabs as comments. Select "correction" instead!