Oops, an error
Loading. Please wait.

Babe Im Gonna Leave You Tab

ver5
ver5

Intro

Whole song

Video

More versions @911Tabs.com
137,986 views 588 this week
10 commentsread comments
1 2 3 4 5
excellent!
x 50
Autoscroll
+/-
esc
set tempo
stop
Contributor
WARNING: You are trying to view
                                    content from Ultimate-Guitar.com
                                    in an unauthorized application,
                                    which is prohibited.

                                    Please use an official Ultimate
                                    Guitar Tabs application for iPhone,
                                    iPad or Android to access legitimate
                                    chords, guitar, bass, and drum tabs
                                    from Ultimate-Guitar.com database.

                                    Type "ultimate guitar tabs" in Apple
                                    App Store's or Android Market's
                                    search to find the application.
Led Zeppelin
Babe I'm gonna leave you
Tabber:Brian Gelvin
E-mail:rockin_vampire26@yahoo.com

There are four parts acoustic one and two and an electric guitar
and a slide guitar.

This is sorta a practice version.  The low E notes are optional
until you can play them.

KEY:
~=vribrato
()=don't have to play that note(optional note)
/=slide
%=eigth rest
h=hammer
D.S. :S: al Coda=Go back to :S:
(+)=Coda
P=pull off
T=recomend using your thumb
B=bend down a full step (toward high e)
R=Bend one step then return
X=mute
b=bend up a full step (toward lowerer E)

Moderately slow with a halftime feel (A quarter note=138)
INTRO:Acoustic guitar one.
4/4 time.
e|-------0---------|--------------------|--------------------|
B|---------------1-|-------3----------1-|-------3----------1-|
G|---2-2-------2---|-----0----------0---|-----2----------2---|
D|---2-------2-----|---2----------2-----|---0----------0-----|
A|0-------(0)------|--------------------|--------------------|
E|-----------------|(3)--------(3)------|(2)--------(2)------|

e|--------------------|-------3----------0-|-------3----------0-|
B|-------1----------0-|--------------------|--------------------|
G|-----2----------1---|-----2----------2---|-----0----------0---|
D|---3----------2-----|---2----------2-----|---2----------2-----|
A|--------------------|(0)--------(0)------|--------------------|
E|(1)--------(0)------|--------------------|(3)--------(3)------|

e|--------------------|--------------------|
B|-------3----------1-|-------1----------0-|
G|-----0----------0---|-----2----------1---|
D|---2----------2-----|---3----------2-----|
A|--------------------|--------------------|
E|(2)--------(2)------|(1)--------(0)------|
Verse 1
e|-------3----------0-|--------------------|--------------------|
B|--------------------|-------3----------1-|-------3----------1-|
G|-----2----------2---|-----0----------0---|-----2----------2---|
D|---2----------2-----|---2----------2-----|---0----------0-----|
A|(0)--------(0)------|--------------------|--------------------|
E|--------------------|(3)--------(3)------|(2)--------(2)------|
  Babe,                                                 ba - by,
e|--------------------|-------3----------0-|--------------------|
B|-------1----------0-|--------------------|-------3----------1-|
G|-----2----------1---|-----2----------2---|----------------0---|
D|---3----------2-----|---2----------2-----|---2-2--------2-----|
A|--------------------|(0)--------(0)------|--------------------|
E|(1)--------(0)------|--------------------|(3)--------(3)------|
  ba - by,___       I'm__ gon-na leave_you.___
e|--------------------|--------------------|-------3----------0-|
B|-------3----------1-|-------1----------0-|--------------------|
G|-----2----------2---|-----2----------1---|-----2----------2---|
D|---0----------0-----|---3----------2-----|---2----------2-----|
A|--------------------|--------------------|(0)--------(0)------|
E|(2)--------(2)------|(1)--------(0)------|--------------------|
                                    I said___  ba   _  by___
e|--------------------|-------------------|--------------------|
B|-------3----------1-|-------3---------1-|-------1----------0-|
G|-----0----------0---|-----2---------2---|-----2----------1---|
D|---2----------2-----|---0---------0-----|---3----------2-----|
A|--------------------|-------------------|--------------------|
E|(3)--------(3)------|(2)-------(2)------|(1)--------(0)------|
                                        you___ know___     I'm
e|-------3----------0-|-------3----------0-|--------------------|
B|--------------------|--------------------|-------3----------1-|
G|-----2----------2---|-----0----------0---|-----2----------2---|
D|---2----------2-----|---2----------2-----|---0----------0-----|
A|(0)--------(0)------|--------------------|--------------------|
E|--------------------|(3)--------(3)------|(2)--------(2)------|
  gon-na leave__ you.__
e|--------------------|--------------------|--------------------|
B|-------1----------1-|-------3----------1-|-------3----------0-|
G|-----2----------1---|-----2----------2---|-----1----------1---|
D|---3----------2-----|---3----------3-----|---2----------2-----|
A|--------------------|--------------------|--------------------|
E|(1)--------(0)------|(1)--------(1)------|(0)--------(0)------|
      I'll_____________ leave you_ when the  sum-mer time,___
e|--------------------|--------------------|-------0----------0-|
B|-------3----------1-|-------3----------0-|--------------------|
G|-----2----------2---|-----1----------1---|-----2----------2---|
D|---3----------3-----|---2----------2-----|---2----------2-----|
A|--------------------|--------------------|(0)--------(0)------|
E|(1)--------(1)------|(0)--------(0)------|--------------------|
    leave you when the  sum-mer  comes a rol  -   lin,__________
e|-------3----------0-|--------------------|--------------------|
B|--------------------|-------3----------1-|-------1----------0-|
G|-----0----------0---|-----2----------2---|-----2----------1---|
D|---2----------2-----|---0----------0-----|---3----------2-----|
A|--------------------|--------------------|--------------------|
E|(3)--------(3)------|(2)--------(2)------|(1)--------(0)------|
                         leave__ you when  the sum-mer comes a -
e|0--0-0--0---0---0-|0-0-0-0-0-0-0--|
B|1--1-1--1---8---6-|6-6-6-6-6-6-6-0|
G|2--2-2--2-%-9-%-7-|7-7-7-7-7-7-7-0| Repeat 4 times  
D|2--2-2--2---9---7-|7-7-7-7-7-7-7-0|
A|0--0-0--0---0---0-|0-0-0-0-0-0-0-0|
E|------------------|---------------|
 |long._______           :S:          
 |Acoustic 2                         To Coda (+) (second time through).
e|0-------0---0----0--|--0--0--0--0--0--0---|
B|5-------5---12---10-|--10-10-10-10-10-10-0|
G|5--5-5--5-%-12-%-10-|--10-10-10-10-10-10-0| Repeat 4 times
D|7--7-7--7---14---12-|--12-12-12-12-12-12-0|
A|0--0-0--0---0----0--|--0--0--0--0--0--0---|
E|--------------------|---------------------| To Coda (+)(+) (third time)

e|------------------0|-------------------|-------------------|
B|-------------------|-------3----------1|-------1----------1|
G|-----2----------2--|-----0----------0--|-----2----------2--|
D|---2----------2----|---2----------2----|---0----------0----|
A|0----------0-------|-------------------|-------------------|
E|-------------------|(3)--------(3)-----|(2)--------(2)-----|
  Ba  -  ba,__  ba,__    ba,___    ba,____  ba,______  ba  -
e|-------------------|-------3----------0|-------------------|
B|-------1----------1|-------------------|-------3----------1|
G|-----2----------2--|-----2----------2--|-----0----------0--|
D|---3----------3----|---2----------2----|---2----------2----|
A|-------------------|(0)--------(0)-----|-------------------|
E|(1)--------(0)-----|-------------------|(3)--------(3)-----|
    by,  mmm ba - by I don'twanna leave you___
e|-------------------|-------------------|-------3----------0|
B|-------3----------1|-------1----------0|-------------------|
G|-----2----------2--|-----2----------1--|-----2----------2--|
D|---0----------0----|---3----------2----|---2----------2----|
A|-------------------|-------------------|(0)--------(0)-----|
E|(2)--------(2)-----|(1)--------(0)-----|-------------------|
  I ain't__ jok-in'__  wo-man I've gor to____ ram  -  ble,                  
e|-------------------|-------------------|-------------------|
B|-------3----------1|-------1----------1|-------1----------0|
G|-----0----------0--|-----2----------2--|-----2----------1--|
D|---2----------2----|---0----------0----|---3----------2----|
A|-------------------|-------------------|-------------------|
E|(3)--------(3)-----|(2)--------(2)-----|(1)--------(0)-----|
                        oh_______ yeah,______________
e|-------3----------0|-------------------|-------------------|
B|-------------------|-------3----------1|-------3----------1|
G|-----2----------2--|-----0----------0--|-----2----------2--|
D|---2----------2----|---2----------2----|---0----------0----|
A|(0)--------(0)-----|-------------------|-------------------|
E|-------------------|(3)--------(3)-----|(2)--------(2)-----|
             Ba - by,  ba - by___ I won't|  be there,________
Acoustic two FILL                        |
                                        e|------7h--10--12-----7h|
                                        B|----8h-------------8h--|
                                        G|--7h------------%-9----|
                                        D|-9---------------------|
                                        A|-----------------------|
                                        E|-----------------------|
Acoustic 1
e|-------------------|-------------------|-------------------|
B|-------1----------1|-------3----------1|-------3----------0|
G|-----2----------1--|-----2----------2--|-----1----------1--|
D|---3----------2----|---3----------3----|---2----------2----|
A|-------------------|-------------------|-------------------|
E|(1)--------(0)-----|(1)--------(1)-----|(0)--------(0)-----|
 |real - ly__ got to  ram  -  ble,_____
 |Acoustic 2
e|-10--12---8-10h-8h/7--8--7-8h-7h/5~~~~~~~~~|~~~~~~~~~~~~|
B|--------------------------------|----------|------------|
G|--------%-----------------------|----------|------------|
D|--------------------------------|----------|------------|
A|--------------------------------|----------|------------|
E|--------------------------------|----------|------------|

Acoustic 1
e|-------------------|-------------------|
B|-------3----------1|-------3----------0|
G|-----2----------2--|-----1----------1--|
D|---3----------3----|---2----------2----|
A|-------------------|-------------------|
E|(1)--------(1)-----|(0)--------(0)-----|
   I can hear it cal - lin' me the way it
e|-------0-----------|-------------------|
B|------------------3|-------1----------1|
G|-----2----------2--|-----0----------2--|
D|---2----------2----|---2----------3----|
A|(0)--------(0)-----|-------------------|
E|-------------------|(3)--------(3)-----|
  used  to do_____
e|------------------0|-------------------|
B|-------1-----------|-------1----------0|
G|-----2----------2--|-----2----------1--|   D.S. :S: al Coda
D|---3----------3----|---3----------2----|  
A|-------------------|-------------------|
E|(3)--------(3)-----|(1)--------(0)-----|
   I can hear it cal - lin' me back home__
Coda 1 (+) Acoustic 1
e|-------------------|-------------------|
B|-------5----------9|-------8-------6---|
G|-----4----------8--|-----7-------7-----|
D|---2-----2-7h-7----|---7-------7-------|
A|0--------0(0)------|0--------0---------|
E|-------------------|-------------------|
 |  Acoustic 2
e|-------------------|-------------------|
B|-----------------8-|-------8-------6---|
G|-----4-5h------9---|-----7-------7-----|
D|---2-------3-7h----|---7-------7-------|
A|0--------0---------|0--------0---------|
E|-------------------|-------------------|

e|-------------------|-------------------|
B|------------------8|-------8-------6---|
G|-----4-5h-------9--|-----7-------7-----| 
D|---2--------3-7h---|---7-------7-------|
A|0---------0--------|0--------0---------|
E|-------------------|-------------------|
 |                                         Repeat these two measures 2 times.
e|-------------------|-------------------|
B|------------------8|-------8-------6---|
G|-----4/5--------9--|-----7-------7-----|
D|---2-------3-7h----|---7-------7-------|
A|0--------0---------|0--------0---------|
E|-------------------|-------------------|

e|-------------------|-------------------|-------------------|
B|-------------------|-------------------|-------------------|
G|9/14--14--9--14--14|9/12--12--9--12--12|9/11--11--9--11--11|
D|9/14--14--9--14--14|9/12--12--9--12--12|9/11--11--9--11--11|
A|7/12--12--7--12--12|7/10--10--7--10--10|7/9---9---7--9---9-|
E|-------------------|-------------------|-------------------|
 |Ba        -      by              C'mon,                Babe!
 |Electric Guitar
e|-------------------|-------------------|-------------------|
B|-------------------|-------------------|-------------------|
G|-------------------|-------------------|-------------------|
D|---7--7-----7----7-|---5--5-----5----5-|---4--4-----4----4-|
A|---7--7-----7----7-|---5--5-----5----5-|---4--4-----4----4-|
E|0--5--5--0--5----5-|0--3--3--0--3----3-|0--2--2--0--2----2-|

e|-------------------|
B|-------------------|
G|9/10--10--9--10--10|
D|9/10--10--9--10--10|
A|7/8---8---7--8---8-|
E|-------------------|
 |  I'm gonna leave you girl,__ oh,__ Ba  -  by,     you__ know,  I've real-ly got to leave_____ ya,____ 
e|-------------------|
B|-------------------|
G|-------------------|
D|---1--1-----2----2-|
A|---1--1-----2----2-|
E|0--3--3--0--0----0-|  Repeat these 4 measures 4 times.

e|-------------------|-------------------|
B|-------------------|-------------------|
G|9/11--11--9--11-11-|-------------------|
D|9/11--11--9--11-11-|9/10--10--9--10-10-|
A|7/9---9---7--9---9-|7/8---8---7--8---8-|
E|-------------------|-------------------|
 | oh,                 I can hear it cal- lin' me,__
 | I said don't you hear it__ cal-lin' me the way it used to do.__
e|-------------------|-------------------|
B|-------------------|-------------------|
G|-------------------|-------------------|
D|---3--3-----3----3-|---2--2-----2----2-|
A|---3--3-----3----3-|---2--2-----2----2-| Repeat these 2 measures 2 times.
E|0--1--1--0--1----1-|0--0--0--0--0----0-|  D.S. :S: al Coda 
 
Coda (+)(+)
e|-------0-----------|-------------------|-------------------|
B|---------------1---|-------3----------1|-------3----------1|
G|-----2-------2-----|-----0----------0--|-----2----------2--|
D|---2-------2-------|---2----------2----|---0----------0----|
A|0-------(0)--------|-------------------|-------------------|
E|-------------------|(3)--------(3)-----|(2)--------(2)-----|
                               Acoustic 2|          
                                         |
                                        e|-------------------|
                                        B|-----------5----6--|
                                        G|-------------------|
                                        D|-------------------|
                                        A|-------------------|
                                        E|-------------------|

e|-------------------|-------3----------0|-------------------|
B|-------1----------0|-------------------|-------3----------1|
G|-----2----------1--|-----2----------2--|-----0----------0--|
D|---3----------2----|---2----------2----|---2----------2----|
A|-------------------|(0)--------(0)-----|-------------------|
E|(1)--------(0)-----|-------------------|(3)--------(3)-----|
 |
e|-------------------|-------------------|-------------------|
B|8--6--5-6h-5h/3-5-3|1-3h-1hP-----------|------1------------|
G|-------------------|----------2--2~~~~~|-%--2---%-%------2-|
D|-------------------|-------------------|-------------------|
A|-------------------|-------------------|-------------------|
E|-------------------|-------------------|-------------------|

e|-------------------|-------------------|
B|-------3----------1|-------1----------0|
G|-----2----------2--|-----2----------1--|
D|---0----------0----|---3----------2----|
A|-------------------|-------------------|
E|(2)--------(2)-----|(1)--------(0)-----|
 |
e|---------0---------|--------------------------|
B|0--1--3-----3-1hP-0|--------------------------|
G|-----------------2-|2P------------------------|
D|-------------------|---3-2hP-2P2P--0--0-------|
A|-------------------|--------------3--3-3-1/3/1|
E|-------------------|--------------------------|

e|-------3----------1|-------1----------0|-------0----------0|
B|-------------------|-------------------|-------------------|
G|-----2----------2--|-----0----------0--|-----2----------2--|
D|---2----------2----|---2----------2----|---0----------0----|
A|(0)--------(0)-----|-------------------|-------------------|
E|-------------------|(3)--------(3)-----|(2)--------(2)-----|
 |  I know_________     I know_________    I know I'm nev-er nev-
e|-------------------|
B|-------------------|
G|-------------------|
D|-------------------|
A|0------------------|
E|-------------------|

e|-------0----------0|-------------------|-------------------|
B|-------------------|-------1----------1|-------1----------1|
G|-----2----------1--|-----2----------2--|-----0----------0--|
D|---3----------2----|---2----------2----|---2----------2----|
A|-------------------|(0)--------(0)-----|-------------------|
E|(1)--------(0)-----|-------------------|(3)--------(3)-----|
er never never never gonna leave you, babe,___
e|-------------------|-------------------|-------3----------1|
B|-------1----------1|-------1----------0|-------------------|
G|-----2----------2--|-----2----------1--|-----2----------2--|
D|---0----------0----|---3----------2----|---2----------2----|
A|-------------------|-------------------|(0)--------(0)-----|
E|(2)--------(2)-----|(1)--------(0)-----|-------------------|
            I've got-ta go a-way form this place
e|-------0----------1|-------0-----------|-------0----------0|
B|-------------------|------------------3|-------------------|
G|-----0----------0--|-----2----------2--|-----2----------1--|
D|---2----------2----|---0----------0----|---3----------2----|
A|-------------------|-------------------|-------------------|
E|(3)--------(3)-----|(2)--------(2)-----|(1)--------(0)-----|
               I      got-ta quit___ you, yeah,    oh________
e|-------------------|-------------------|-------------------|
B|-------1----------1|-------1----------1|-------1----------1|
G|-----2----------2--|-----0----------0--|-----2----------2--|
D|---2----------2----|---2----------2----|---0----------0----|
A|(0)--------(0)-----|-------------------|-------------------|
E|-------------------|(3)--------(3)-----|(2)--------(2)-----|
  ___     Ba  -  by        ba  -  by            ba  -  by
e|-------------------|0--0--0--0--0---0--|3--3--3P----3---3--|
B|-------1----------0|0--1--1--0--1---1--|1--1--1-----1---1--|
G|-----2----------1--|0--2--2--0--2---2--|0--0--0-----0---0--|
D|---3----------2----|0--2--2-----2---2--|2--2--2-----2---2--|
A|-------------------|0--0--0-----0---0--|0--0--0-----0---0--|
E|(1)--------(0)-----|-------------------|-------------------|
     ba  -  by,__    |   ba  -  by,___           ba  -  by,___
                     | Electric guitar
                    e|-------------------|-------------------|
                    B|-------------------|-------------------|
                    G|-------------------|-------------------|
                    D|---7--7-----7----7-|---5--5-----5----5-|
                    A|---7--7-----7----7-|---5--5-----5----5-|
                    E|0--5--5--0--5----5-|0--3--3--0--3----3-|

e|0--2--2P----2---2--|---0--0-----0---0--|0--0--0--0--0---0--|
B|1--1--1-----1---1--|---1--1-----0---0--|1--1--1--0--1---1--|
G|2--2--2-----2---2--|---2--2-----1---1--|2--2--2--0--2---2--|
D|0--0--0-----0---0--|---3--3-----2---2--|2--2--2--0--2---2--|
A|-------------------|------------2---2--|0--0--0-----0---0--|
E|-------------------|1T----------0---0--|-------------------|
 | ba  -  by,_____     oh,__________
e|-------------------|-------------------|-------------------|
B|-------------------|-------------------|-------------------|
G|-------------------|-------------------|-------------------|
D|---4--4-----4----4-|---3--3-----2----2-|---7--7-----7----7-|
A|---4--4-----4----4-|---3--3-----2----2-|---7--7-----7----7-|
E|0--2--2--0--2----2-|0--1--1--0--0----0-|0--5--5--0--5----5-|

e|0--3--3P----3---3--|0--2--2P----2---2--|---0--0-----0---0--|
B|1--1--1-----1---1--|1--1--1-----1---1--|---1--1-----0---0--|
G|0--0--0-----0---0--|2--2--2-----2---2--|---2--2-----1---1--|
D|2--2--2-----2---2--|0--0--0-----0---0--|---3--3-----2---2--|
A|0--0--0-----0---0--|-------------------|------------2---2--|
E|-------------------|-------------------|1T----------0---0--|
 |                    don't you hear it  cal-lin' him?______
e|-------------------|-------------------|-------------------|
B|-------------------|-------------------|-------------------|
G|-------------------|-------------------|-------------------|
D|---5--5-----5----5-|---4--4-----4----4-|---3--3-----2----2-|
A|---5--5-----5----5-|---4--4-----4----4-|---3--3-----2----2-|
E|0--3--3--0--3----3-|0--2--2--0--2----2-|0--1--1--0--0----0-|

e|-------0-----------|-------------------|-------------------|
B|------------------3|-------1----------3|-------1----------1|
G|-----2----------2--|-----0----------0--|-----2----------2--|
D|---2----------2----|---2----------2----|---0----------0----|
A|0----------(0)-----|-------------------|-------------------|
E|-------------------|(3)--------(3)-----|(2)--------(2)-----|
                           oh,______          wo - man,______
e|-------------------|-------3----------1|-------0-----------|
B|-------1----------0|-------------------|------------------3|
G|-----2----------1--|-----2----------2--|-----0----------0--|
D|---3----------2----|---2----------2----|---2----------2----|
A|-------------------|(0)--------(0)-----|-------------------|
E|(1)--------(0)-----|-------------------|(3)--------(3)-----|
                     |  wo-man,              I  know,_____
                     | slide guitar  Tuning (1)= D
                    d|---------19-19/17--|-17/19---19~~~~~~~~|
                    B|-------------------|-------------------|
                    G|-------------------|-------------------|
                    D|-------------------|-------------------|
                    A|-------------------|-------------------|
                    E|-------------------|-------------------|

e|-------0-----------|-------0----------0|-------3----------1|
B|------------------3|-------------------|-------------------|
G|-----2----------2--|-----2----------1--|-----2----------2--|
D|---0----------0----|---3----------2----|---2----------2----|
A|-------------------|-------------------|(0)--------(0)-----|
E|(2)--------(2)-----|(1)--------(0)-----|-------------------|
 |     I know,____           it feels good to have you back a-
e|-------------------|-------------------|-------------------|
B|-10--10--10--10--10|-10~~~~~~~~~~~~~~~~|-------------------|
G|-------------------|-------------------|-------------------|
D|-------------------|-------------------|-------------------|
A|-------------------|-------------------|-------------------|
E|-------------------|-------------------|-------------------|

e|-------0----------1|-------0-----------|-------0----------0|
B|-------------------|------------------3|-------------------|
G|-----0----------0--|-----2----------2--|-----2----------1--|
D|---2----------2----|---0----------0----|---3----------2----|
A|-------------------|-------------------|-------------------|
E|(3)--------(3)-----|(2)--------(2)-----|(1)--------(0)-----|
 |gain and not know_ that one day baby,  it's real-ly gon-na
e|-------------------|-------------------|-------------------|
B|-------------------|---------------10-/|12-----12h/10/12---|
G|-------------------|-------------------|-------------------|
D|-------------------|-------------------|-------------------|
A|-------------------|-------------------|-------------------|
E|-------------------|-------------------|-------------------|

e|-------3----------1|-------0----------1|-------0-----------|
B|-------------------|-------------------|------------------3|
G|-----2----------2--|-----0----------0--|-----2----------2--|
D|---2----------2----|---2----------2----|---0----------0----|
A|(0)--------(0)-----|-------------------|-------------------|
E|-------------------|(3)--------(3)-----|(2)--------(2)-----|
 | grow_ yes it is,_  we gonna go      walkin' through the park
e|-------------------|-------------------|-------------------|
B|10/12-/-10~~~~~~~~~|~~~~~~-------------|-------------------|
G|-------------------|-------------------|-------------------|
D|-------------------|-------------------|-------------------|
A|-------------------|-------------------|-------------------|
E|-------------------|-------------------|-------------------|

e|-------------------|0--0--0--0--0---0--|3--3--3P----3---3--|
B|-------1----------0|0--1--1--0--1---1--|1--1--1-----1---1--|
G|-----2----------1--|0--2--2--0--2---2--|0--0--0-----0---0--|
D|---3----------2----|0--2--2--0--2---2--|2--2--2-----2---2--|
A|-------------------|0--0--0-----0---0--|0--0--0-----0---0--|
E|(1)--------(0)-----|-------------------|-------------------|
 | ev-ry' day.___    |                            Come what
 |                   |Electric
e|-------------------|-------------------|-------------------|
B|-------10/8/10-8h/5|-------------------|-------------------|
G|-------------------|-------------------|-------------------|
D|-------------------|---7--7-----7----7-|---5--5-----5----5-|
A|-------------------|---7--7-----7----7-|---5--5-----5----5-|
E|-------------------|0--5--5--0--5----5-|0--3--3--0--3----3-|
                                                  C
e|0--2--2P----2----2-|---0--0-----0---0--|0--0--0--0--0---0--|
B|1--1--1-----1----1-|---1--1-----0---0--|0--1--1--0--1---1--|
G|2--2--2-----2----2-|---2--2-----1---1--|0--2--2--0--2---2--|
D|0--0--0-----0----0-|---3--3-----2---2--|0--2--2--0--2---2--|
A|-------------------|------------2---2--|0--0--0---------0--|
E|-------------------|1T----------0---0--|-------------------|
 |    may____  every  day_____    oh_________      come what_    
e|-------------------|-------------------|-------------------|
B|-------------------|-------------------|-------------------|
G|-------------------|-------------------|-------------------|
D|---4--4-----4----4-|---3--3-----2----2-|---7--7-----7----7-|
A|---4--4-----4----4-|---3--3-----2----2-|---7--7-----7----7-|
E|0--2--2--0--2----2-|0--1--1--0--0----0-|0--5--5--0--5----5-|

e|3--3--3P----3---3--|0--2--2P----2---2--|---0--0-----0---0--|
B|1--1--1-----1---1--|1--1--1-----1---1--|---1--1-----0---0--|
G|0--0--0-----0---0--|2--2--2-----2---2--|---2--2-----1---1--|
D|2--2--2-----2---2--|0--0--0-----0---0--|---3--3-----2---2--|
A|0--0--0-----0---0--|-------------------|------------2---2--|
E|-------------------|-------------------|1T----------0---0--|
 |_ come__ what___  come what may__       I'm gonna leave you  
e|-------------------|-------------------|-------------------|
B|-------------------|-------------------|-------------------|
G|-------------------|-------------------|-------------------|
D|---5--5-----5----5-|---4--4-----4----4-|---3--3-----2----2-|
A|---5--5-----5----5-|---4--4-----4----4-|---3--3-----2----2-|
E|0--3--3--0--3----3-|0--2--2--0--2----2-|0--1--1--0--0----0-|

e|-------0-----------|-------------------|-------2-----------|
B|------------------1|-------3----------1|------------------1|
G|-----2----------2--|-----0----------0--|-----2----------2--|
D|---2----------2----|---2----------2----|---0----------0----|
A|0----------(0)-----|-------------------|-------------------|
E|-------------------|(3)--------(3)-----|(2)--------(2)-----|
 |go  a-way__________|___________________________
                     |Acoustic 2
                    e|---7h-10-8-8-7-8-7-----|-------------------|
                    B|-8h----------------10-8|7-8-7---7----------|
                    G|9----------------------|------9------7-----|
                    D|-----------------------|-------------------|
                    A|-----------------------|-------------------|
                    E|-----------------------|-------------------|

e|-------------------|`------3----------1|-------0----------1|
B|-------1----------0|-------------------|-------------------|
G|-----2----------1--|-----2----------2--|-----0----------0--|
D|---3----------2----|---2----------2----|---2----------2----|
A|-------------------|(0)--------(0)-----|-------------------|
E|(1)--------(0)-----|-------------------|(3)--------(3)-----|
 |     oh,______________
e|-------------------|-------------------|-------------------|
B|-------------------|-------------------|-------7B--7B------|
G|-4-/-7-/5-4--5--4-2|-4-----------------|--------------8/7/5|
D|-------------------|---2---------------|-------------------|
A|-------------------|-------------------|-------------------|
E|-------------------|-------------------|-------------------|

e|-------0-----------|-------0----------0|-------3----------1|
B|------------------3|-------------------|-------------------|
G|-----2----------2--|-----2----------1--|-----2----------2--|
D|---0----------0----|---3----------2----|---2----------2----|
A|-------------------|-------------------|(0)--------(0)-----|
E|(2)--------(2)-----|(1)--------(0)-----|-------------------|
 |                                 
e|-------------------|-------------------|-------------------|
B|-------------------|-------------------|-------------------|
G|--7~~~~~~~---7R----|-7-7--7/5-X/5-5---7|-5-----------------|
D|-------------------|-------------------|----7--------------|
A|-------------------|-------------------|-------7-----------|
E|-------------------|-------------------|-------------------|

e|-------0----------1|-------0-----------|-------0-----------|
B|-------------------|------------------3|------------------0|
G|-----0----------0--|-----2----------2--|-----2----------1--|
D|---2----------2----|---0----------0----|---3----------2----|
A|-------------------|-------------------|-------------------|
E|(3)--------(3)-----|(2)--------(2)-----|(1)--------(0)-----|
 |                                           It was real - ly
e|-------------------|-------------------|-------------------|
B|-------------------|-------------------|-------------------|
G|-------------0-----|0------------------|--------0-------0--|
D|-------0-1/2---1/2-|--1/2~~~~~~~~~-----|-0-1/2-----1/2-----|
A|-0-1/3-------------|-------------------|-------------------|
E|-------------------|-------------------|-------------------|

e|-------------------|-------------------|-------------------|
B|-------1----------1|-------1----------1|-------1----------1|
G|-----2----------2--|-----0----------0--|-----2----------2--|
D|---2----------2----|---2----------2----|---0----------0----|
A|(0)--------(0)-----|-------------------|-------------------|
E|-------------------|(3)--------(3)-----|(2)--------(2)-----|
 |        really good_                          you__ made me
e|-------------------|--7h10---7h10--7h10--7h|10--7h10---7h10---7h10---7h|
B|-------------------|-8h-----8h----8h----8h-|---8h-----8h-----8h-----8h-|
G|-------------------|9------9-----9-----9---|--9------9------9------9---|
D|-0/2P---0----------|-----------------------|---------------------------|
A|------3---3--0-----|-----------------------|---------------------------|
E|-------------------|-----------------------|---------------------------|
                      
         (ooh,)         (ooh,)______________________________  
                    NOTE:really quietly, get louder
e|-------------------|-------------------|-------3----------0|
B|-------1----------0|-------1----------1|-------------------|
G|-----2----------1--|-----2----------2--|-----0----------0--|
D|---3----------2----|---2----------2----|---2----------2----|
A|-------------------|(0)--------(0)-----|-------------------|
E|(1)--------(0)-----|-------------------|(3)--------(3)-----|
 |happy evry' single day,____
e|10-8-7-8-7----7--------|---------------|-------------------|
B|-----------10--10-8-7-8|--10-10b-------|-------------10--10|
G|-----------------------|---------------|-------------------|
D|-----------------------|---------------|-------------------|
A|-----------------------|---------------|-------------------|
E|-----------------------|---------------|-------------------|

e|-------------------|-------------------|
B|-------1----------1|-------1----------0|
G|-----2----------2--|-----2----------1--|
D|---0----------0----|---3----------2----|
A|-------------------|-------------------|
E|(2)--------(2)-----|(1)--------(0)-----|
 |      But now,___    I've got to go a -
e|-------------------|-------------------|
B|10---/---3---1--10-|-10~~~~~~~--10--10b|
G|-------------------|-------------------|
D|-------------------|-------------------|
A|-------------------|-------------------|
E|-------------------|-------------------|

e|0--0--0--0--0---0--|3--3--3P----3---3--|0--2--2P----2---2--|
B|0--1--1--0--1---1--|1--1--1-----1---1--|1--1--1-----1---1--|
G|0--2--2--0--2---2--|0--0--0-----0---0--|2--2--2-----2---2--|
D|0--2--2--0--2---2--|2--2--2-----2---2--|0--0--0-----0---0--|
A|0--0--0-----0---0--|0--0--0-----0---0--|-------------------|
E|-------------------|-------------------|-------------------|
 |way_______________                                   oh,___
 |Electric                                                       Repeat these 4 measures 4 times
e|-------------------|-------------------|-------------------|
B|-------------------|-------------------|-------------------|
G|-------------------|-------------------|-------------------|
D|---7--7-----7----7-|---5--5-----5----5-|---4--4-----4----4-|
A|---7--7-----7----7-|---5--5-----5----5-|---4--4-----4----4-|
E|0--5--5--0--5----5-|0--3--3--0--3----3-|0--2--2--0--2----2-|

e|---0--0-----0---0--|
B|---1--1-----1---1--|
G|---2--2-----2---2--|
D|---3--3-----2---2--|
A|------------0---0--|
E|1T-----------------|
 |oh____                 
e|-------------------|
B|-------------------|
G|-------------------|
D|---3--3-----2----2-|
A|---3--3-----2----2-|
E|0--1--1--0--0----0-|
  Free Time                               Baby, baby, baby, baby.
e|1------------------|-------------------|0-------------------|
B|1------------------|-------------------|5-------------------|
G|2------------------|-------------------|7-------------------|up stroke this chord.
D|3------------------|-------------------|6-------------------|
A|3------------------|-------------------|7-------------------|
E|1------------------|-------------------|0-------------------|
                    That's   when it's cal-lin' me.________
             up storke*  *snap
e|1------------------|*------------------------------|-------------|
B|1------------------|0--*---------------------------|-------------|
G|2------------------|X--2-4----2h-4h2h4h2h4h------2h|--4h-2h-4h~~~|
D|3------------------|2------------------------------|-------------|
A|3------------------|2------------------------------|-------------|
E|1------------------|0------------------------------|-------------|
I said that's when it's callin'_____       me______   back___  home___
e|-------------------|-------------------|
B|5--5--5-5-4--4--4-4|3--3--3-3-3--3--3-3|
G|-------------------|-------------------|
D|-------------------|-------------------|
A|4--4--4-4-3--3--3-3|2--2--2-2-1--1--1-1|
E|-------------------|-------------------|
_________________________________________
e|------------------0|------------------0|-------------|0----|
B|-------0-----------|-------0-----------|-------0-----|0----|
G|-----2----------2--|-----2----------2--|-----2-------|5----|
D|---2----------2----|---2----------2----|---2---------|2----|
A|0----------(0)-----|(0)--------(0)-----|(0)----------|0----|
E|-------------------|-------------------|-------------|-----|
                                                       |Electric
                                                      e|-----|
                                                      B|10~~~|
                                                      G|-----|
                                                      D|-----|
                                                      A|-----|
                                                      E|-----|
Well there you have it hope you enjoy.
10 comments total. Showing first comments.
+1 reply
Brian Gelvin wrote on March 14 2005, 12:00 am

On the 3rd line of tabs down I meant it like this.
How it is:
|------------------------------------------
|--------3----------1---------1---------0--
|------0---------0----------2---------1----
|----2---------2----------3---------2------
|------------------------------------------
|(2)-------(2)--------(1)-------(0)---------

How it is supposed to be
|-----------------------------------------
|--------3---------1---------1---------0--
|------2---------2---------2---------1----
|----0---------0---------3---------2------
|-----------------------------------------
|(2)-------(2)-------(1)-------(0)--------
Sorry for the mistake.

0 reply
chicken noodles wrote on March 15 2005, 12:00 am

Great tab. I thought it helped alot. And thanks for the error fix up.
I'd say this is the most perfect tab of this song there is.

0 reply
oooo wrote on March 15 2005, 12:00 am

Great tab.

I want to post or [tab]
guest
You may want to rate the tab now too:
select rating
Please do not post tabs as comments. Select "correction" instead!