Oops, an error
Loading. Please wait.

Black Dog Tab

ver4
ver4
More versions @911Tabs.com
11,936 views 15 this week
2 commentsread comments
1 2 3 4 5
accurate
x 14
Autoscroll
+/-
esc
set tempo
stop
Contributor
Hey! There's an official Ultimate Guitar app which is ideal
for learning songs when you're away from computer. Get the app
WARNING: You are trying to view
                                    content from Ultimate-Guitar.com
                                    in an unauthorized application,
                                    which is prohibited.

                                    Please use an official Ultimate
                                    Guitar Tabs application for iPhone,
                                    iPad or Android to access legitimate
                                    chords, guitar, bass, and drum tabs
                                    from Ultimate-Guitar.com database.

                                    Type "ultimate guitar tabs" in Apple
                                    App Store's or Android Market's
                                    search to find the application.
BLACK DOG
As recorded by Led Zeppelin
(From the 1972 Album LED ZEPPELIN IV)


Transcribed by Victor Ochoa

 Words and Music by Jimmy Page, Robert Plant & John Paul Jones


                    Q=160
                    $
 4/4
  Gtr I
  <        >
      TP   TP
|-------------------||---------|---------|-----|
|-------------------||---------|---------|-----|
|-------------------||---------|---------|-----|
|-------------------||---------|---------|-----|
|-----x---(x)--(x)--||---------|---------|-----|
|-0--(0)------------||---------|---------|-----|


           3/4        4/4
            Gtrs I, II
                                   ~~~~
|---------|----------|------------------------|
|---------|----------|------------------------|
|---------|----------|-----5b5.5==(5)r----7-9-|
|---------|------5-6-|-7---------------7------|
|---------|----7-----|---7--------------------|
|---------|----------|------------------------|


                            5/4
                    ~~~~
|--------------------------|-------------------|
|--------------------------|-------------------|
|-5h7p5-----5b5.5==(5)r----|-------------------|
|-------7-7-------------7--|-5-7-7---------2---|
|--------------------------|-------5-7-3-5-0---|
|--------------------------|-------------------|


 4/4
|----------|------------|------------|--------|
|----------|------------|------------|--------|
|----------|------------|------------|--------|
|-2--------|-(2)--------|-(2)--------|-(2)----|
|-0--------|-(0)--------|-(0)--------|-(0)----|
|----------|------------|------------|--------|


 2/4      4/4
                       ~~~~
|--------|------------------------|
|--------|------------------------|
|--------|-----5b5.5==(5)r----7-9-|
|----5-6-|-7---------------7------|
|--7-----|---7--------------------|
|--------|------------------------|


                            5/4
                    ~~~~
|--------------------------|----------------------|
|--------------------------|----------------------|
|-5h7p5-----5b5.5==(5)r----|----------------------|
|-------7-7-------------7--|-5-7-7---------2-(2)--|
|--------------------------|-------5-7-3-5-0-(0)--|
|--------------------------|----------------------|


 4/4
|----------|------------|------------|--------|
|----------|------------|------------|--------|
|----------|------------|------------|--------|
|-2--------|-(2)--------|-(2)--------|-(2)----|
|-0--------|-(0)--------|-(0)--------|-(0)----|
|----------|------------|------------|--------|


 2/4      4/4
                       ~~~~                           ~~~~
|--------|------------------------|--------------------------|
|--------|------------------------|--------------------------|
|--------|-----5b5.5==(5)r----7-9-|-5h7p5-----5b5.5==(5)r----|
|----5-6-|-7---------------7------|-------7-7-------------7--|
|--7-----|---7--------------------|--------------------------|
|--------|------------------------|--------------------------|


|-----------------|---------------------|
|-----------------|---------------------|
|-----------------|---------------------|
|-5-7-7---------2-|-(2)--2--(2)---------|
|-------5-7-3-5-0-|-(0)--0--(0)---5-6---|
|-----------------|-------------7-------|


              ~~~~                       ~~~~
|------------------------|------------------------|
|------------------------|------------------------|
|------------------------|------------------------|
|-----5b5.5==(5)r--------|-------5b5.5==(5)r------|
|-7---------------7----5-|-6-7---------------7----|
|---7----------------7---|-----7----------------7-|


                  ~~~~                                   ~~~~
|------------------------|-----------------|--------------------------|
|------------------------|-----------------|--------------------------|
|------------------------|-----------------|-----5b5.5==(5)r----7-9---|
|---------5b5.5==(5)r----|-------------5-6-|-7---------------7--------|
|-5-6-7---------------7--|---5-6-7-5-7-----|---7----------------------|
|-------7----------------|-7---------------|--------------------------|


                    ~~~~
|--------------------------|-----------------|---------------|
|--------------------------|-----------------|---------------|
|-5h7p5-----5b5.5==(5)r----|-----------------|---------------|
|-------7-7-------------7--|-5-7-7---------2-|-(2)--2------2-|
|--------------------------|-------5-7-3-5-0-|-(0)--0----3-0-|
|--------------------------|-----------------|---------------|


|-------------------------------|-------------------------------||
|-------------------------------|-------------------------------||
|-----2-4b5r4p2-4-2-------------|-----2-4b5r4p2-4-2-------------||
|-(2)-------------------------2-|-(2)-------------------------2-||
|-(0)---------------3b4==(3)r-0-|-(0)---------------3b4==(3)r-0-||
|-------------------------------|-------------------------------||


|-----------------|-------------------------------|
|-----------------|-------------------------------|
|-----------------|-----2-4b5r4p2-4-2-------------|
|-(2)---5-(5)---2-|-(2)-------------------------2-|
|-(0)---3-(3)---0-|-(0)---------------3b4==(3)r-0-|
|-----------------|-------------------------------|


|-------------------------------|---------------------------------|
|-------------------------------|---------------------------------|
|-----2-4b5r4p2-4-2-------------|-----2-4b5r4p2-4-2---------------|
|-(2)-------------------------2-|-(2)-------------------------2---|
|-(0)---------------3b4==(3)r-0-|-(0)---------------3b4==(3)r-0---|
|-------------------------------|---------------------------------|


|-----------------|--------------------|------------|------------|--------|
|-----------------|--------------------|------------|------------|--------|
|-----------------|------------2-------|-(2)--------|-(2)--------|-(2)----|
|-(2)---5-(5)---2-|-(2)--------2-------|-(2)--------|-(2)--------|-(2)----|
|-(0)---3-(3)---0-|-(0)----------------|------------|------------|--------|
|-----------------|------3b5==(3)------|-(3)--------|-(3)--------|-(3)----|


 2/4      4/4
  Gtr II
                       ~~~~
|--------|------------------------|
|--------|-----4b4.5==(4)r----7h8-|
|----4-5-|-6---------------6------|
|--7-----|---7--------------------|
|--------|------------------------|
|--------|------------------------|
|
| Gtr I
|                      ~~~~
|--------|------------------------|
|--------|------------------------|
|--------|-----5b6====(5)r----7-9-|
|----5-6-|-7---------------7------|
|--7-----|---7--------------------|
|--------|------------------------|


                            5/4
                    ~~~~
|--------------------------|----------------------|
|-5h7p5-----4b4.5==(4)r----|----------------------|
|-------6-6-------------6--|-4-6-6----------------|
|--------------------------|-------5-7-2-4-2-(2)--|
|--------------------------|---------------0-(0)--|
|--------------------------|----------------------|
|
|                   ~~~~
|--------------------------|----------------------|
|--------------------------|----------------------|
|-5h7p5-----5b6====(5)r----|----------------------|
|-------7-7-------------7--|-5-7-7---------2-(2)--|
|--------------------------|-------5-7-3-5-0-(0)--|
|--------------------------|----------------------|


 Verse 2 & 4
 4/4                                                       2/4
|------------------|------------|------------|------------|----------|
|------------------|------------|------------|------------|----------|
|------------------|------------|------------|------------|----4-5---|
|-------2----------|-(2)--------|-(2)--------|-(2)--------|--7-------|
|------------------|------------|------------|------------|----------|
|-3b5==(3)r--------|-(3)--------|-(3)--------|-(3)--------|----------|
|
|------------------|------------|------------|------------|----------|
|------------------|------------|------------|------------|----------|
|------------------|------------|------------|------------|----------|
|-------2----------|-(2)--------|-(2)--------|-(2)--------|----5-6---|
|-------0----------|-(0)--------|-(0)--------|-(0)--------|--7-------|
|------------------|------------|------------|------------|----------|


 4/4
              ~~~~                           ~~~~
|------------------------|--------------------------|
|-----4b4.5==(4)r----7h8-|-5h7p5-----4b4.5==(4)r----|
|-6---------------6------|-------6-6-------------6--|
|---7--------------------|--------------------------|
|------------------------|--------------------------|
|------------------------|--------------------------|
|
|             ~~~~                           ~~~~
|------------------------|--------------------------|
|------------------------|--------------------------|
|-----5b6====(5)r----7-9-|-5h7p5-----5b6====(5)r----|
|-7---------------7------|-------7-7-------------7--|
|---7--------------------|--------------------------|
|------------------------|--------------------------|


                         Pre-Chorus
 5/4                     4/4
|----------------------||-----------------|--------|
|----------------------||-----------------|--------|
|-4-6-6----------------||-----------------|--------|
|-------5-7-2-4-2-(2)--||------(2)--------|-(2)----|
|---------------0-(0)--||-----------------|--------|
|----------------------||-3b5==(3)--------|-(3)----|
|
|----------------------||-----------------|--------|
|----------------------||-----------------|--------|
|----------------------||-----------------|--------|
|-5-7-7---------2------||-------2---------|-(2)----|
|-------5-7-3-5-0------||-------0---------|-(0)----|
|----------------------||-----------------|--------|


                                             To Coda
                                                    &
  Gtr I                                Gtr I
|------------|------------|------------|------------||
|------------|------------|------------|------------||
|------------|------------|------------|------------||
|-(2)--------|-(2)--------|-(2)--------|-(2)--------||
|------------|------------|------------|------------||
|-(3)--------|-(3)--------|-(3)--------|-(3)--------||
|
| Gtr II
|------------|------------|------------|------------||
|------------|------------|------------|------------||
|------------|------------|------------|------------||
|-(2)--------|-(2)--------|-(2)--------|-(2)--------||
|-(0)--------|-(0)--------|-(0)--------|-(0)--------||
|------------|------------|------------|------------||
|
| Gtr III
|------------|------------|------------|------------||
|------------|------------|------------|------------||
|------------|------------|------------|------------||
|------------|------------|------------|------------||
|------------|------------|------------|------------||
|------------|------------|------------|------------||


 5/4
|-----------------|---------------------||
|-----------------|---------------------||
|-----------------|---------------------||
|-(2)----(2)------|-(2)----(2)----------||
|-----------------|---------------------||
|-(3)----(3)------|-(3)----(3)----------||
|
|-----------------|---------------------||
|-----------------|---------------------||
|-----------------|---------------------||
|-(2)----(2)------|-(2)----(2)----------||
|-(0)----(0)------|-(0)----(0)-----0----||
|-----------------|---------------------||
|
|-----------------|---------------------||
|-----------------|---------------------||
|-----------------|----------------2----||
|-----------------|----------------2----||
|-----------------|----------------0----||
|-----------------|---------------------||


 4/4
  Gtr I
|-----------------------|-----------------------|
|-----------------------|-----------------------|
|------------2--(2)---2-|-(2)----------5--2---2-|
|------------2--(2)---2-|-(2)----------5--2---2-|
|------------0--------0-|------------0-3--0---0-|
|-2b3==(2)r------2------|--3b4==(3)r------------|
|
| Gtr II
|-----------------------|-----------------------|
|-----------------------|-----------------------|
|------(2)---2--(2)---2-|--2-----------5--2---2-|
|------(2)---2--(2)---2-|--2-----------5--2---2-|
|------------0--------0-|------------0-3--0---0-|
|-2b3==(2)r------2------|--3b4==(3)r------------|


|-----------------------|-----------------|-----------------------|
|-----------------------|-----------------|-----------------------|
|------(2)---2--(2)-----|---------------2-|------(2)---2--(2)---2-|
|------(2)---2--(2)---5-|-(5)---4-(4)---2-|------(2)---2--(2)---2-|
|------------0----------|---------------0-|------------0--------0-|
|-2b3==(2)r------2------|-----------------|-2b3==(2)r------2------|
|
|---------------------3-|-(3)---2-(2)-----|-----------------------|
|---------------------3-|-(3)---3-(3)-----|-----------------------|
|-------2----2--(2)---0-|-(0)---2-(2)---2-|-------2----2--(2)---2-|
|-------2----2--(2)---0-|-(0)---0-(0)---2-|-------2----2--(2)---2-|
|------------0----------|---------------0-|------------0--------0-|
|-2b3==(2)r------2------|-----------------|-2b3==(2)r------2------|


|-----------------------|-------------------------|-----------------|
|-----------------------|-------------------------|-----------------|
|-(2)----------5--2---2-|------(2)----2---(2)-----|---------------2-|
|-(2)----------5--2---2-|------(2)----2---(2)---5-|-(5)---4-(4)---2-|
|------------0-3--0---0-|-------------0-----------|---------------0-|
|--3b4==(3)r------------|-2b3==(2)r--------2------|-----------------|
|
|-----------------------|-----------------------3-|-(3)---2-(2)-----|
|-----------------------|-----------------------3-|-(3)---3-(3)-----|
|--2-----------5--2---2-|-------2----(2)---2----0-|-(0)---2-(2)---2-|
|--2-----------5--2---2-|-------2----(2)---2----0-|-(0)---0-(0)---2-|
|------------0-3--0---0-|-------------0-----------|---------------0-|
|--3b4==(3)r------------|-2b3==(2)r--------2------|-----------------|


|-------------------------|------------------------|
|-------------------------|------------------------|
|------(2)----2---(2)---2-|-(2)----------5--2---2--|
|------(2)----2---(2)---2-|-(2)----------5--2---2--|
|-------------0---------0-|------------0-3--0---0--|
|-2b3==(2)r--------2------|--3b4==(3)r-------------|
|
|-------------------------|------------------------|
|-------------------------|------------------------|
|-------2----(2)---2----2-|--2-----------5--2---2--|
|-------2----(2)---2----2-|--2-----------5--2---2--|
|-------------0---------0-|------------0-3--0---0--|
|-2b3==(2)r--------2------|--3b4==(3)r-------------|


|-----------------------|-----------------|-----------------------|
|-----------------------|-----------------|-----------------------|
|-------2----2--(2)-----|---------------2-|------(2)---2--(2)---2-|
|-------2----2--(2)---5-|-(5)---4-(4)---2-|------(2)---2--(2)---2-|
|------------0----------|---------------0-|------------0--------0-|
|-2b3==(2)r------2------|-----------------|-2b3==(2)r------2------|
|
|---------------------3-|-(3)---2-(2)-----|-----------------------|
|---------------------3-|-(3)---3-(3)-----|-----------------------|
|-------2----2--(2)---0-|-(0)---2-(2)---2-|-------2----2---2----2-|
|-------2----2--(2)---0-|-(0)---0-(0)---2-|-------2----2---2----2-|
|------------0----------|---------------0-|------------0--------0-|
|-2b3==(2)r------2------|-----------------|-2b3==(2)r------2------|


|-----------------------|------------------------|
|-----------------------|------------------------|
|-(2)----------5--2---2-|------(2)---2--(2)------|
|-(2)----------5--2---2-|------(2)---2--(2)---5--|
|------------0-3--0---0-|------------0-----------|
|--3b4==(3)r------------|-2b3==(2)r------2-------|
|
|-----------------------|---------------------3--|
|-----------------------|---------------------3--|
|--2-----------5--2---2-|-------2----2---2----0--|
|--2-----------5--2---2-|-------2----2---2----0--|
|------------0-3--0---0-|------------0-----------|
|--3b4==(3)r------------|-2b3==(2)r------2-------|


      D.S. al Coda  &
                                 5/4
                                  Gtr III
|-------------------||----------|---------------------------------|
|-------------------||----------|---------------------------------|
|-------------------||----------|---------------------------------|
|-------------------||----------|---------------------------------|
|-------------------||----------|-----------0-2h=3--0------0----0-|
|-------------------||----------|-----2-0h2-----------2-0-(0)-----|
|
| Gtr I
|-------------------||----------|---------------------------------|
|-------------------||----------|---------------------------------|
|-------------------||----------|---------------------------------|
|-(5)---4-(4)---2---||-2--------|-(2)-----------(2)---------------|
|-------------------||-0--------|-(0)-----------(0)-----------0---|
|-------------------||----------|---------------------------------|
|
| Gtr II
|-(3)---2-(2)-------||----------|---------------------------------|
|-(3)---3-(3)-------||----------|---------------------------------|
|-(0)---2-(2)-----2-||----------|-----------------------------2---|
|-(0)---0-----0---2-||-2--------|-(2)------------2------------2---|
|-----------------0-||-0--------|-(0)------------0------------0---|
|-------------------||----------|---------------------------------|


 4/4
|-----------------------------5-------|
|-------------------------------------|
|---------------2---2--4s=5s6---------|
|-----------2-4---4-------------------|
|-2s====4-----------------------0---2-|
|-------------------------------------|
|
|-------------------------------------|
|-------------------------------------|
|---------------2-----(2)---------2---|
|---------------2-----(2)---------2---|
|---------------0-----------------0---|
|-2b3==(2)r------------2--------------|
|
|-------------------------------------|
|-------------------------------------|
|------(2)------2-----(2)---------2---|
|------(2)------2-----(2)---------2---|
|---------------0-----------------0---|
|-2b3==(2)r------------2--------------|


|-----------------------------5-------|
|-------------------------------------|
|-----------------2---2-4s5s6---------|
|-----------2---4---4-----------------|
|-4-----------------------------0---2-|
|-------------------------------------|
|
| Gtr I
|-------------------------------------|
|-------------------------------------|
|-2---------------5-----2---------2---|
|-2---------------5-----2---------2---|
|-------------0---3-----0---------0---|
|-3b4==(3)r---------------------------|
|
| Gtr II
|-------------------------------------|
|-------------------------------------|
|-2---------------5-----2---------2---|
|-2---------------5-----2---------2---|
|-------------0---3-----0---------0---|
|-3b4==(3)r---------------------------|


|-----------------------------5-------------|--------------------------|
|-------------------------------------------|--------------------------|
|---------------2---2--4s=5s6---5b7-(5)-----|--5--4-2------2h=4--------|
|-----------2-4---4-------------------------|-----------4--------------|
|-------4---------------------------------2-|-------------------0---2--|
|-------------------------------------------|--------------------------|
|
|-------------------------------------------|--------------------------|
|-------------------------------------------|--------------------------|
|------(2)------2-----(2)-------------------|---------------------2----|
|------(2)------2-----(2)---------------5---|-(5)-----4---(4)-----2----|
|---------------0---------------------------|---------------------0----|
|-2b3==(2)r------------2--------------------|--------------------------|
|
|---------------------------------------3---|-(3)-----2---(2)----------|
|---------------------------------------3---|-(3)-----3---(3)----------|
|------(2)------2------2----------------0---|-(0)-----2---(2)-----2----|
|------(2)------2------2----------------0---|-(0)-----0---(0)-----2----|
|---------------0---------------------------|---------------------0----|
|-2b3==(2)r------------2--------------------|--------------------------|


|----------------------------5-------|-----------------------------5------------|
|------------------------------------|------------------------------------------|
|--------------2---2--4s=5s6---------|-----------------2---2-4s5s6---5b7-(5)----|
|----------2-4---4-------------------|-----------2---4---4----------------------|
|------4-----------------------0---2-|-4---------------------------------------2|
|------------------------------------|------------------------------------------|
|
|------------------------------------|------------------------------------------|
|------------------------------------|------------------------------------------|
|-----(2)------2-----(2)---------2---|-2---------------5-----2---------------2--|
|-----(2)------2-----(2)---------2---|-2---------------5-----2---------------2--|
|------0-------0-----------------0---|-------------0---3-----0---------------0--|
|2b3==(2)r------------2--------------|-3b4==(3)r--------------------------------|
|
|------------------------------------|------------------------------------------|
|------------------------------------|------------------------------------------|
|-----(2)------2-----(2)---------2---|-2---------------5-----2---------------2--|
|-----(2)------2-----(2)---------2---|-2---------------5-----2---------------2--|
|--------------0-----------------0---|-------------0---3-----0---------------0--|
|2b3===3r-------------2--------------|-3b4==(3)r--------------------------------|


|-----------------------------5---------------|
|-----------------------------------------3---|
|---------------2---2--4s=5s6---5b7-(5)-------|
|-----------2-4---4---------------------------|
|-------4-------------------------------------|
|---------------------------------------------|
|
|---------------------------------------------|
|---------------------------------------------|
|------(2)------2-----(2)---------------------|
|------(2)------2-----(2)---------------5-----|
|---------------0-----------------------------|
|-2b3==(2)r------------2----------------------|
|
|---------------------------------------3-----|
|---------------------------------------3-----|
|------(2)------2------2----------------0-----|
|------(2)------2------2----------------0-----|
|---------------0-----------------------------|
|-2b3==(2)r------------2----------------------|


 Outro - Guitar Solo
                                      Gtrs III, IV
|-------------------------|-----------5---5-7b9==(7)r--7-5-|
|-------------------------|-----------5-7------------------|
|--5--4-2------2--4-2---4s|=======6------------------------|
|-----------4-------------|--------------------------------|
|-------------------------|--------------------------------|
|-------------------------|--------------------------------|
|
|-------------------------|--------------------------------|
|-------------------------|--------------------------------|
|---------------------2---|------(2)------2------(2)-----2-|
|-(5)-----4---(4)-----2---|------(2)------2------(2)-----2-|
|---------------------0---|-------0-------0--------------0-|
|-------------------------|-2b3==(2)r-------------2--------|
|
|-(3)-----2---(2)---------|--------------------------------|
|-(3)-----3---(3)---------|--------------------------------|
|-(0)-----2---(2)-----2---|------(2)------2------(2)-----2-|
|-(0)-----0---(0)-----2---|------(2)------2------(2)-----2-|
|---------------------0---|---------------0--------------0-|
|-------------------------|-2b3===3r--------------2--------|


                   ~~
|----------5---------8-10-|-10b11==(10)r-10b12==(10)r---10pb12r10p=8-10-10pb12r==|
|5-----------5-8s10-------|------------------------------------------------------|
|-------------------------|------------------------------------------------------|
|-------------------------|------------------------------------------------------|
|-------------------------|------------------------------------------------------|
|-------------------------|------------------------------------------------------|
|
|-------------------------|------------------------------------------------------|
|-------------------------|------------------------------------------------------|
|2-----------5----2-----2-|---------(2)---------------2--------(2)---------------|
|2-----------5----2-----2-|---------(2)---------------2--------(2)-------------5-|
|----------0-3----0-----0-|---------------------------0--------------------------|
|3b4==(3)r----------------|--2b3====(2)r------------------------2----------------|
|
|-------------------------|----------------------------------------------------3-|
|-------------------------|----------------------------------------------------3-|
|2-----------5----2-----2-|---------(2)---------------2---------2--------------0-|
|2-----------5----2-----2-|---------(2)---------------2---------2--------------0-|
|----------0-3----0-----0-|---------------------------0--------------------------|
|3b4==(3)r----------------|--2b3====(2)r------------------------2----------------|


                          ~~~~~~~~~~~~~~~~~~
|--8--10b12==(10)r-8-(8)-------|------------8b8.5-----------10b12==(10)r-10-|
|------------------------10----|------(10)---------------10-----------------|
|------------------------------|--------------------------------------------|
|------------------------------|--------------------------------------------|
|------------------------------|--------------------------------------------|
|------------------------------|--------------------------------------------|
|
|------------------------------|--------------------------------------------|
|------------------------------|--------------------------------------------|
|----------------------------2-|-------(2)--------2--(2)------------------2-|
|-(5)--------------4-(4)-----2-|-------(2)--------2--(2)------------------2-|
|----------------------------0-|--------0---------0-----------------------0-|
|------------------------------|-2b3===(2)r-----------2---------------------|
|
|-(3)--------------2-(2)-------|--------------------------------------------|
|-(3)--------------3-(3)-------|--------------------------------------------|
|-(0)--------------2-(2)-----2-|-------(2)--------2--(2)------------------2-|
|-(0)--------------0-(0)-----2-|-------(2)--------2--(2)------------------2-|
|----------------------------0-|------------------0-----------------------0-|
|------------------------------|-2b3====3r------------2---------------------|


                            PM
|8---------10b12==(10)r-----------------|-------15---------------------------------------|
|----------------------------15b17-(15)-|------(15)---15b17==(15)r(15)p13-(13)-15b17--15-|
|--------------------------0------------|------------------------------------------------|
|---------------------------------------|------------------------------------------------|
|---------------------------------------|------------------------------------------------|
|---------------------------------------|------------------------------------------------|
|
|---------------------------------------|------------------------------------------------|
|---------------------------------------|------------------------------------------------|
|2------------------5----2-----------2--|-------(2)------------2-----------(2)-----------|
|2------------------5----2-----------2--|-------(2)------------2-----------(2)---------5-|
|-----------0-------3----0-----------0--|----------------------0-------------------------|
|3b4==(3)r------------------------------|-2b3===(2)r------------------------2------------|
|
|---------------------------------------|----------------------------------------------3-|
|---------------------------------------|----------------------------------------------3-|
|2------------------5----2-----------2--|-------(2)------------2------------2----------0-|
|2------------------5----2-----------2--|-------(2)------------2------------2----------0-|
|-----------0-------3----0-----------0--|----------------------0-------------------------|
|3b4==(3)r------------------------------|-2b3===(2)r------------------------2------------|


|-------------------------------|-----------------17--------------------|
|-13----15b17-(15)-13-(13)------|------------------------------------17-|
|-----x-------------------------|------19b21-(19)---------19b21-(19)----|
|--------------------------x----|---------------------------------------|
|-------------------------------|---------------------------------------|
|-------------------------------|---------------------------------------|
|
|-------------------------------|---------------------------------------|
|-------------------------------|---------------------------------------|
|-----------------------------2-|------(2)---------2--(2)-------------2-|
|-(5)---------------4--(4)----2-|------(2)---------2--(2)-------------2-|
|-----------------------------0-|-------0----------0------------------0-|
|-------------------------------|-2b3==(2)r------------2----------------|
|
|-(3)---------------2--(2)------|---------------------------------------|
|-(3)---------------3--(3)------|---------------------------------------|
|-(0)---------------2--(2)----2-|------(2)---------2--(2)-------------2-|
|-(0)---------------0--(0)----2-|------(2)---------2--(2)-------------2-|
|-----------------------------0-|------------------0------------------0-|
|-------------------------------|-2b3===3r-------------2----------------|


|--17----------------------------20-(20)-------------|------(20)---------------------------|
|-(17)----------20b22==(20)r(20)---------20b22==(20)r|======(20)-----17-(17)---------------|
|-(19)-----------------------------------------------|-----------------------19b21==(19)---|
|----------------------------------------------------|-------------------------------------|
|----------------------------------------------------|-------------------------------------|
|----------------------------------------------------|-------------------------------------|
|
|----------------------------------------------------|-------------------------------------|
|----------------------------------------------------|-------------------------------------|
|---2------------5------------2-------------------2--|-------(2)---2-----(2)---------------|
|---2------------5------------2-------------------2--|-------(2)---2-----(2)-------------5-|
|-------------0--3------------0-------------------0--|-------------0-----------------------|
|---3b4==(3)r----------------------------------------|-2b3===(2)r---------2----------------|
|
|----------------------------------------------------|-----------------------------------3-|
|----------------------------------------------------|-----------------------------------3-|
|---2------------5------------2-------------------2--|-------(2)---2------2--------------0-|
|---2------------5------------2-------------------2--|-------(2)---2------2--------------0-|
|-------------0--3------------0-------------------0--|-------------0-----------------------|
|---3b4==(3)r----------------------------------------|-2b3===(2)r---------2----------------|


|--17------------------------------|----------------------------------------------------|
|------20-(20)---17--20b22==(20)---|------(20)r-20b22==(20)r(20)-17-(17)-------------20-|
|-(19)-----------------------------|-------------------------------------19b21==(19)----|
|----------------------------------|----------------------------------------------------|
|----------------------------------|----------------------------------------------------|
|----------------------------------|----------------------------------------------------|
|
|----------------------------------|----------------------------------------------------|
|----------------------------------|----------------------------------------------------|
|--------------------------------2-|-------(2)----------------2------(2)--------------2-|
|--(5)---------4-(4)-------------2-|-------(2)----------------2------(2)--------------2-|
|--------------------------------0-|--------0-----------------0-----------------------0-|
|----------------------------------|-2b3===(2)r-----------------------2-----------------|
|
|--(3)---------2-(2)---------------|----------------------------------------------------|
|--(3)---------3-(3)---------------|----------------------------------------------------|
|--(0)---------2-(2)-------------2-|-------(2)----------------2------(2)--------------2-|
|--(0)---------0-(0)-------------2-|-------(2)----------------2------(2)--------------2-|
|--------------------------------0-|--------------------------0-----------------------0-|
|----------------------------------|-2b3====3r------------------------2-----------------|


|------------------------------------------20|------(20)-------------------------------------------|
|(20)--------------------------20b22==(20)---|------(20)--20b22==(20)r(20)-17-(17)-----------------|
|-19r==========(19)b21-(19)------------------|-------------------------------------19b21==(19)r(19)|
|--------------------------------------------|-----------------------------------------------------|
|--------------------------------------------|-----------------------------------------------------|
|--------------------------------------------|-----------------------------------------------------|
|
|--------------------------------------------|-----------------------------------------------------|
|--------------------------------------------|-----------------------------------------------------|
|--2---------------------5---2--------------2|-------(2)----------------2------(2)-----------------|
|--2---------------------5---2--------------2|-------(2)----------------2------(2)---------------5-|
|------------0-----------3---0--------------0|--------------------------0--------------------------|
|--3b4==(3)r---------------------------------|-2b3===(2)r-----------------------2------------------|
|
|--------------------------------------------|---------------------------------------------------3-|
|--------------------------------------------|---------------------------------------------------3-|
|--2---------------------5---2--------------2|-------(2)----------------2-------2----------------0-|
|--2---------------------5---2--------------2|-------(2)----------------2-------2----------------0-|
|------------0-----------3---0--------------0|--------------------------0--------------------------|
|--3b4==(3)r---------------------------------|-2b3===(2)r-----------------------2------------------|


|-----------------------------|-------------------5------------------5-------|
|-----------------------------|-----------------5---8p5------------5---8p==5-|
|-17-----19-17b19==(17)r\-----|-5h====7b9==(7)r----------7b9==(7)r-----------|
|-----19----------------------|----------------------------------------------|
|-----------------------------|----------------------------------------------|
|-----------------------------|----------------------------------------------|
|
|-----------------------------|----------------------------------------------|
|-----------------------------|----------------------------------------------|
|---------------------------2-|------(2)----------2-----(2)--------------2---|
|-(5)--------4------(4)-----2-|------(2)----------2-----(2)--------------2---|
|---------------------------0-|-------0-----------0----------------------0---|
|-----------------------------|-2b3==(2)r----------------2-------------------|
|
|-(3)--------2------(2)-------|----------------------------------------------|
|-(3)--------3------(3)-------|----------------------------------------------|
|-(0)--------2------(2)-----2-|------(2)----------2-----(2)--------------2---|
|-(0)--------0------(0)-----2-|------(2)----------2-----(2)--------------2---|
|---------------------------0-|-------------------0----------------------0---|
|-----------------------------|-2b3===3r-----------------2-------------------|


|----------------------5-----------------5-------|-------------------5------------------5----------|
|--------------------5---8p5-----------5---8p==5-|-----------------5---8p5------------5---8p==5----|
|-5h7b9=======(7)r-----------7b9==(7)r-----------|-5h====7b9==(7)r----------7b9==(7)r--------------|
|------------------------------------------------|-------------------------------------------------|
|------------------------------------------------|-------------------------------------------------|
|------------------------------------------------|-------------------------------------------------|
|
|------------------------------------------------|-------------------------------------------------|
|------------------------------------------------|-------------------------------------------------|
|---2------------------5-----2---------------2---|------(2)----------2-----(2)---------------------|
|---2------------------5-----2---------------2---|------(2)----------2-----(2)--------------5------|
|------------------0---3-----0---------------0---|-------------------0-----------------------------|
|---3b4==(3)r------------------------------------|-2b3==(2)r----------------2----------------------|
|
|------------------------------------------------|------------------------------------------3------|
|------------------------------------------------|------------------------------------------3------|
|---2------------------5-----2---------------2---|------(2)----------2------2---------------0------|
|---2------------------5-----2---------------2---|------(2)----------2------2---------------0------|
|------------------0---3-----0---------------0---|-------------------0-----------------------------|
|---3b4==(3)r------------------------------------|-2b3==(2)r----------------2----------------------|


                                                      ~~~~~~~
|---------------------------------------|----------------------------------|
|--8p=5---5-----------------------------|----------------------------------|
|-------7---7---5-----7p5-(5)b6====(5)r-|--------------------5b5.5==(5)r---|
|------------------7--------------------|-------7---5-7--(7)-------------7-|
|---------------------------------------|----------------------------------|
|---------------------------------------|----------------------------------|
|
|---------------------------------------|----------------------------------|
|---------------------------------------|----------------------------------|
|--------------------------------2------|------(2)----2--(2)-------------2-|
|-(5)---------4---(4)------------2------|------(2)----2--(2)-------------2-|
|--------------------------------0------|-------0-----0------------------0-|
|---------------------------------------|-2b3==(2)r-------2----------------|
|
|-(3)---------2---(2)-------------------|----------------------------------|
|-(3)---------3---(3)-------------------|----------------------------------|
|-(0)---------2---(2)------------2------|------(2)----2--(2)-------------2-|
|-(0)---------0---(0)------------2------|------(2)----2--(2)-------------2-|
|--------------------------------0------|-------------0------------------0-|
|---------------------------------------|-2b3===3r--------2----------------|


|----------------------------------------------------|------------------------------------------|
|----------------------------------------------------|---------------------------8--------------|
|-5---------7b9==(7)r------5-5b6==(5)r-5b6==(5)r---7-|------(7)--7b9-7-7-5-----5---7b9==(7)r----|
|------------------------7---------------------------|----------------------7-------------------|
|----------------------------------------------------|------------------------------------------|
|----------------------------------------------------|------------------------------------------|
|
|----------------------------------------------------|------------------------------------------|
|----------------------------------------------------|------------------------------------------|
|-2---------------5----2-------------------------2---|------(2)--------2---(2)------------------|
|-2---------------5----2-------------------------2---|------(2)--------2---(2)-----------5------|
|-----------0-----3----0-------------------------0---|-----------------0------------------------|
|-3b4==(3)r------------------------------------------|-2b3==(2)r------------2-------------------|
|
|----------------------------------------------------|-----------------------------------3------|
|----------------------------------------------------|-----------------------------------3------|
|-2---------------5----2-------------------------2---|------(2)--------2----2------------0------|
|-2---------------5----2-------------------------2---|------(2)--------2----2------------0------|
|-----------0-----3----0-------------------------0---|-----------------0------------------------|
|-3b4==(3)r------------------------------------------|-2b3==(2)r------------2-------------------|


                    ~~~                      ~~~~        ~~~
|------------------------------------|-------------------------------|
|------------------------------------|-------------------------------|
|--7--7-5-----5b7==(5)-(5)r----------|-------5-----------5-----------|
|---------7------------------5-6---7-|------------5-6-7------5-6---7-|
|------------------------------------|-------------------------------|
|------------------------------------|-------------------------------|
|
|------------------------------------|-------------------------------|
|------------------------------------|-------------------------------|
|--------------------------------2---|------(2)---2-----(2)------2---|
|-(5)-------4----------(4)-------2---|------(2)---2-----(2)------2---|
|--------------------------------0---|-------0----0--------------0---|
|------------------------------------|-2b3==(2)r---------2-----------|
|
|-(3)-------2----------(2)-----------|-------------------------------|
|-(3)-------3----------(3)-----------|-------------------------------|
|-(0)-------2----------(2)-------2---|------(2)---2-----(2)------2---|
|-(0)-------0----------(0)-------2---|------(2)---2-----(2)------2---|
|--------------------------------0---|------------0--------------0---|
|------------------------------------|-2b3===3r----------2-----------|


                                                         ~~~
|------------------------------------|-------------------------------|
|------------------------------------|-------------------------------|
|-5h7-----------------5b5.5----------|-5b7==(5)r---------5-----------|
|---------------5-6-7--------5-6---7-|------------5-6-7------5-7-5---|
|------------------------------------|-----------------------------7-|
|------------------------------------|-------------------------------|
|
|------------------------------------|-------------------------------|
|------------------------------------|-------------------------------|
|---2-----------5-----2----------2---|------(2)---2-----(2)----------|
|---2-----------5-----2----------2---|------(2)---2-----(2)------5---|
|-------------0-3-----0----------0---|------------0------------------|
|---3b4==(3)r------------------------|-2b3==(2)r---------2-----------|
|
|------------------------------------|---------------------------3---|
|------------------------------------|---------------------------3---|
|---2-----------5-----2----------2---|------(2)---2------2-------0---|
|---2-----------5-----2----------2---|------(2)---2------2-------0---|
|-------------0-3-----0----------0---|------------0------------------|
|---3b4==(3)r------------------------|-2b3==(2)r---------2-----------|


                       ~~~
|---------------------------|---------------------------5-------|
|---------------------------|-----------------------------------|
|---------------------------|---------------2---2-4s=6----------|
|---------------------------|-----------2-4---4-----------------|
|--5--3-4-----------------3h|=======4---------------------0---3h|
|---------5-----(5)s3-(3)---|-----------------------------------|
|
|---------------------------|-----------------------------------|
|---------------------------|-----------------------------------|
|-------------------------2-|------(2)------2-------(2)-----2---|
|-(5)-----4-(4)-----------2-|------(2)------2-------(2)-----2---|
|-------------------------0-|-------0-------0---------------0---|
|---------------------------|-2b3==(2)r--------------2----------|
|
|-(3)-----2-(2)-------------|-----------------------------------|
|-(3)-----3-(3)-------------|-----------------------------------|
|-(0)-----2-(2)-----------2-|------(2)------2-------(2)-----2---|
|-(0)-----0-(0)-----------2-|------(2)------2-------(2)-----2---|
|-------------------------0-|---------------0---------------0---|
|---------------------------|-2b3===3r---------------2----------|


|---------------------------5-------|-------------------------------------|
|-----------------------------------|-------------------------------------|
|-----------------2---2-4s6---7-----|---------------2---2-4s=6--0---------|
|-----------2---4---4---------------|-----------2-4---4-------------------|
|-4-------------------------------0-|-2h====4---------------------3h4---0-|
|-----------------------------------|-------------------------------------|
|
|-----------------------------------|-------------------------------------|
|-----------------------------------|-------------------------------------|
|-2---------------5-------2-----2---|------(2)------2-------(2)-----------|
|-2---------------5-------2-----2---|------(2)------2-------(2)-------5---|
|-------------0---3-------0-----0---|---------------0---------------------|
|-3b4==(3)r-------------------------|-2b3==(2)r--------------2------------|
|
|-----------------------------------|---------------------------------3---|
|-----------------------------------|---------------------------------3---|
|-2---------------5-------2-----2---|------(2)------2--------2--------0---|
|-2---------------5-------2-----2---|------(2)------2--------2--------0---|
|-------------0---3-------0-----0---|---------------0---------------------|
|-3b4==(3)r-------------------------|-2b3==(2)r--------------2------------|


|--------------------------5---------|--------------------------------|
|------------------------------------|--------------------------------|
|------------2-----2-4s=6------------|--------------------------------|
|--------2-4---4-------------------4-|--------------------------------|
|-/2s=4----------------------3-4-----|-------0---3-4-0----------------|
|------------------------------------|-----------------3p=2---(2)---5-|
|
|------------------------------------|--------------------------------|
|------------------------------------|--------------------------------|
|--------------------------------2---|------(2)----2-----(2)------2---|
|----(5)---------4-----(4)-------2---|------(2)----2-----(2)------2---|
|--------------------------------0---|-------0-----0--------------0---|
|------------------------------------|-2b3==(2)r----------2-----------|
|
|----(3)---------2-----(2)-----------|--------------------------------|
|----(3)---------3-----(3)-----------|--------------------------------|
|----(0)---------2-----(2)-------2---|------(2)----2-----(2)------2---|
|----(0)---------0-----(0)-------2---|------(2)----2-----(2)------2---|
|--------------------------------0---|-------------0--------------0---|
|------------------------------------|-2b3===3r-----------2-----------|


|-------------------------------5------|-------------8---8---10b12-------|
|-----------------------------5---8s10-|------(10)-------8---------------|
|-------------------2---2-4s6----------|---------------------------------|
|-------------2---4---4----------------|---------------------------------|
|-2s4----------------------------------|---------------------------------|
|--------------------------------------|---------------------------------|
|
|--------------------------------------|---------------------------------|
|--------------------------------------|---------------------------------|
|---2---------------5-------2--------2-|-------(2)---2--(2)--------------|
|---2---------------5-------2--------2-|-------(2)---2--(2)---------5----|
|---------------0---3-------0--------0-|-------------0-------------------|
|---3b4==(3)r--------------------------|-2b3===(2)r------2---------------|
|
|--------------------------------------|----------------------------3----|
|--------------------------------------|----------------------------3----|
|---2---------------5-------2--------2-|-------(2)---2---2----------0----|
|---2---------------5-------2--------2-|-------(2)---2---2----------0----|
|---------------0---3-------0--------0-|-------------0-------------------|
|---3b4==(3)r--------------------------|-2b3===(2)r------2---------------|


                                                      ~~~~~~      ~~~~~
|-10---10b12----10---10b12-10-|-------8---10-10b12-8-(8)b9==(8)r------|
|-----------------------------|----------------------------------10---|
|-----------------------------|---------------------------------------|
|-----------------------------|---------------------------------------|
|-----------------------------|---------------------------------------|
|-----------------------------|---------------------------------------|
|
|-----------------------------|---------------------------------------|
|-----------------------------|---------------------------------------|
|---------------------------2-|------(2)------2------(2)------------2-|
|-(5)---------4-(4)---------2-|------(2)------2------(2)------------2-|
|---------------------------0-|-------0-------0---------------------0-|
|-----------------------------|-2b3==(2)r-------------2---------------|
|
|-(3)---------2-(2)-----------|---------------------------------------|
|-(3)---------3-(3)-----------|---------------------------------------|
|-(0)---------2-(2)---------2-|------(2)------2------(2)------------2-|
|-(0)---------0-(0)---------2-|------(2)------2------(2)------------2-|
|---------------------------0-|---------------0---------------------0-|
|-----------------------------|-2b3===3r--------------2---------------|


 ~~~~~~~~                                            ~~~~~~~~~~
|-------------8b8.5--------------------|--------------------------------------|
|-(10)-------------------10-13-(13)b17-|------(13)--10----(10)-10-13-(13)b17--|
|--------------------------------------|--------------------------------------|
|--------------------------------------|--------------------------------------|
|--------------------------------------|--------------------------------------|
|--------------------------------------|--------------------------------------|
|
|--------------------------------------|--------------------------------------|
|--------------------------------------|--------------------------------------|
|---2---------------5--2---------2-----|-------(2)-----2---(2)----------------|
|---2---------------5--2---------2-----|-------(2)-----2---(2)---------5------|
|-------------0-----3--0---------0-----|---------------0----------------------|
|---3b4==(3)r--------------------------|-2b3===(2)r---------2-----------------|
|
|--------------------------------------|-------------------------------3------|
|--------------------------------------|-------------------------------3------|
|---2---------------5--2---------2-----|-------(2)-----2----2----------0------|
|---2---------------5--2---------2-----|-------(2)-----2----2----------0------|
|-------------0-----3--0---------0-----|---------------0----------------------|
|---3b4==(3)r--------------------------|-2b3===(2)r---------2-----------------|


        ~~~~~~~                                           ~~
|--------------------------15-|-----------------------------------|
|-(13)-10-(10)----------------|-15h===17----15-13----13h=15-13----|
|--------------------14-14----|-------------------14-----------14-|
|-----------------------------|-----------------------------------|
|-----------------------------|-----------------------------------|
|-----------------------------|-----------------------------------|
|
|-----------------------------|-----------------------------------|
|-----------------------------|-----------------------------------|
|---------------------------2-|-------(2)-------2----(2)--------2-|
|--(5)---------4-(4)--------2-|-------(2)-------2----(2)--------2-|
|---------------------------0-|--------0--------0---------------0-|
|-----------------------------|--2b3==(2)r------------2-----------|
|
|--(3)---------2-(2)----------|-----------------------------------|
|--(3)---------3-(3)----------|-----------------------------------|
|--(0)---------2-(2)--------2-|-------(2)-------2----(2)--------2-|
|--(0)---------0-(0)--------2-|-------(2)-------2----(2)--------2-|
|---------------------------0-|-----------------0---------------0-|
|-----------------------------|--2b3===3r-------------2-----------|


                                                    ~~~~~~~~~~
|---------------------------15-------------|-------------------------15--------------|
|-13----15-----(15)-13-(13)-----(15)b17-17-|-13s===15----(15)-13-----------15pb17r===|
|------------------------------------------|-----------------------------------------|
|------------------------------------------|-----------------------------------------|
|------------------------------------------|-----------------------------------------|
|------------------------------------------|-----------------------------------------|
|
|------------------------------------------|-----------------------------------------|
|------------------------------------------|-----------------------------------------|
|--2-------------5-------2---------------2-|-------(2)-----2-----(2)-----------------|
|--2-------------5-------2---------------2-|-------(2)-----2-----(2)-----5-----------|
|------------0---3-------0---------------0-|---------------0-------------------------|
|--3b4==(3)r-------------------------------|--2b3==(2)r-----------2------------------|
|
|------------------------------------------|-----------------------------3-----------|
|------------------------------------------|-----------------------------3-----------|
|--2-------------5-------2---------------2-|-------(2)-----2------2------0-----------|
|--2-------------5-------2---------------2-|-------(2)-----2------2------0-----------|
|------------0---3-------0---------------0-|---------------0-------------------------|
|--3b4==(3)r-------------------------------|--2b3==(2)r-----------2------------------|


|-----------------------15-----------|
|-15p=13-15-13b13.5-----------15pb17r|
|------------------------------------|
|------------------------------------|
|------------------------------------|
|------------------------------------|
|
|------------------------------------|
|------------------------------------|
|---------------------------2--------|
|-(5)--------4------(4)-----2--------|
|---------------------------0--------|
|------------------------------------|
|
|-(3)--------2------(2)--------------|
|-(3)--------3------(3)--------------|
|-(0)--------2------(2)-----2--------|
|-(0)--------0------(0)-----2--------|
|---------------------------0--------|
|------------------------------------|


                                                                  ~~
|-------------------------------15b17---|-15---------12-----------------*|
|------(15)p=13----15-13-----13---------|---------------13----13-15-----*|
|---------------14-------14-------------|------------------14-----------*|
|---------------------------------------|-------------------------------*|
|---------------------------------------|-------------------------------*|
|---------------------------------------|-------------------------------*|
|
|---------------------------------------|-------------------------------*|
|---------------------------------------|-------------------------------*|
|-------(2)---------2----(2)----------2-|--2-------------5--------2---2-*|
|-------(2)---------2----(2)----------2-|--2-------------5--------2---2-*|
|--------0----------0-----------------0-|-------------0--3--------0---0-*|
|-2b3===(2)r--------------2-------------|--3b4==(3)r--------------------*|
|
|---------------------------------------|-------------------------------*|
|---------------------------------------|-------------------------------*|
|-------(2)---------2----(2)----------2-|--2-------------5--------2---2-*|
|-------(2)---------2----(2)----------2-|--2-------------5--------2---2-*|
|-------------------0-----------------0-|-------------0--3--------0---0-*|
|-2b3====3r---------------2-------------|--3b4==(3)r--------------------*|
comments
print report bad tab
2 comments total.
0 reply
JuicyFrets wrote on May 8 2006, 04:19 am

woah! mushave taken u awhile to write that tab

0 reply
HotChowder wrote on June 5 2007, 01:01 am

way too sloppy

I want to post or [tab]
guest
You may want to rate the tab now too:
select rating
Please do not post tabs as comments. Select "correction" instead!