Oops, an error
Loading. Please wait.

Bron Yr Aur Stomp Tab

ver1
ver1

Whole song

More versions @911Tabs.com
138,952 views 319 this week
28 commentsread comments
1 2 3 4 5
excellent!
x 33
add to favorites launch autoscroll
font size
0
reset
Autoscroll
+/-
esc
set tempo
stop
WARNING: You are trying to view
                                    content from Ultimate-Guitar.com
                                    in an unauthorized application,
                                    which is prohibited.

                                    Please use an official Ultimate
                                    Guitar Tabs application for iPhone,
                                    iPad or Android to access legitimate
                                    chords, guitar, bass, and drum tabs
                                    from Ultimate-Guitar.com database.

                                    Type "ultimate guitar tabs" in Apple
                                    App Store's or Android Market's
                                    search to find the application.
			      BRON YR AUR STOMP
				from Led Zeppelin III 	

Alternate tuning - (6)=C (-4 semitones),(5)=F (-4),(4)=C (-2),(3)=F (-2),
		 (2)=A (-2) ,(1)=F (+1) 
		 (6 is the lowest in pitch and 1 is highest)


   P
3--0 = 3 pull of to 0              2/4 slide up from 2 to 4 
			        4\2  slide down from 4 to 2
   H
0--3 = 0 hammer onto 3             [5]  Percussive strum (muting)

(0)   = Ghost Note(tie)             tempo = 110 bpm

F--12--7--------------0-(0)---------|--12--7--------------0-(0)-----------
A--12--7--------3-----------3-------|--12--7--------3-----------3---------
F--12--7--2//4-----4-----------4----|--12--7--2//4-----------4------------
C--12--7----------------------------|--12--7-----------5-----------5------
F--12--7-----------------0----------|--12--7------------------------------
C--12--7----------------------------|--12--7------------------------------
				 
-------0-(0)-----0-(0)----------|---------0-(0)-----0-(0)-----------------
---3---------3---------3--------|-----3---------3---------3---3---0-------
-4--------4---------4------2-0--|-2/4--------4---------4--------2---0-----
-----5---------5---------5------|-------5---------5---------5-------------
--------------------------------|-----------------------------------------
--------------------------------|-----------------------------------------

				        P         P       H
---------0-(0)-----0-(0)--------------|-----------------------------------
-----3---------3---------3---3---0----|---------3-(3)---3-------3---3-3-3-
-2/4--------4---------4--------2---0--|-2/4-0-0----4--0-4-------0-0---0-0-
-------5---------5---------5----------|-----------------5-0-0-2-----------
--------------------------------------|-----------------------------------
--------------------------------------|-----------------------------------

     P         P       P                   P         P         P
-------------------------------------|--------------------------------------
-------3-3-(3)---3-------3-3-(3)-----|---3-----3-(3)---3-3-(3)---3-----3----
-2/4-0-0----4--0-0-0-2-0-0-------0---|-2/4-0-0----4--0------4--0-0---2-0----
------------------------------2--0---|--------------------------------------
-------------------------------------|--------------------------------------
-------------------------------------|--------------------------------------

    H     H                              H     H
-------------------------------------|--------------------------------------
-(3)--3---3-(3)-3---3-3-3---3-(3)-3--|-----3---3---3---3-(3)-3---3----------
------0-0-2--0----0---0---0----------|-----0-0-2-0---0----0----0-----0------
--0-2--------------------------2--0--|-0-2-------------------------2-0------
-------------------------------------|--------------------------------------
-------------------------------------|--------------------------------------

	      Strum Pattern ->            ___          __       __
			          |  |   |   |  |  |  |  |  |  |  |
--------------------------------|--------------------------------------
--3--3--------------------------|----0--(0)--0--0-----------------0----
-(0)------3--3--3--5--5--[5]----|-0--0--(0)--0--0--3--3--3--5--5--0----
-(0)---0--3--3--3--5--5--[5]----|----0--(0)--0--0--3--3--3--5--5-------
----------3--------5--5--[5]----|----0--(0)--0--0--3--3--3--5--5-------
--------------------------------|--------------------------------------

     __ ___ ___ ___                         __ __ __ __       __
 |  |  |   |   |   |   |  |  |  |       |  |  |  |  |  |  |  |  |  |  |
-------------------------------------|--------------------------------------
-0--0--0--(0)--0--[0]----------------|--0--0--0--0--0--0--------------------
-0--0--0--(0)--0--[0]--3--3--5--5----|--0--0--0--0--0--0--3--3--3--5--5-----
-0--0--0--(0)--0--[0]--3--3--5--5----|--0--0--0--0--0--0--3--3--3--5--5-----
-0--0--0--(0)--0--[0]--3--3--5--5----|--0--0--0--0--0--0--3--3--3--5--5-----
-------------------------------------|--------------------------------------

     __ __ __ __ __ __ __ __ __ __ __ __ __
 |  |  |  |  |  |  |  |  |  |  |  |  |  |  |
---------------------------------------------|------------------------------
-0--0--0--0--0--0--0--0--0--0--0--0--0--0--0-|--Repeat last measure---------
-0--0--0--0--0--0--0--0--0--0--0--0--0--0--0-|--Except that first 8th note--
-0--0--0--0--0--0--0--0--0--0--0--0--0--0--0-|--is two 16th notes-----------
-0--0--0--0--0--0--0--0--0--0--0--0--0--0--0-|---(i.e) different strum pat.-
---------------------------------------------|-------------------------------
     __ __ __ __                               __
 |  |  |  |  |  |           P           |  |  |  |  |           P
--------------------------------------|------------------------------------
-0--0--0--0--0--0--0-----0-(0)--------|-0--0--0--0--0--0-----0-(0)---------
-0--0--0--0--0--0--0---0-0-(0)--------|-0--0--0--0--0--0---0-0-(0)---------
-0--0--0--0--0--0--3-0-0-0-(0)-0-0----|-0--0--0--0--0--3-0-0-0-(0)-0-0-----
-0--0--0--0--0--0--------3--0--0-0----|-0--0--0--0--0--------3--0--0-0-----
---------------------------------0-3--|------------------------------0-3---

This next measure is the main riff...played once before the drums ^^^^^^^
 and then 4 times total before the lyrics start.
         __                                  __
  |  |  |  |  |           P           |  |  |  |  |           P
------------------------------------|------------------------------------ 
--0--0--0--0--0--0-----0-(0)--------|-0--0--0--0--0--0-----0-(0)--------- 
--0--0--0--0--0--0---0-0-(0)--------|-0--0--0--0--0--0---0-0-(0)--------- 
--0--0--0--0--0--3-0-0-0-(0)-0-0----|-0--0--0--0--0--3-0-0-0-(0)-0-0-----
--0--0--0--0--0--------3--0--0-0----|-0--0--0--0--0--------3--0--0-0-----
-------------------------------0-3--|------------------------------0-3---

Next is the 6 measure part played behind the lyrics. Rhythm is very 
important here...just get in the groove...
       	 __       __                      __          __
  |  |  |  |  |  |  |  |  |  |     |  |  |  |  |  |  |  |  |  |
--------------------------------|---------------------------------------
--5--5--5--5--5--5--5--5--0--3--|--4--5--5--5--0--5--5--5---------------
--5--5--5--5--5--5--5--5--0--3--|--4--5--5--5--0--5--5--5--0--3---------
--5--5--5--5--5--5--5--5--0--3--|--4--5--5--5--0--5--5--5--0--3---------
--5--5--5--5--5--5--5--5--0--3--|--4--5--5--5--0--5--5--5--0--3---------
--------------------------------|---------------------------------------
 Ah...                  Caught   smil-ing      at me     that's
			 you                                 the

	 __          __                   __          __
  |  |  |  |  |  |  |  |  |  |     |  |  |  |  |  |  |  |  |  |
--------------------------------|--------------------------------------
--4--5--5--5--0--5--5--5--------|--4--5--5--5--0--5--5--5--------------
--4--5--5--5--0--5--5--5--0--3--|--4--5--5--5--0--5--5--5--3--3--------
--4--5--5--5--0--5--5--5--0--3--|--4--5--5--5--0--5--5--5--3--3--------
--4--5--5--5--0--5--5--5--0--3--|--4--5--5--5--0--5--5--5--3--3--------
--------------------------------|--------------------------------------
 way it     should      like a   leaf is to    a tree     so   
	        be
		        
	 __                                  __
  |  |  |  |  |           P           |  |  |  |  |           P
------------------------------------|------------------------------------ 
--0--0--0--0--0--0-----0-(0)--------|-0--0--0--0--0--0-----0-(0)--------- 
--0--0--0--0--0--0---0-0-(0)--------|-0--0--0--0--0--0---0-0-(0)--------- 
--0--0--0--0--0--3-0-0-0-(0)-0-0----|-0--0--0--0--0--3-0-0-0-(0)-0-0-----
--0--0--0--0--0--------3--0--0-0----|-0--0--0--0--0--------3--0--0-0-----
-------------------------------0-3--|------------------------------0-3---
 fine

Repeat above 6 measures a total of twice, behind lyrics...then it changes.
The timing here is great, a measure of 4/4, one 9/8, one 4/4 and one 7/8.
	
      __       __       __              __       __                             
  |  |  |  |  |  |  |  |  |  |      |  |  |  |  |  |  |  |  |  |  |
---------------------------------|--------------------------------------
--2--2--2--2--2--2--2--2--2--2---|--5--5--5--5--5--5--5--5--0--3--5-----
--2--2--2--2--2--2--2--2--2--2---|--5--5--5--5--5--5--5--5--0--3--5-----
--2--2--2--2--2--2--2--2--2--2---|--5--5--5--5--5--5--5--5--0--3--5-----
--2--2--2--2--2--2--2--2--2--2---|--------------------------0--3--5-----
---------------------------------|--------------------------------------
      
      __       __                           __       __
  |  |  |  |  |  |  |  |  |             |  |  |  |  |  |  |  |
-------------------------------------|--------------------------------------
--0--0--0--0-(0)-0--0--3--5----------|--0--0--0--0-(0)-0--0--3--------------
--0--0--0--0-(0)-0--0--3--5----------|--0--0--0--0-(0)-0--0--3--------------
--0--0--0--0-(0)-0--0--3--5----------|--0--0--0--0-(0)-0--0--3--------------
--0--0--0--0-(0)-0--0--3--5----------|--0--0--0--0-(0)-0--0-----------------
-------------------------------------|--------0-----------------------------

The next 4 measures are the same chords and at the end, 2 measures of the 
cascade tacked on...
	 __                                  __
  |  |  |  |  |           P           |  |  |  |  |           P
------------------------------------|------------------------------------ 
--0--0--0--0--0--0-----0-(0)--------|-0--0--0--0--0--0-----0-(0)--------- 
--0--0--0--0--0--0---0-0-(0)--------|-0--0--0--0--0--0---0-0-(0)--------- 
--0--0--0--0--0--3-0-0-0-(0)-0-0----|-0--0--0--0--0--3-0-0-0-(0)-0-0-----
--0--0--0--0--0--------3--0--0-0----|-0--0--0--0--0--------3--0--0-0-----
-------------------------------0-3--|------------------------------0-3---

Then the whole thing basically repeats once again from the beginning, 
but the next time you come to the end, instead of the above cascade, play
this...a little sliding thing that introduces a new riff for the bridge verse.

    __ __ __          __ __ __              __ __ __                __
   |  |  |  |  |  |  |  |  |  |  |  |      |  |  |  |  |  |  |  |  |  |
------0--0--0-----------0--0--0--0-----|------0--0--0--0---------------------
--12/15-15-15--0--0-12/15-15-15-15--0--|--12/15-15-15-15--0--3--5--0--0--0---
--12/16-16-16--0--0-12/16-16-16-16--0--|--12/16-16-16-16--0--3--5--0--0--0---
---------------0--0-----------------0--|------------------0--3--5--0--0--0---
---------------------------------------|------------------0--3--5--0-----0---
---------------------------------------|-------------------------------------
   
This is the same notes, just a different rhythm, played twice over the bridge.

   __ __ __ __ _ _ _ __ __ __ __ __ _ _ _      __ __ __      
  |  |  |  |  | | | |  |  |  |  |  | | | |    |  |  |  |  |  |  |  |  |  |
-----0--0--0--0-----------0--0--0--0-------|-----0--0--0--0-----------------
-12/15-15-15-15-0-0-0-12/15-15-15-15-0-0-0-|-12/15-15-15-15--0--3--5--0--0--
-12/16-16-16-16-0-0-0-12/16-16-16-16-0-0-0-|-12/16-16-16-16--0--3--5--0--0--
--0-----0--0--0-0-0-0--0-----0--0--0-0-0-0-|--0-----0--0--0--0--3--5--0--0--
--0-----0--0--0-0-0-0--0-----0--0--0-0-0-0-|--0-----0--0--0--0--3--5--0--0--
-------------------------------------------|--------------------------------
 My          My       la    de la          Come on    now     ain't
		   					          too far


After the above stuph, there is a part linking back to the intro riff, 
basically play the 4/4, 9/8, 4/4, 7/8 part from above again, twice.  The
second time you play it, Plant says "Come one now, well let me tell you
what you're miss-in', miss-in' round them brick walls." Then, immediately
after that, he plays the intro fingerpicking part with a few changes
(of course...:>).


--------------------0--0----(0)------|--------------------0--0--0-(0)-------
--12--0--7----------------------3----|--12--0--0--7--0----------------3-----
--12--0--7--0--0--2/4--4-------------|--12--0--0--7--0--2/4--4-----4--------
--12--0--0--0--0----------5--------5-|--12--0--0--7--0-------------------5--
--12-------------------------0-------|--12----------------------------------
-------------------------------------|--------------------------------------

							     
---------0---------0------------------|---------0--------0----------------
-----3---------3---------3---3---0----|-----3--------3-------3---0---0----
-2/4--------4---------4--------2---0--|-2/4--------4-------4-------2---0--
-------5---------5---------5----------|-------5--------5-------5----------
--------------------------------------|-----------------------------------
--------------------------------------|-----------------------------------
				        
     P                                      P         P       P
--------------------------------------|-----------------------------------
-------3-3-(3)---3-------3-3-(3)------|---------3-(3)-----3-------3-------
-2/4-0-0----4--0-0-0-2-0-0-------0----|-2/4-0------4--0-0---2-0--------0--
------------------------------2--0----|-------0-----------------0---2--0--
--------------------------------------|-----------------------------------
--------------------------------------|-----------------------------------

This jumps directly to a part where he just wails on the open strings and
then plays four of the 3rd fret cascades...after this part, he goes back to
the main melody part that is already written above, sings one last verse, 
and then the song is over!

--------------
There is  
another version:


|-----------0------------------------0------------------------0-|
|--------0--------------0---------0--------------0---------0----|
|-----0--------------0---------0--------------0---------0-------|
|-----------------0------------------------0--------------------|
|-/3-----------------------/3-----------------------/3----------|
|--------------0------------------------0-----------------------|


|-----------------------0------------------------0--------------|
|----------0---------0--------------0---------0--------------0--|
|-------0---------0--------------0---------0--------------0-----|
|----0------------------------0------------------------0--------|
|-------------/3-----------------------/3-----------------------|
|-0------------------------0------------------------0-----------|

                                     p
|-----------0-----------------------3-0-------------------------|
|--------0--------------0--2-------------2-----0-----------0----|
|-----0--------------0--------0-------------0-----------0-------|
|-----------------0--------------2-------2-----------0----------|
|-/3-----------------------2----------2-----------3-------------|
|--------------0----------------------------------------0-----0-|


|----------------0-----------0----------------------------------|
|-------5--------------------0-----------0-----------2----------|
|----0-----4-----------4-----0--------0-----------------0-------|
|-0-----------0-----------0--------0-----------0-----------2----|
|-------5-----------5-----------3--------------------2----------|
|-------------------------------------0-----0-----0-------------|

   p
|-3-0-----------------------------------------0-----------------|
|------2-----------------0-----------5--------------------0-----|
|---------0-----------0-----------0-----4-----------4-----------|
|---------------0--------------0-----------0-----------0--------|
|---2--------3-----3-----------------5-----------5-----------3--|
|---------------------0-----0-----------------------------------|


|----------------------------------------0----------------------|
|-------0--------------------0--------------0-------0-----------|
|----0--------------0-----------------0----------0-----------0--|
|-0-----------0--------0-----------0----------------------0-----|
|-------------------------0-----0-----------0/3-----------------|
|----0-----0-----0--5-----------------0----------------0--------|

                                                        p
|----------------------0-------------------------------3-0------|
|----------0--------------0-------0-----------2-------------2---|
|-0-----------------0----------0-----------0-----0--------------|
|----0-----------0----------------------0-----------2-------2---|
|-------0-----0-----------0/3-----------------2----------2------|
|-5-----------------0----------------0--------------------------|


|-------------------------------------0-----------0-------------|
|----0-----------0-----------5--------------------0-----------0-|
|-0-----------0-----------0-----4-----------4-----0--------0----|
|----------0-----------0-----------0-----------0--------0-------|
|-------3--------------------5-----------5-----------3----------|
|-------------0-----0--------------------------------------0----|


|---------------------------------------------------------------|
|--------------------0-----------2-----------4-----------0------|
|-------0---------0-----------0-----------4-----------0---------|
|----0---------0-----------2-----------4-----------4------------|
|----------/3-----------2-----------0-----------0-----------/3--|
|-0-------------------------------------------------------------|


|---------------------------------------------------------------|
|-------0-----------2-----------4-----------0------------0------|
|----0-----------0-----------4-----------0------------0---------|
|-0-----------2-----------4-----------4------------0------------|
|----------2-----------0-----------0-----------/3-----------2---|
|---------------------------------------------------------------|


|--------------------h-p----------h-p---------------------------|
|-------2/4---------4-5-4--------4-5-4--------4-----------5-----|
|----0-----------4------------4------------4-----------4--------|
|-2-----------4------------4------------4-----------4-----------|
|----------0------------0------------0-----------0--------------|
|---------------------------------------------------------------|


|---------------------------------------------------------------|
|----------4-----------4/5--------5--7--------0-------------0---|
|-------4-----------4----------5-----------7-------------0------|
|----4-----------4----------5-----------7-------------0---------|
|-0-----------0----------------------------------0/3------------|
|------------------------5---------5/7-----7--------------------|


|---------------------------------------------------------------|
|----------0-------------5--7--------0-------------0------------|
|-------0-------------5-----------7-------------0-----------0---|
|----0-------------5-----------7-------------0-----------0------|
|---------------------------------------0/3---------------------|
|-0-----------2/5---------5/7-----7-------------------0---------|


|---------------------------------------------------------------|
|-0-----------5--7--------0-------------0-----------0-----------|
|----------5-----------7-------------0-----------0-----------5--|
|-------5-----------7-------------0-----------0-----------5-----|
|----------------------------0/3--------------------------------|
|----5---------5/7-----7-------------------0-----------5--------|

                                                  p
|------------------------------------------------3-0------------|
|-5--7--------0-------------0-----------2-------------2-----0---|
|----------7-------------0-----------0-----0-------------0------|
|-------7-------------0-----------0-----------2-------2---------|
|----------------0/3--------------------2----------2------------|
|--5/7-----7-------------------0--------------------------------|


|-------------------------------0-----------0-------------------|
|----------0-----------5--------------------0-----------0-------|
|-------0-----------0-----4-----------4-----0--------0----------|
|----0-----------0-----------0-----------0--------0-----------0-|
|-3--------------------5-----------5-----------3----------------|
|-------0-----0--------------------------------------0-----0----|

               p
|-------------3-0------------------------------------------0----|
|----2-------------2------------------0-----------5-------------|
|-0-----0-------------0------------0-----------0-----4----------|
|----------2-----------------0--------------0-----------0-------|
|----2----------2---------3-----3-----------------5-----------5-|
|----------------------------------0-----0----------------------|


|-------0--------------------------------------------0----------|
|-------0-----------0--------------------0--------------0-------|
|-4-----0--------0--------------0-----------------0----------0--|
|----0--------0-----------0--------0-----------0----------------|
|----------3--------------------------0-----0-----------0/3-----|
|----------------0-----0-----0--5-----------------0-------------|


|----------------------------------0----------------------------|
|-0--------------------0--------------0-------0-----------2-----|
|----------0--0-----------------0----------0-----------0-----0--|
|-------0--------0-----------0----------------------0-----------|
|-------------------0-----0-----------0/3-----------------2-----|
|----0--------5-----------------0----------------0--------------|

      p
|----3-0-----------------------------------------0-----------0--|
|---------2-----0-----------0-----------5--------------------0--|
|------------0-----------0-----------0-----4-----------4-----0--|
|-2-------2-----------0-----------0-----------0-----------0-----|
|------2-----------3--------------------5-----------5-----------|
|------------------------0-----0--------------------------------|


|--------------------------------------------------------h-p----|
|----------0--------------------0-----------2/4---------4-5-4---|
|-------0-----------0--------0-----------0-----------4----------|
|----0-----------0--------0-----------2-----------4-------------|
|-3--------------------3-----------2-----------0----------------|
|-------0-----0-------------------------------------------------|


|------------------------------------------------h-p------------|
|----------0------------0-----------2/4---------4-5-4--------0--|
|-------4------------0-----------0-----------4------------4-----|
|----4------------0-----------2-----------4------------4--------|
|-0-----------/3-----------2-----------0------------0-----------|
|---------------------------------------------------------------|


|------------------------------------h-p------------------------|
|-----------0-----------2/4---------4-5-4-----4-----------5-----|
|--------0-----------0-----------4---------------------4--------|
|-----0-----------2-----------4------------4--------4-----------|
|-/3-----------2-----------0------------0--------0-----------0--|
|---------------------------------------------------------------|


|---------------------------------------------------------------|
|-------4-----------5-----------4/5--------5----------0---------|
|----4-----------4-----------4----------5----------7------------|
|-4-----------4-----------4----------5----------7-----------0---|
|----------0-----------0-------------------------------0/3------|
|---------------------------------5---------5/7-----------------|


|---------------------------------------------------------------|
|----0-----------0-------------5-/7-----0-----------0-----------|
|-0-----------0-------------5--------7-----------0-----------0--|
|----------0-------------5--------------------0-----------0-----|
|----------------------------------------0/3--------------------|
|-------0-----------2/5---------5/7--------------------0--------|


|---------------------------------------------------------------|
|-0-------------5-/7-----0-----------0-----------0--------------|
|------------5--------7-----------0-----------0-------------5---|
|---------5--------------------0-----------0-------------5------|
|-------------------------0/3-----------------------------------|
|----2/5---------5/7--------------------0-----------2/5---------|



|---------------------------------------------------------------|
|-5-/7--7--------------4-----------5-----------4-----------5----|
|----------7--------4-----------4-----------4-----------4-------|
|----------------4-----------4-----------4-----------4----------|
|-------------0-----------0-----------0-----------0-----------0-|
|--5/7----------------------------------------------------------|


|---------------------------------------------------------------|
|-------4-----------5-----------4-----------4-----------0-------|
|----4-----------4-----------4-----------4-----------0--------5-|
|-4-----------4-----------4-----------4-----------5--------7----|
|----------0-----------0-----------0-----------7----------------|
|---------------------------------------------------------------|

        slower..
|----0-----------0-----------0-----------0-----------0----------|
|-0-----------5-----------5-----------5-----------5-----------5-|
|----------7-----------7-----------7-----------7-----------7----|
|-------0-----------0-----------0-----------7-----------0-------|
|---------------------------------------------------------------|
|---------------------------------------------------------------|

                 C - let ring
|-0-----------0--X-----------|
|----------5-----0-----------|
|-------7--------0-----------|
|----7-----------0-----------|
|----------------3-----------|
|----------------0-----------|




From: m1dupuye@lei336.lei.u-psud.fr (Eric.Dupuy)

*****************************   BRON-YR-AUR   **********************************
JIMMY PAGE 

 ->    ...  pick-slide
 //    ...  hammer-on
 \\    ...  pull-off

(e)-->e
(b)-->up to c
(g)-->g
(D)-->down to C
(A)-->A
(E)-->down to C

-------------------------------------------------------------0----------
-------------0-----------------------0----------------------------------
-------0-----------0-----------0-----------0-----------0-----------0----
----------0-----------0-----------0-----------0-----------0-----------0-
-0->3--------------------0->3--------------------0->3-------------------
----------------0-----------------------0-----------------------0-------

-------------0-----------------------0-----------------------0----------
------------------------------------------------------------------------
-------0-----------0-----------0-----------0-----------0-----------0----
----------0-----------0-----------0-----------0-----------0-----------0-
-0->3--------------------0->3--------------------0->3-------------------
----------------0-----------------------0-----------------------0-------

-------------0-----------
-------------------------
-------0-----------0-----
----------0-----------0--
-0->3--------------------
----------------0--------

begin 1:
----------3\\0----------------------------------
-2--------------2-----0--------------0----------
----0--------------------------0-----------0----
-------2-----------2--------------0-----------0-
-2-----------2-----------0->3-------------------
----------------------------------------0-------

-1--------0-----------------------------------------------3\\0----------
----------------------0--------------0-----------2--------------2-----0-
----0-----------0--------------0-----------0--------0-------------------
-------2-----------2--------------0-----------0--------2-----------2----
-2-----------2-----------0->3--------------------2-----------2----------
----------------------------------------0-------------------------------

-------------------------1--------0-------------------------------------
-------------0--------------------------------0--------------0----------
-------0-----------0--------0-----------0--------------0-----------0----
----------0-----------0--------2-----------2--------------0-----------0-
-0->3--------------------2-----------2-----------0->3-------------------
----------------0-----------------------------------------------0-------

-------------------------0-------------------------
----------0-----------------------------0----------
-------0-----------0--------------0-----------0----
----0-----------------0--------------0-----------0-
----------------------------0->3-------------------
-5-----------5->9--------------------------0-------

-------------------------0-------------------------
----------0-----------------------------0----------
-------0-----------0--------------0-----------0----
----0-----------------0--------------0-----------0-
----------------------------0->3-------------------
-5-----------5->9--------------------------0-------

----------3\\0-----------------------------------1--------0-------------
-2--------------2-----0--------------0--------------------------------0-
----0--------------------------0-----------0--------0-----------0-------
-------2-----------2--------------0-----------0--------2-----------2----
-2-----------2-----------0->3--------------------2-----------2----------
----------------------------------------0-------------------------------

--------------------------------------------------------
-------------0---------------------------0-----------2--
-------0-----------0------------------0-----------0-----
----------0-----------0------------0-----------2--------
-0->3------------------------0->3-----------2-----------
----------------0---------------------------------------

--------------------------------------------------------
----------3>4//5--4--------0--------------0-----------2-
-------3->4----------4-----------------0-----------0----
----3->4----------------4-----------0-----------2-------
-0----------------0-----------0->3-----------2----------
--------------------------------------------------------

--------------------------------------------------------
----------3>4-----------0--------------0-----------2----
-------3->4----------4--------------0-----------0-------
----3->4----------4--------------0-----------2----------
-0-------------0-----------0->3-----------2-------------
--------------------------------------------------------

---------------------------------------------------------------------
----------3>4//5--4--------4//5--4--------4-----------5----------4---
-------3->4----------4--------------4-----------4-----------4--------
----3->4----------------4--------------4-----------4-----------4-----
-0----------------0--------------0-----------0-----------0-----------
---------------------------------------------------------------------

-------------------------- ----------------------------]
-4->5--------5--5->7------ --0--------------0----------]
-------5--------------7--- -----------0-----------0----]repeat four times
----------5--------------7 --------------0-----------0-]
-4->5-----------5->7------ -----0->3-------------------]
----------------5->7------ --------------------0-------]
end :1 

[repeat 1 but stop at the space (not at ])

-------------------------------------------------------------
----------4-----------5-----------4-----------5-----------4--
-------4-----------4-----------4-----------4-----------4-----
----4-----------4-----------4-----------4-----------4--------
-0-----------0-----------0-----------0-----------0-----------
-------------------------------------------------------------

-------------------------0-----------0-----------0-----------0-----------0-
----------0-----------0-----------5-----------5-----------5-----------5----
-------4-----------5-----------7-----------7-----------7-----------7-------
----4-----------7-----------0-----------7-----------0-----------7----------
-2-------------------------------------------------------------------------
-------------0-------------------------------------------------------------

----------0-----------0------0-
-------5-----------5--------0--
----7-----------7----------0---
-0-----------7------------0----
-------------------------3-----
------------------------0------
28 comments total. Showing first comments.
0 reply
danno89 wrote on January 30 2006, 02:45 pm

This is a fantastic tab
i dont know why i has no comments and is only rated at a four star, i gave it ***** and think its great

0 reply
SlipAway wrote on July 11 2006, 05:40 pm

Still working on learning this one, but sounds good so far

0 reply
FlyingZeppelin4 wrote on August 2 2006, 02:45 pm

Amazing tab

I want to post or [tab]
guest
You may want to rate the tab now too:
select rating
Please do not post tabs as comments. Select "correction" instead!