Oops, an error
Loading. Please wait.

Coda Bass Tab

7,831 views 6 this week
1 commentread comment
1 2 3 4 5
not so good
x 2
Autoscroll
+/-
esc
set tempo
stop
Contributor
Hey! There's an official Ultimate Guitar app which is ideal
for learning songs when you're away from computer. Get the app
WARNING: You are trying to view
                                    content from Ultimate-Guitar.com
                                    in an unauthorized application,
                                    which is prohibited.

                                    Please use an official Ultimate
                                    Guitar Tabs application for iPhone,
                                    iPad or Android to access legitimate
                                    chords, guitar, bass, and drum tabs
                                    from Ultimate-Guitar.com database.

                                    Type "ultimate guitar tabs" in Apple
                                    App Store's or Android Market's
                                    search to find the application.
1. We're Gonna Groove

4/4 time                          7/8 time     4/4 time
G|----------------|----------------|------------|---------12-----|
D|----------------|----------------|------------|--2----2---2--01|
A|----------------|----------------|------------|----22-------2--|
E|----------------|----------------|------------|0---------------|

G|----00-0--------|-------0-2-0--1-|----------------|-------2-0------|
D|2-22----------79|----------------|2-220---------02|2-22-------2-001|
A|---------8-9-9--|--442-----------|-------0-1-020--|----2-----------|
E|----------------|0---------------|----------------|----------------|

G|----------1087--|----------------|----------------|-------2-0------|
D|2--4--5-------8-|--------75------|2--0---------001|2-22-------2-001|
A|----------------|7----------77556|----------3-3---|----2-----------|
E|----------------|---77-----------|------5---------|----------------|

G|----------1087--|----------------|--------2-------|----------------|
D|2--4--5-------8-|--------75------|2--0------2-0-2-|------------0012|
A|----------------|7----------77556|------0---------|0-----0---3-----|
E|----------------|---77-----------|----------------|---3------------|
                                     And we're gonna groove...

G|----------------|----------------|----------------|-------2-0------|
D|------------0012|------------0012|------------0012|2-22-------2-001|
A|0-----0---3-----|0-----0---3-----|0-----0---3-----|----2-----------|
E|---3------------|---3------------|---3------------|----------------|

G|----0--2-3------|----2--0--------|-222-2----------|-------2-0------|
D|2-22--2-------02|2-22-----2-00000|2--------0----01|2-22-------2-001|
A|------------2---|----------------|-------3---3-4--|----2-----------|
E|----------------|----------------|----------------|----------------|

G|----------------|-------2-0------|----------------|-------2-0------|
D|2--4--5---------|2-22-------2-001|2--0--------0011|2-22-------2-001|
A|----------------|----2-----------|------0---3-----|----2-----------|
E|----------------|----------------|----------------|----------------|

G|----------1087--|-------2-0------|----------------|----------------|
D|2--4--5-------8-|2-22-------2-001|2-20-0----------|------------0012|
A|----------------|----2-----------|------0-------0-|0-----0---3-----|
E|----------------|----------------|----------0-3---|---3------------|

G|----------------|----------------|----------------|-------2-0------|
D|----------------|----------------|----------------|2-22-------2-001|
A|0-----0---3-0012|0-----0---3-0012|0-----0--3--0012|----2-----------|
E|---3------------|---3------------|---3------------|----------------|

G|----0-12-3-4----|-------2-0------|----------------|-------2-0------|
D|2-22----------01|2-22-------2-001|2-2---------0-01|2-22-------2-001|
A|----------------|----2-----------|---20--1-2-2----|----2-----------|
E|----------------|----------------|----------------|----------------|

G|----------1087--|-------2-0------|------2---------|-------2-0------|
D|2--4--5-------8-|2-22-------2-001|2--0----------01|2-22-------2----|
A|----------------|----2-----------|-----------33---|----2-----------|
E|----------------|----------------|----------------|----------------|

G|------0---------|-------2-0------|----------------|----------------|
D|2--4------------|2-22-------2-001|2--0------------|2----------0--01|
A|----------------|----2-----------|------0-------0-|--220--0-3------|
E|----------------|----------------|-----------33---|------4---------|

G|----------------|----0--2-3-4--0-|-------0---47---|----0--2-0-04---|
D|2-22----------01|2-----2------2-2|2-22-----2----01|2-22--2-------01|
A|----0--0-1-2-3--|--22------------|----2-----------|----------------|
E|----------------|----------------|----------------|----------------|

G|-------2-0------|-------2-0------|-------2-0------|----0--2-3-34---|
D|2-22-------2-001|2-22-------2-001|2-22-------2-001|2-22--2---------|
A|----2-----------|----2-----------|----2-----------|--------------2-|
E|----------------|----------------|----------------|----------------|

G|----------------|----------------|-------2-0------|-------0--------|
D|----22-2-22-2222|222222-2-22-0-0-|2-22-------2-001|2--4------------|
A|--2-------------|-------------2-2|----2-----------|----------------|
E|----------------|----------------|----------------|----------------|

G|-------2-0------|----------------|-------2-0------|------0---1087--|
D|2-22-------2-001|2--0--------0011|2-22-------2-001|2--4----------8-|
A|----2-----------|------0---3-----|----2-----------|----------------|
E|----------------|----------------|----------------|----------------|

G|-------2-0------|----------------|----------------|----------------|
D|2-22-------2-001|2-20-0----------|------------0012|------------0012|
A|----2-----------|------0-------0-|0-----0---3-----|0-----0---3-----|
E|----------------|----------0-3---|---3------------|---3------------|
                    And we're gonna groove

G|----------------|----------------|-------2-0------|----0--2-3--4---|
D|------------0012|------------0012|2-22-------2-001|2-22--2-------01|
A|0-----0---3-----|0-----0---3-----|----2-----------|----------------|
E|---3------------|---3------------|----------------|----------------|

G|----2--0--------|-222-2----------|----------------|----------------|
D|2-22-----2-00000|2--------0----01|------------0012|------------0012|
A|----------------|-------3---3-4--|0-----0---3-----|0-----0---3-----|
E|----------------|----------------|---3------------|---3------------|
                    And we're gonna groove

G|----------------|----------------|----------------|----------------|
D|------------0012|------------0012|2---0-----------|----------------|
A|0-----0---3-----|0-----0---3-----|--------00------|----------------|
E|---3------------|---3------------|----------------|----------------|
****************************************************************************

2.Poor Tom

G|----------------|----------------|----------------|----------------|
D|20------19------|18--------------|20------19------|18--------------|
A|----------------|----201816------|----------------|----201816----15|
E|----------------|----------------|----------------|----------------|

G|----------------|----------------|----------------|----------------|
D|----------------|----------------|18--17-18-------|18--17-18-------|
A|13------------15-16--------------|----------16----|----------16----|
E|----------------|----------------|----------------|----------------|

G|----------------|----------------|----------------|----------------|
D|18--17-18-------|18--17-18-------|1817----1817----|1817----1817----|
A|----------16----|----------16----|----16------16--|----16------16--|
E|----------------|----------------|----------------|----------------|

G|----------------|----------------|----------------|----------------|
D|20------19------|18--------------|20------19------|18--------------|
A|----------------|----201816------|----------------|----201816----15|
E|----------------|----------------|----------------|----------------|

G|----------------|----------------|----------------|----------------|
D|----------------|----------------|----------------|18--17-18-------|
A|13------------15|16--------------|----------16----|----------16----|
E|----------------|----------------|16--15-16-------|----------------|

G|----------------|----------------|----------------|----------------|
D|----------------|18--17-18-------|1718----1817----|1817----1817----|
A|----------16----|----------16----|----16------16--|----16------16--|
E|16--15-16-------|----------------|----------------|----------------|

G|----------------|----------------|----------------|----------------|
D|----------------|18--17-18-------|20------19------|18--------------|
A|----------16----|----------16----|----------------|----201816----15|
E|16--15-16-------|----------------|----------------|----------------|

G|----------------|----------------|-161816---------|----------------|
D|----------------|----------------|--------18161820|18--------------|
A|13------------15|16--------------|----------------|---16--16--16---|
E|----------------|----------------|----------------|----------------|

G|-1618-14-16-----|----------------|----------------|----------------|
D|------------1820|18--------------|----------------|----------------|
A|----------------|---16--16--16---|16--------------|16--------------|
E|----------------|----------------|----------------|----------------|

G|----------------|----------------|----------------|----------------|
D|20------19------|18--------------|20------19------|18--------------|
A|----------------|----201816------|----------------|----201816------|
E|----------------|----------------|----------------|----------------|

G|--------------------------------|--------------------------------|
D|-------------------18------18---|18----17----16------17--18--17--|
A|16161616--16---16------16-------|--------------------------------|
E|--------------------------------|--------------------------------|

G|--------------------------------|--------------------------------|
D|18181816------------------------|-------------------18-------18--|
A|--------------------18--17--16--|16161616--16---16------16-------|
E|--------------------------------|--------------------------------|

G|--------------------------------|--------------------------------|
D|-------------------18------18---|-------------------18------18---|
A|16161616--16---16------16-------|16161616--16---16------16-------|
E|--------------------------------|--------------------------------|

G|--------------------------------|--------------------------------|
D|--------------------------------|--------------------------------|
A|16161616--16---16---------------|16161616--16---16--16-----------|
E|--------------------------------|--------------------------------|
****************************************************************************

3. I Can't Quit You Baby

1st Verse
------------------------------------------------
---------4---7---4--5--6--7---------------------
-----5-------------------------4--7-------7-----
------------------------------------------------

------------------------------------------------
----------------------------4---7----------4---7
--------4---7-------6--5---------------5--------
--5--------------5------------------------------

------------------------------------------------
--5--6--7---------------------------------5---7-
------------------4---7-----5--4----------------
-------------5-----------------------5----------

------------------------------------------------
-----------------6--9---------------4--7-----4--
--4--5--6--7-------------7--6--5----------------
------------------------------------------------

------------------------------------------------
------------------------------------------------
--7---------------------------------------4--7--
-------5----5---6---------5----6-----5----------

-------------------------4/5--------------------
--7--------------4--7-----------7---------------
------7--6--5-------------------------4---7-----
------------------------------------------------

--------------------------------5--7------------
------7---5-------------4--7--------------------
---------------7---5----------------------------
--5---------------------------------------------

------------------------------------------------
--4---5---6---7-5------------------5--6---------
------------------7-------4--7------------------
---------------------5--------------------------

------------------------------------------------
-7---------5--5----------------6--9-------------
------5/7--------4--5--6--7-----------7--6--5---
------------------------------------------------

------------------------------------------------
-4--7----5-4-5--7-------------------------------
------------------------------------------------
---------------------5---6-------5----6---------

Guitar solo
----------------------9-------------------------
--------5---5-------------------------4----4--7-
---------------7---7------3--4--5--5------------
-5---5------------------------------------------

------------------------------------------------
--7--7----5--6----7--7--5----5--4--4------------
--------------------------------------8--7------
--------------------------------------------6---

                                 =======2x======
------------------------------------------------
-----------------7--7-------------------4--4--7-
--------4--5--7--------4--5--7---5---5----------
--5--6------------------------------------------

===========
----5--6--7-------------------------------------
-7-------------7---7--5---5----------------4----
-----------------------------7----7--4--7-------
------------------------------------------------

---------------------------------------------7/9
------------------------------------------------
---------7/9--7--9--7----7--4--5--6--7----7-----
--5---5-----------------------------------------

-7--------------------------6/7--6/7--6/7--5--5-
-----9----11-----5------------------------------
--------------7--------5--5---------------------
------------------------------------------------

------------------------------------------------
-5--6--7----------------------------------------
------------------------------------------------
------------5--6---------5--6-----------5-------

------------------------------------------------
------------------------------------------------
5-----------------------------2-2-2--3-3-4---5--
-----------5--------5---5-5-5-------------------

--------------6h7---7-7---------------------4/5-
-----4--5--7-------------4--5--7----------------
--5---------------------------------5----5------
------------------------------------------------

-5---------------------------9------------------
----7---7--5--6--7--------------7--7------------
--------------------------------------5--6--7---
---------------------5---5----------------------

------------------------------------------------
---------4--5--6--7--------------------------6-7
-------------------------2--3--4--5----7--7-----
--5---5---------------5-------------------------

-------7-8-9------------------------------------
-8--9--------9----------------------------------
----------------5--7--6---5--5------------------
-------------------------------2--2-5---5-6-6---

------------------------------------------------
------------------------------------------------
----------------------------5/7-----------------
--5---5----6--------5---6-----------------------

3rd Verse
------------------------------------------------
--------------------------4--7-----4--5--6--7---
-------4--7----6----5---------------------------
-5----------------------------------------------

------------------------------------------------
--------------5------------------5--5h7---7/10\-
---4--7---------4--7--------5h7-----------------
-------------------------5----------------------

-------------5----------------------------------
----------4-----5--5h7---5--4-------4--7---4-6-7
--5----x----------------------5-----------------
------------------------------------------------

------------------------------------------------
-----5------------------------------------5-----
---------7--7--5--------------3/4-----7------5-6
-5-----------------0----5--5--------------------

------------------------------------------------
------6----9------------------------------------
-7--------------7----6-----5--------3-----------
------------------------------2--5-----5--0-----

------------------------------------------------
------------------------------------------------
------------------------------------------------
---5---6-----------5----6-----------5---6-------
****************************************************************************

4. Ozone Baby

G|----------------|----------------|----------------|----------------|
D|----------------|----------0-2-0-|--0-0-0-0-0-0-0-|0---0-----------|
A|----------------|--0-2-3---------|----------------|----------------|
E|----------0-2-3-|----------------|----------------|----------0-2-3-|

G|----------------|----------------|----------------|----------------|
D|----------0-2-0-|--0-0---0---0---|0-0-------------|----------0-2-0-|
A|--0-2-3---------|----------------|----------------|--0-2-3---------|
E|----------------|----------------|----------0-2-3-|----------------|

G|--5-7---5-7-5-7-|7-----7---7-7---|----------------|5---5-4-2-------|
D|----------------|----------------|----0---0-0-0---|----------------|
A|------5---------|----------------|2-3-------------|--5-------------|
E|----------------|----------------|----------------|----------0-2-3-|

G|----------------|--5-7---5-7-5-7-|7-----7---7-7---|----------------|
D|----------0-2-0-|----------------|----------------|----------5-3---|
A|--0-2-3---------|------5---------|----------------|2-3-5---5-----5-|
E|----------------|----------------|----------------|----------------|

G|--7-5-4-2-------|----------------|----------------|----------------|
D|------------0---|2---------------|----------------|2---------------|
A|5---------------|----------0-2-34|5-555-----555---|----------0-2-34|
E|----------------|--0-0-2-3-------|------555-----5-|--3-0-2-3-------|

G|----------------|----------------|----------------|----------------|
D|----------------|2---------------|0-0-0-----0-0---|2---------------|
A|5-555-----555---|----------0-2-34|------0-0-----0-|--2---------2-3-|
E|------555-----5-|--3-0-2-3-------|----------------|----0-2-3-0-----|

G|----------------|----------------|----------------|--5-7---5-7-5-7-|
D|0-0-0-0-0-0-0-0-|----0-----------|----------0-2-0-|----------------|
A|----------------|0-3-------------|--0-2-3---------|------5---------|
E|----------------|----------0-2-3-|----------------|----------------|

G|7-----7---7-7---|----------------|5---5-4---------|----------------|
D|----------------|----0---0-0-0---|--------5-------|----------0-2-0-|
A|----------------|2-3-------------|--5-------------|--0-2-3---------|
E|----------------|----------------|----------0-2-3-|----------------|

G|--5-7---5-7-5-7-|7-----7---7-7---|----------------|--7-5-4---------|
D|----------------|----------------|----0-----5-3---|--------7-------|
A|------5---------|----------------|2-3-----5-----5-|5-----------5---|
E|----------------|----------------|----------------|----------------|

G|----------------|----------------|----------------|----------------|
D|2---------------|0-000-----000---|2---------------|0-000-----000---|
A|----------0-2-34|------000-----0-|----------0-2-34|------000-----0-|
E|--0-0-2-3-------|----------------|--3-0-2-3-------|----------------|

G|----------------|----------------|----------------|----------------|
D|2---------------|0-0-0-----0-0---|2---------------|0-0-0-0-0-0-0-0-|
A|----------0-2-34|------0-0-----0-|--2---------2-3-|----------------|
E|--3-0-2-3-------|----------------|----0-2-3-0-----|----------------|

G|----------------|----------------|----------------|------0-----0---|
D|----0-----------|----------------|--------------0-|--2-3---------3-|
A|0-4-------------|----------------|------------0---|----------------|
E|----------------|----------------|------0-2-3-----|----------------|

G|----------------|------0---000---|----------------|------0---0-2-2-|
D|----2-3-------0-|--2-3-----------|3---2---------0-|--2-3-----------|
A|------------0---|----------------|------------0---|----------------|
E|--------0-2-----|----------------|--------0-2-----|----------------|

G|4-7---9---------|------0---0-0---|----------------|------0---0-0---|
D|--------------0-|--2-3---------3-|----2-3-------0-|--2-3---------3-|
A|------------0---|----------------|------------0---|----------------|
E|--------0-2-----|----------------|--------0-2-----|----------------|

  2/4 time 4/4 time
G|--------|----------------|--7-9---9-------|----9-----------|
D|--------|----------0-----|----------------|----------------|
A|--------|--0-2-3-----3-0-|------------0---|0---0-------2-0-|
E|--0-2-3-|----------------|----------------|----------3-----|

G|--7-9---9-------|----------------|----9-9-9-------|----------------|
D|----------------|----------------|----------------|----------------|
A|------------0---|0-0-0-0-0---2-0-|----0-0-0---0---|0-0-0-0-0---2-0-|
E|----------------|----------3-----|--3-------------|----------3-----|

G|----9---9---9---|----------------|------------9---|9---------------|
D|----------------|----------------|----------------|----------------|
A|----0---0---0---|0-0-0-0-0---2-0-|----0---0---0---|0---0-------2-0-|
E|--3-------------|----------3-----|--3-------------|----------3-----|

G|----9---9---9---|----------------|----9---9---9---|----------------|
D|----------------|----------------|----------------|----------------|
A|----0---0---0---|0-0-0-0-0---2-0-|----0---0---0---|0-----0-----2-0-|
E|--3-------------|----------3-----|--3-------------|--3-3-----3-----|

G|----9---9---9---|----------------|----------------|----------------|
D|----------------|----------------|2---------------|0-0-0-----0-0---|
A|----0---0---0---|0---0-0---0-0-0-|----------0-2-34|------0-0-----0-|
E|--3-------------|--3-------------|--3-0-2-3-------|----------------|

G|----------------|----3---7---5---|----------------|----------------|
D|2---------------|0-0---0---0---0-|2---------------|0-000-----000---|
A|----------0-2-34|----------------|----------0-2-34|------000-----0-|
E|--3-0-2-3-------|----------------|--0-0-2-3-------|----------------|

G|----------------|----------------|----------------|----------------|
D|2---------------|0-0-0-0-0-0-0-0-|----0-----------|----------0-----|
A|----------0-2-34|----------------|0-4-------------|--0-2-3-----3-0-|
E|--0-0-2-3-------|----------------|----------0-2-3-|----------------|

G|--7-9---9-------|----9-----------|--7-9---9-------|--7-9---9-------|
D|----------------|----------------|----------------|----------------|
A|------------0---|0---0-------2-0-|------------0---|0-----------0---|
E|----------------|----------3-----|----------------|----------------|

G|----------------|--7-9---9-------|----9-----------|--7-9---9-------|
D|----------0-----|----------------|----------------|----------------|
A|--0-2-3-----3-0-|------------0---|0---0-------2-0-|------------0---|
E|3---------------|----------------|----------3-----|----------------|

G|----------------|--7-9---9-------|----9-----------|--7-9---9-------|
D|----------0-----|----------------|----------------|----------------|
A|--0-2-3-----3-0-|------------0---|0---0-------2-0-|------------0---|
E|3---------------|----------------|----------3-----|----------------|

G|----------------|--7-9---9-------|----9-----------|----9-9-9-9-9-9-|
D|----------0-----|----------------|----------------|----------------|
A|--0-2-3-----3-0-|------------0---|0---0-------2-0-|--0-0-0-0-0-0-0-|
E|3---------------|----------------|----------3-----|----------------|

G|----------------|----------------|----------------|----------------|
D|2---------------|0-0-0-----000---|2---------------|0-0-0-----000---|
A|----------0-2-34|------0-0-----0-|----------0-2-34|------000-----0-|
E|--3-0-2-3-------|----------------|--3-0-2-3-------|----------------|

G|----------------|----------------|----------------|----------------|
D|2---------------|0-0-0-----0-0---|2---------------|0-0-0-0-0-0-0-0-|
A|----------0-2-34|------0-0-----0-|------------2-3-|----------------|
E|--3-0-2-3-------|----------------|--3-0-2-3-0-----|----------------|

G|----------------|----------------|----------------|----------------|
D|0---0-----------|----0-----------|----0-----------|----0-----------|
A|--4-------------|0-4-------------|0-4-------------|0-4-------------|
E|----------------|----------------|----------------|----------------|

G|----------------|----------------|----------------|----------------|
D|2---------------|0-0-0-----000---|2---------------|0-0-0-----000---|
A|----------0-2-34|------0-0-----0-|----------0-2-34|------000-----0-|
E|--3-0-2-3-------|----------------|--3-0-2-3-------|----------------|

G|----------------|----------------|----------------|----------------|
D|2---------------|0-0-0-----0-0---|2---------------|----0-----------|
A|----------0-2-34|------0-0-----0-|------------2-3-|0-4-------------|
E|--3-0-2-3-------|----------------|--3-0-2-3-0-----|----------0-2-3-|

G|----------------|----------------|
D|----------0-2---|----------------|
A|--0-2-3---------|0---------------|
E|----------------|----------------|
****************************************************************************

5.Walter's Walk

G|----------------|----------------|----------------|----------------|
D|----------------|----------------|----------------|----------------|
A|----------------|----------------|----------------|--------------7-|
E|----------------|----------------|----------------|----------------|

G|----------------|----------------|----------------|----------------|
D|----------------|----------------|----------------|----------------|
A|--7---7-7-7-----|------------7---|------------7---|--7-7-7-7-7-7-7-|
E|--------------0-|--------0-0---0-|--------0-0---0-|----------------|

G|----------------|----------------|----------------|----------------|
D|----------------|----------0-----|----------0-----|----------0-----|
A|--7---7-7-7-----|----0-1-2-------|----0-1-2-------|----0-1-2-----0-|
E|--------------3-|--------------3-|--3-----------3-|--3-------------|

G|----------------|----------------|----------------|----------------|
D|----------------|----------0-----|----------0-----|----------0-----|
A|--0-------------|----0-1-2-------|----0-1-2-------|----0-1-2-----0-|
E|------0-3-0---3-|--3-----------3-|--------------3-|----------------|

G|----------------|----------------|----------------|----------------|
D|----------------|----------0-----|----------0-----|----------0-----|
A|--0-------------|----0-1-2-------|----0-1-2-------|----0-1-2-----0-|
E|------0-3-0---3-|--3-----------3-|--------------3-|----------------|

G|----------------|----------------|----------------|----------------|
D|----------------|----------0-----|----------0-----|----------0-----|
A|--0-------------|----0-1-2-------|----0-1-2-------|----0-1-2-----0-|
E|------0-3-0---3-|--3-----------3-|--------------3-|----------------|

G|----------------||
D|----------------||
A|--0-----------3-||
E|------0-3-0-0---||

G|----------------|----------------|----------------|----------------|
D|--2-4---------2-|4-5-------2-4-5-|------2-4-2-----|------2-4-------|
A|4-----0---3-4---|------3-4-------|--3-4-------3-4-|0-3-4-----0---3-|
E|----------------|----------------|----------------|----------------|

                                    2/4 time
G|----------------|----------------|--------||
D|--2-4-5-------2-|4-5-------2-4-2-|--------||
A|4---------3-4---|------3-4-------|3-4-5---||
E|----------------|----------------|------3-||

  4/4 time
G|----------------|----------------|----------------|----------------|
D|----------0-----|----------0-----|----------0-----|----------------|Repeat
A|----0-1-2-------|----0-1-2-------|----0-1-2-----0-|--0-------------| twice
E|--3-----------3-|--3-----------3-|--3-------------|------0-3-0-2-3-|

G|----------------|----------------|----------------|----------------||
D|----------0-----|----------0-----|----------0-----|----------------||
A|----0-1-2-------|----0-1-2-------|----0-1-2-----0-|--0-------------||
E|--3-----------3-|--3-----------3-|--3-------------|------0-0-0-3-0-||

G|----------------|----------------|----------------|----------------|
D|----------------|----------------|----------------|----------------|
A|----------------|----------------|7-7-7-7-7-7-7-7-|--7---7-7-7-7-7-|
E|0---------------|(0)-------------|----------------|----------------|

G|----------------|----------------|----------------|----------------||
D|----------------|----------------|----------------|----------------||
A|7-7-7-7-7-7-7-7-|7-7-7-7-7-7-7---|7-7-7-7-7-7-7-7-|--7---7-7-7-----||
E|----------------|--------------0-|----------------|--------------3-||

G|----------------|----------------|----------------|----------------|
D|----------0-----|----------0-----|----------0-----|----------------|Repeat
A|----0-1-2-------|----0-1-2-------|----0-1-2-----0-|--0-------------| twice
E|--3-----------3-|--3-----------3-|--3-------------|------0-3-0-2-3-|

G|----------------|----------------|----------------|----------------||
D|----------0-----|----------0-----|----------0-----|----------------||
A|----0-1-2-------|----0-1-2-------|----0-1-2-----0-|--0-------------||
E|--3-----------3-|--3-----------3-|--3-------------|------0-0-0-3-0-||

G|----------------|----------------|----------------|----------------|
D|--2-4---------2-|4-5-------2-4-5-|------2-4-2-----|------2-4-------|
A|4-----0---3-4---|------3-4-------|--3-4-------3-4-|0-3-4-----0---3-|
E|----------------|----------------|----------------|----------------|

                                    2/4 time
G|----------------|----------------|--------||
D|--2-4-5-------2-|4-5-------2-4-2-|--------||
A|4---------3-4---|------3-4-------|3-4-5---||
E|----------------|----------------|------3-||

  4/4 time
G|----------------|----------------|----------------|----------------|
D|----------0-----|----------0-----|----------0-----|----------------|Repeat
A|----0-1-2-------|----0-1-2-------|----0-1-2-----0-|--0-------------| twice
E|--3-----------3-|--3-----------3-|--3-------------|------0-3-0-2-3-|

G|----------------|----------------|----------------|----------------||
D|----------0-----|----------0-----|----------0-----|----------------||
A|----0-1-2-------|----0-1-2-------|----0-1-2-----0-|--0---0---------||
E|--3-----------3-|--3-----------3-|--3-------------|--------0-003-0-||

G|----------------|----------------|----------------|----------------|
D|----------------|----------------|----------------|----------------|
A|7-7-7-7-7-7-7-7-|7-7-7-7-7-7-7---|7-7-7-7-7-7-7-7-|--7---7-5-7-----|
E|----------------|--------------0-|----------------|--------------0-|

G|----------------|----------------|----------------|----------------|
D|----------------|----------------|----------------|----------------|
A|--7-7-7-7-7-7-7-|7-7-7-7---7-7-7-|7-7-7-7-7-7-7-7-|--7---7-7-7---7-|
E|----------------|--------0-------|----------------|----------------|

G|----------------|----------------|----------------|----------------|
D|----------------|----------------|----------------|----------------|
A|--7-7-7-7-7-7-7-|7-7-7-7-7-7-7-7-|7-7-7-7-7-7-7-7-|7-7-7-7-7-7-7-7-|
E|----------------|----------------|----------------|----------------|

G|----------------|----------------|----------------|----------------|
D|----------------|----------------|----------------|----------------|
A|--7-7-7-7-7-7-7-|7-7-7-7-7-7-7-7-|7-7-7-7-7-7-7-7-|--7---7-7-7-----|
E|----------------|----------------|----------------|--------------3-|

  Guitar Solo
G|----------------|----------------|----------------|----------------|
D|----------0-----|----------0-----|----------0-----|----------------|Repeat
A|----0-1-2-------|----0-1-2-------|----0-1-2-----0-|--0-------------| twice
E|--3-----------3-|--3-----------3-|--3-------------|------0-3-0-2-3-|

G|----------------|----------------|----------------|----------------||
D|----------0-----|----------0-----|----------0-----|----------------||
A|----0-1-2-------|----0-1-2-------|----0-1-2-----0-|--0-----------3-||
E|--3-----------3-|--3-----------3-|--3-------------|------0-3-0-0---||

G|----------------|----------------|----------------|----------------|
D|--2-4---------2-|4-5-------2-4-5-|------2-4-2-----|------2-4-------|
A|4-----0---3-4---|------3-4-------|--3-4-------3-4-|0-3-4-----0---3-|
E|----------------|----------------|----------------|----------------|

                                    2/4 time
G|----------------|----------------|--------||
D|--2-4-5-------2-|4-5-------2-4-2-|--------||
A|4---------3-4---|------3-4-------|3-4-5---||
E|----------------|----------------|------3-||

  4/4 time
G|----------------|----------------|----------------|----------------|
D|----------0-----|----------0-----|----------0-----|----------------|Repeat
A|----0-1-2-------|----0-1-2-------|----0-1-2-----0-|--0-------------| twice
E|--3-----------3-|--3-----------3-|--3-------------|------0-3-0-2-3-|

G|----------------|----------------|----------------|----------------||
D|----------0-----|----------0-----|----------0-----|----------------||
A|----0-1-2-------|----0-1-2-------|----0-1-2-----0-|--0-------------||
E|--3-----------3-|--3-----------3-|--3-------------|------0-3-0-----||

G|----------------|----------------|----------------|----------------|
D|----------------|----------------|----------------|----------------|
A|----------------|----------------|--------------7-|--7---7-7-7-----|
E|----------------|----------------|----------------|----------------|

G|----------------|----------------|----------------|----------------|
D|----------------|----------------|----------------|----------------|
A|----------------|----------------|--------------7-|--7---7-7-7-7-7-|
E|----------------|----------------|----------------|----------------|

G|----------------|----------------|----------------|----------------|
D|----------------|----------------|----------------|----------------|
A|5-7-------------|5-7-------------|5-7-7---5-7-7-7-|--7---7-7-7-7-7-|
E|----0-0-0-0-0-0-|----0-0-0-0-0-0-|----------------|----------------|

G|----------------|----------------|----------------|----------------|
D|----------------|----------------|----------------|----------------|
A|----7-7-7-7-7-7-|----7-7-7-7-7-7-|----7-7-7-7-7-7-|7-7-7-7-7-7-7-7-|
E|0-0-------------|0-0-------------|0-0-------------|----------------|

G|----------------|----------------|----------------|----------------|
D|----------------|----------------|----------------|----------------|
A|7-7-7-7-7-7-7---|----7-7-7-7-7---|7-7-7-7-7-7-7---|----7-7-7-7-5-7-|
E|--------------0-|--0-----------0-|--------------0-|--0-------------|

G|----------------|----------------|----------------|----------------|
D|----------------|----------------|----------------|----------------|
A|7-7-7-7-5-7---7-|--7-7-7-7-7-7-7-|7-7-7-7-------7-|7-7-7---5-7-7---|
E|----------------|----------------|--------0-0-0---|--------------0-|

G|----------------|----------------|----------------|----------------|
D|----------------|----------------|----------------|----------------|
A|7---7---7-7-7---|--------7-7-7-7-|7-7-7-7-7-7-7-7-|--7-7-7-7-7-7-7-|
E|--------------0-|--0---0---------|----------------|----------------|

G|----------------|----------------|----------------|----------------|
D|----------------|----------------|----------------|----------------|
A|7-7-7-7-7-7-7---|----7-7-7-7-7-7-|7-7-7-7-7-7-7-7-|7-7-------------|
E|--------------0-|--0-------------|----------------|----5-5-3-5-3---|

G|----------------|----------------|----------------|----------------|
D|----------------|----------------|----------------|----------------|
A|----7-7-7-7-7---|----7-7-7-7-7-7-|7-7-7-7-7-7-7---|----7-7-7-7-4-4-|
E|0-0-----------0-|--0-------------|--------------0-|--0-------------|

G|----------------|----------------|----------------|----------------|
D|----------------|----------------|----------------|----------------|
A|------------7-7-|7-7-7-7-7-7-7-7-|7-7-----7-----4-|4-2-2-4-4-4-2-2-|
E|0-0-0-0-0-0-----|----------------|----0-----0-----|----------------|

G|----------------|----------------|----------------|----------------|
D|----------------|----------------|----------------|----------------|
A|----7-7-7-7-7-7-|7-7-7-7-7-7-7-7-|7-7-7-7-7-7-7-7-|7-7-7-7-7-7-7-7-|
E|0-0-------------|----------------|----------------|----------------|

G|----------------|----------------|----------------|----------------|
D|----------------|----------------|----------------|----------------|
A|7-7-7-7-7-7-7-7-|7-7-7-7-7-7-7-7-|7-7-7-7-7-7-7-7-|7-7-7-7-7-7-7-7-|
E|----------------|----------------|----------------|----------------|

G|----------------|
D|----------------|
A|7-7-7-7-7-7-7-7-|
E|----------------|
****************************************************************************

6. Darlene

G|----------------|----------------|----------------|----------------|
D|----------------|----------------|----------------|----------------|
A|--------------1-|(1)-0-1-010---3-|(3)-2-3-2320--5-|(5)-------------|
E|----------------|------------3---|------------3---|----------------|

G|----------------||----------------|----------------|
D|----------------||5-----3-----2---|----2-3-5-3-2---|Repeat
A|(5)-------------||----------------|--5-----------5-| twice
E|----------------||----------------|----------------|

G|----------------|----------------|
D|5---------------|----------------|
A|----------------|----------------|
E|----------------|----------------|

G|----------------|----------------|
D|5-----3-----2---|----2-3-5-3-2---|Repeat
A|----------------|--5-----------5-| twice
E|----------------|----------------|

G|----------------|----------------|
D|5---------------|----------------|
A|----------------|----------------|
E|----------------|----------------|

G|----------------|----------------|
D|5-----3-----2---|----2-3-5-3-2---|Repeat
A|----------------|--5-----------5-| twice
E|----------------|----------------|

G|----------------|----------------|
D|5---------------|----------------|
A|----------------|----------1-2-3-|
E|----------------|----------------|

G|----------------|----------------|----------------|----------------|
D|----------------|----------------|----------------|----------------|
A|----1-2-3-------|--1-2-3---1-2-3-|----1-2-3-------|--1-2-3---1-2-3-|
E|----------------|----------------|----------------|----------------|

G|----------------|----------------|----------------|----------------||
D|----------------|----------------|----------------|----------------||
A|----1-2-3-------|--1-2-3---3-4-5-|----------------|----------------||
E|----------------|----------------|----------------|----------------||

G|----------------|----------------|
D|5-----3-----2---|----2-3-5-3-2---|Repeat
A|----------------|--5-----------5-| twice
E|----------------|----------------|

G|----------------|----------------|
D|5---------------|----------------|
A|----------------|----------1-2-3-|
E|----------------|----------------|

G|----------------|----------------|----------------|----------------|
D|----------------|----------------|----------------|----------------|
A|----1-2-3-------|--1-2-3---1-2-3-|----1-2-3-------|--1-2-3---1-2-3-|
E|----------------|----------------|----------------|----------------|

G|----------------|----------------|----------------|----------------||
D|----------------|----------------|----------------|----------------||
A|----1-2-3-------|--1-2-3---3-4-5-|----------------|----------------||
E|----------------|----------------|----------------|----------------||

G|----------------|----------------|
D|5-----3-----2---|----2-3-5-3-2---|Repeat
A|----------------|--5-----------5-| twice
E|----------------|----------------|

G|----------------|----------------|
D|5---------------|----------------|
A|----------------|----------------|
E|----------------|----------------|

G|----------------|----------------|
D|5-----3-----2---|----2-3-5-3-2---|Repeat
A|----------------|--5-----------5-| twice
E|----------------|----------------|

G|----------------|----------------|
D|5---------------|----------------|
A|----------------|----------1-2-3-|
E|----------------|----------------|

G|----------------|----------------|----------------|----------------|
D|----------------|----------------|----------------|----------------|
A|----1-2-3-------|--1-2-3---1-2-3-|----1-2-3-------|--1-2-3---1-2-3-|
E|----------------|----------------|----------------|----------------|

G|----------------|----------------|----------------|----------------||
D|----------------|----------------|----------------|----------------||
A|----1-2-3-------|--1-2-3---3-4-5-|----------------|----------1-2-3-||
E|----------------|----------------|----------------|----------------||

G|----------------|----------------|----------------|----------------|
D|----------------|----------------|----------------|----------------|
A|----1-2-3-------|--1-2-3---1-2-3-|----1-2-3-------|--1-2-3---1-2-3-|
E|----------------|----------------|----------------|----------------|

G|----------------|----------------|----------------|----------------||
D|----------------|----------------|----------------|----------------||
A|----1-2-3-------|--1-2-3---3-4-5-|----------------|--------------1-||
E|----------------|----------------|----------------|----------------||

G|----------------|----------------|----------------|----------------|
D|----------------|----------------|----------------|----------------|
A|(1)-0-1-010---3-|(3)-2-3-2320--5-|(5)-------------|(5)-----------1-|
E|------------3---|------------3---|----------------|----------------|

G|----------------|----------------|----------------|----------------||
D|----------------|----------------|----------------|----------------||
A|(1)-0-1-010---3-|(3)-2-3-2320--5-|(5)-------------|(5)-------------||
E|------------3---|------------3---|----------------|----------------||

  12/8 time
G|------------------------|------------------3---4-|5-----------------------|
D|----------2-----3-3-----|(3)---4-----5-----------|----------2-----3-3-----|
A|3-----------------------|------------------------|----3-------------------|
E|------------------------|------------------------|------------------------|

G|------------------------|------------------------|------------------------|
D|(3)---4-----5-----------|----------2-----3-3-----|(3)---4---4-5-----------|
A|----------------------1-|3-----------------------|------------------1---2-|
E|------------------3-----|------------------------|----------------3-------|

G|------------------------|------------------------|------------------------|
D|------------------------|------------------------|------------------------|
A|3-----------------------|------------------------|3-----------------------|
E|------------------------|------------------------|----------0------1------|

G|------------------------|------------------------|------------------3---4-|
D|------------------------|------------------3-----|(3)---4-----5---5-------|
A|------------------1---2-|3-----------------------|------------------------|
E|(1)---2-----3---3-------|----------0-------------|------------------------|

G|5-----------------------|------------------------|------------------------|
D|----------2-------3-----|(3)-0-4-----5-----------|------------------------|
A|------3-----------------|----------------------2-|3-----------------------|
E|------------------------|----------------3-3-----|------------------------|

G|------------------------|------------------------|------------------------|
D|------------------------|------------------------|------------------------|
A|------------------------|3-----------------------|------------------1---2-|
E|------------------------|----------0-------1-----|(1)---2-----3---3-------|

G|------------------------|------------------3---4-|5-----------------------|
D|------------------3-----|(3)---4-----5---5-------|------------------3-----|
A|3-----------------------|------------------------|----------3-------------|
E|----------0-------------|------------------------|------------------------|

G|------------------------|------------------------|------------------------|
D|(3)---4-----5---5-------|------------------------|------------------------|
A|------------------1---2-|3-----------------------|------------------------|
E|------------------------|------------------------|------------------8-----|

G|------------------------|------------------------|------------------------|
D|------------------0-----|1-----0-----------------|------------------0-----|
A|------0-----3-----------|------------3-----0---0-|------0-----3-----------|
E|1-----------------------|------------------------|1-----------------------|

G|------------------------|------------------2-----|3-----2-----------------|
D|1-----0-----------------|------2-----5-----------|------------5-----2---0-|
A|------------3-----0---0-|3-----------------------|------------------------|
E|------------------------|------------------------|------------------------|

G|------------------2-----|3-----2-----------------|------------------------|
D|------2-----5-----------|------------5-----0---2-|3---3-1-----0-----------|
A|3-----------------------|------------------------|------------------3-----|
E|------------------------|------------------------|------------------------|

G|------------------------|------------------------|------------------2-----|
D|------------------0-----|3---3-------------0-----|------------------0-----|
A|------0-----3-----------|------0-----3-----------|------0-----3-----------|
E|1-----------------------|------------------------|1-----------------------|

G|------------------------|------------------------|------------------------|
D|------3-----4-----5-----|7-----5-----4-----------|5-----------------------|
A|5-----------------------|------------------5-----|------------------------|
E|------------------------|------------------------|------------------------|

G|------------------------|------------------------|------------------------|
D|------------------------|------------------0-----|1-----0-----------------|
A|------------------------|------0-----3-----------|------------3---3-0-----|
E|------------------------|1-----------------------|------------------------|

G|------------------------|------------------------|------------------2-----|
D|------------------0-----|1-----0-----------------|------2-----5-----------|
A|------0-----3-----------|------------3-----0---0-|3-----------------------|
E|1-----------------------|------------------------|------------------------|

G|3---3-2-----------------|------------------------|5---5-3-----2-----------|
D|------------5-----2-----|------------------------|------------------5-----|
A|------------------------|3-----1-----0-----------|------------------------|
E|------------------------|------------------3-----|------------------------|

G|------------------------|------------------------|------------------------|
D|3-----------------0-----|1-----0-----------------|------------------0-----|
A|------0-----3-----------|------------3-----0-----|------0-----3-----------|
E|------------------------|------------------------|1-----------------------|

G|------------------------|------------------------|------4-----5-----7-----|
D|1-----0-----------------|------3-----4-----5-----|7-----------------------|
A|------------3-----0-----|5-----------------------|------------------------|
E|------------------------|------------------------|------------------------|

G|------------------------|------------------------|------------------------|
D|5-----------------------|------------------------|------------------0-----|
A|------------------------|----------------------0-|------0-----3-----------|
E|------------------------|------------------------|1-----------------------|

G|------------------------|------------------------|------------------------|
D|1-----0-----------------|------------------0-----|3-----3-----4-----5-----|
A|------------3-----------|------0-----3-----------|----3-----------------0-|
E|------------------4---3-|1-----------------------|------------------------|

G|------------------2-----|3-----2-----------------|------------------------|
D|------2-----5---5-------|------------5-----2-----|------0-----2-----3-----|
A|3-----------------------|------------------------|3---3-------------------|
E|------------------------|------------------------|------------------------|

G|------------------------|------------------------|------------------------|
D|5-----------------------|------------------0-----|1-----0-----------------|
A|------3-------3-1-------|------0-----3-----------|------------3---3-0---0-|
E|------------------2-----|1-----------------------|------------------------|

G|------------------------|------------------------|------------------4-----|
D|------------------0-----|1-----0-----------------|------4-----7-----------|
A|------0-----3-----------|------------3---3-0-----|5-----------------------|
E|1---1-------------------|------------------------|------------------------|

G|7-----5-----4-----------|------------------------|------------------------|
D|------------------7-----|5-----------------------|----3-1-----0-----------|
A|------------------------|------------------------|------------------3-----|
E|------------------------|------------------------|1-----------------------|

G|------------------------|------------------------|------------------------|
D|------------------0-----|------------------0-----|1-----0-----------------|
A|------0-----3-----------|------0-----3-----------|------------3-----0---0-|
E|1-----------------------|1-----------------------|------------------------|

G|------------------------|------------------------|------------------------|
D|------------------------|------------------------|------2-----3-----4-----|
A|3-----------------0-----|3-----0-----------0-----|3---3-------------------|
E|------0-----3-----------|------------3-----------|------------------------|

G|------3-----5-5-5-------|------------------------|------------------------|
D|5-----------------------|3---3-1-----0-----------|------------------0-----|
A|------------------3-3-3-|------------------3-----|------0-----3-----------|
E|------------------------|------------------------|1-----------------------|

G|------------------------|------------------------|------4-----5-5---7-----|
D|1-----0-----------------|------4-----5-----6-----|7-----------------------|
A|------------3-----0-5---|5-----------------------|------------------------|
E|------------------------|------------------------|------------------------|

G|------------------------|------------------------|------------------------|
D|5-----------------------|------------------------|------------------0-----|
A|------------------------|------------------------|------0-----3-----------|
E|------------------------|------------------------|1-----------------------|

G|------------------------|------------------------|------------------------|
D|1-----0-----------------|------------------0-----|1-----0-----------------|
A|------------3---3-0-----|------0---0-3-----------|------------3-----0-1-2-|
E|----------------------1-|1---1-------------------|------------------------|

G|------------------2-----|3-----2-----------------|------------------------|
D|------2-----5-----------|------------5-----2-----|------------------------|
A|3---3-------------------|------------------------|3-----1-----0-----------|
E|------------------------|------------------------|------------------3-----|

G|------------------------|------------------------|------------------------|
D|------------------------|------------------0-----|1-----0-----------------|
A|3---3-0-----------------|------0-----3-----------|------------3-----0-----|
E|------------3-----2-----|1---1-------------------|----------------------1-|

G|------------------------|------------------------|------------------------|
D|------------------0-----|1---1-0-----------------|------------4-----7-----|
A|------0-----3-----------|------------3-----3-----|5-----7-----------------|
E|1-----------------------|------------------------|------------------------|

G|7-----5-----4-----------|------------------------|------------------------|
D|------------------7-----|5-----------------------|------------------------|
A|------------------------|------------------------|------------------------|
E|------------------------|------------------------|------------------------|
****************************************************************************

7. Bonzo's Montreux 
(No Bass)
****************************************************************************

8. Wearing and Tearing

Main Riff 1 x4
G------------------|
D----------------7-|
A-----4-4--7-7-7---|
E-5-5--------------|

Main Riff 2 x2
G--------------------------------|
D--------------------------------|
A--------------------------------|
E-2-------0-3-5------8-7-5-8-7-5-|

Chorus x4
G------------------------------------------------|
D-----------------------77-5-6-77--------5-6-777-|
A-99-7-8-999-99-7-8-999-----------5-6-77---------|
E------------------------------------------------|

Verse
G---------------------------------------------|
D*-------------------------------------------*|
A*-5^^^^^^^^-55^^^^^^^^-----------5----------*|
E-----------------------5^^^^^^^^--5^^^^^^^^--|

G-----------------------------------------|
D-----------------------------------------|
A-5^^^^^^^^-55^^^^^^^^-----------5----5-5-|
E----------------------5^^^^^^^^--5----5--|

Ending
G--------------------------------------|
D*------------------------------------*|
A*------------------------------------*|
E--2-0-2-3--2-0-2-3--2-0-2-3--2-0-3-2--|


comments
We did not receive enough feedback on this tab! Please rate:
print report bad tab
1 2 3 4 5
1 comment total.
-1 reply
Maitinin wrote on December 3 2008, 11:51 am

Okay dude, I'll make the same comment here as I did for your newly posted Houses of the Holy tab.

I want to post or [tab]
guest
You may want to rate the tab now too:
select rating
Please do not post tabs as comments. Select "correction" instead!