Oops, an error
Loading. Please wait.

Coda Tab

5,049 views 27 this week
no commentswrite comment
1 2 3 4 5
accurate
x 3
Autoscroll
+/-
esc
set tempo
stop
Contributor
Hey! There's an official Ultimate Guitar app which is ideal
for learning songs when you're away from computer. Get the app
WARNING: You are trying to view
                                    content from Ultimate-Guitar.com
                                    in an unauthorized application,
                                    which is prohibited.

                                    Please use an official Ultimate
                                    Guitar Tabs application for iPhone,
                                    iPad or Android to access legitimate
                                    chords, guitar, bass, and drum tabs
                                    from Ultimate-Guitar.com database.

                                    Type "ultimate guitar tabs" in Apple
                                    App Store's or Android Market's
                                    search to find the application.
Coda Extended Version (1982 Album) - Led Zeppelin

Track Listing:

1. We're Gonna Groove
2. Poor Tom
3. I Can't Quit You Baby
4. Walter's Walk
5. Ozone Baby
6. Darlene
7. Bonzo's Montreux
8. Wearing And Tearing
9. Baby Come On Home
10. Travelling Riverside Blues
11. White Summer/Black Mountainside (live)
12. Hey Hey What Can I Do


We're Gonna Groove:


Standard Tuning
                                    7/8 time         4/4 time
E|----------------|---------------3|3333-3-33-------|----33-3-3-33---|
B|----------------|---------------3|3333-3-33-------|----33-3-3-33---|
G|----------------|---------------1|1111-1-11-------|----11-1-1-11---|
D|----------------|---------------2|2222-2-22-------|----22-2-2-22---|
A|----------------|----------------|----------------|----------------|
E|----------------|----------------|----------------|0---------------|

E|-3333333-3-3----|----33-3-3-33---|-3333333-3-33---|--3333-33--3----|
B|-3333333-3-3----|--3333-3-3-33---|-3333333-3-33---|--3333-33--3----|
G|-1111111-1-1----|--1111-1-1-11---|-1111111-1-11---|--1111-11--1----|
D|-2222222-2-2----|--2222-2-2-22---|-2222222-2-22--2|--2222-22--2---2|
A|----------------|----------------|----------------|----------------|
E|----------------|----------------|----------------|----------------|

E|7--8--10--------|--3333-33--3----|3--1------------|--3333-33--3----|
B|5--6--8--------5|--3333-33--3----|5--3--1---------|--3333-33--3----|
G|----------------|--1111-11--1----|4--4--2---------|--1111-11--1----|
D|----------------|--2222-22--2----|2-----2--------2|--2222-22--2---2|
A|----------------|----------------|----------------|----------------|
E|----------------|----------------|----------------|----------------|

E|7--8--10--------|--3333-33--3----|3--1------------|----------------|
B|5--6--8--------5|--3333-33--3----|5--3--1---------|1--0--1---------|
G|----------------|--1111-11--1----|4--4--2---------|2--0--2---------|
D|----------------|--2222-22--2----|2-----2---------|2-----2---------|
A|----------------|----------------|----------------|----------------|
E|----------------|----------------|----------------|----------------|

E|----------------|----------------|----------------|
B|1--0--1---------|1--0--1---------|1--0--1---------|
G|2--0--2---------|2--0--2---------|2--0--2---------|
D|2-----2---------|2-----2---------|2-----2---------|
A|----------------|----------------|----------------|
E|----------------|----------------|----------------| 2X

E|--3-33-333-3----|--3-33-333-3----|----33-3-3-3----|--3333-3-3-3----|
B|--3-33-333-3----|--3-33-333-3----|----33-3-3-3----|--3333-3-3-3----|
G|--1-11-111-1----|--1-11-111-1----|----11-1-1-1----|--1111-1-1-1----|
D|--2-22-222-2----|--2-22-222-2----|----22-2-2-2---2|--2222-2-2-2----|
A|----------------|----------------|----------------|----------------|
E|----------------|----------------|----------------|----------------|

E|--3-33-3333-3---|7--8--10--------|--3333-33--3----|3--1------------|
B|--3-33-3333-3---|5--6--8---------|--3333-33--3----|5--3--1---------|
G|--1-11-1111-1---|----------------|--1111-11--1----|4--4--2---------|
D|--2-22-2222-2--2|---------------2|--2222-22--2----|2-----2--------2|
A|----------------|----------------|----------------|----------------|
E|----------------|----------------|----------------|----------------|

E|--3333--33-3----|7--8--10--------|--3333-33--3----|3--1------------|
B|--3333--33-3----|5--6--8---------|--3333-33--3----|5--3--1---------|
G|--1111--11-1----|----------------|--1111-11--1----|4--4--2---------|
D|--2222--22-2---2|----------------|--2222-22--2----|2-----2---------|
A|----------------|----------------|----------------|----------------|
E|----------------|----------------|----------------|----------------|

E|--3-33-333-3----|--3-33-333-3----|--3-33-333-3----|--3-33-333-3----|
B|--3-33-333-3----|--3-33-333-3----|--3-33-333-3----|--3-33-333-3----|
G|--1-11-111-1----|--1-11-111-1----|--1-11-111-1----|--1-11-111-1----|
D|--2-22-222-2---2|--2-22-222-2---2|--2-22-222-2----|--2-22-222-2----|
A|----------------|----------------|----------------|----------------|
E|----------------|----------------|----------------|----------------| 2X

E|--3-33-333-3----|--3-33-333-3----|--3-33-333-3----|--3-33-333-3----|
B|--3-33-333-3----|--3-33-333-3----|--3-33-333-3----|--3-33-333-3----|
G|--1-11-111-1----|--1-11-111-1----|--1-11-111-1----|--1-11-111-1----|
D|--2-22-222-2---2|--2-22-222-2----|--2-22-222-2----|--2-22-222-2----|
A|----------------|----------------|----------------|----------------|
E|----------------|----------------|----------------|----------------|

E|7--8--10--------|--3333-33--3----|3--1------------|--3333--33-3----|
B|5--6--8---------|--3333-33--3----|5--3--1---------|--3333--33-3----|
G|----------------|--1111-11--1----|4--4--2---------|--1111--11-1----|
D|---------------2|--2222-22--2----|2-----2--------2|--2222--22-2---2|
A|----------------|----------------|----------------|----------------|
E|----------------|----------------|----------------|----------------|

E|7--8--10--------|--3-33-333-3----|3--1------------|----------------|
B|5--6--8---------|--3-33-333-3----|5--3--1---------|1--0--1---------|
G|----------------|--1-11-111-1----|4--4--2---------|2--0--2---------|
D|---------------2|--2-22-222-2---2|2-----2---------|2-----2---------|
A|----------------|----------------|----------------|----------------|
E|----------------|----------------|----------------|----------------|

E|----------------|----------------|----------------|33--33--3--3-3--|
B|1--0--1---------|1--0--1---------|1--0--1---------|33--33--3--3-3--|
G|2--0--2---------|2--0--2---------|2--0--2---------|11--11--1--1-1--|
D|2-----2---------|2-----2---------|2-----2---------|22--22--2--2-2--|
A|----------------|----------------|----------------|----------------|
E|----------------|----------------|----------------|----------------|

E|----33--3-33-333|--3333--3--3----|-33333-3-3-333--|----------------|
B|----33--3-33-333|--3333--3--3----|-33333-3-3-333--|1--0--1---------|
G|----11--1-11-111|--1111--1--1----|-11111-1-1-111--|2--0--2---------|
D|2---22--2-22-222|--2222--2--2----|-22222-2-2-222-2|2-----2---------|
A|----------------|----------------|----------------|----------------|
E|----------------|----------------|----------------|----------------|

E|----------------|----------------|----------------|4---1-----------|
B|1--0--1---------|1--0--1---------|1--0--1---------|5---3-----------|
G|2--0--2---------|2--0--2---------|2--0--2---------|4---2---6-------|
D|2-----2---------|2-----2---------|2-----2---------|2-------7-------|
A|----------------|----------------|----------------|--------4-------|
E|----------------|----------------|----------------|----------------|



Poor Tom:


CACGCE (low to high) Tuning

E|------0---------|------0---------|----------0-----|----------------|
C|----0-----------|----0-----------|----0-----------|0---------0-----|
G|2---------2-----|1---------1-----|--------------0-|------------2---|
C|0-----------0---|0-----------0---|0---------------|0---------------|
A|----------------|----------------|----------------|------------0---|
C|----------------|----------------|--------0-------|----0-----------|
  Ain't no thing.....

E|------3-0-------|------3-0-------|----------------|----------------|
C|----------2-----|----------0-----|0---0-----0-----|0-------0-0-----|
G|2---------------|1---------------|--------0-----0-|----------------|
C|0---------------|0---------------|0---------------|----0-------0---|
A|------------0---|----------------|----------------|----------------|
C|----------------|------------0---|----------------|----------------|

E|----5-5---5-----|5-----5-5-5-5-5-|----------------|----------------||
C|----3-4---3-----|3-----4-3-4-3-4-|----4-----------|----------------||
G|----5-5---5-----|5-----5-5-5-5-5-|----5-----0-----|5-----0---5-----||
C|----------------|----------------|0---------------|0---------------||
A|0---------------|----------------|----------------|----------------||
C|----------------|----------------|----0-----------|----------------||

E| 3-0-------0-----|3---------------|3---------0-----|----------------|
C| ------3---------|--------0-------|--0---3---------|0-------0-0-----|
G|o----------------|----0-------0---|----------------|----0-------0---|
C|o----------------|----------------|----------------|----------------|
A| ----------------|----------------|----------------|----------------|
C| ----------------|0---------------|----------------|0---------------|

E|3-0-------0-----|3---------------|3-0-------0-----|--------0-0-----|
C|------3---------|--------0-------|------3---------|0-------0-0-----|
G|----------------|----0-------0---|----------------|----0-----------|
C|----------------|----------------|0---------------|------------0---|
A|----------------|----------------|----------------|----------------|
C|----------------|0---------------|----------------|0---------------|
                                                     Poor Tom

E|----------------|----0-----0-----|----------------|3---------------|
C|------3---0-----|------3---------|------3---0-----|--0---3---0-----|
G|------------0---|----------------|----------------|----------------|
C|----------------|------------0---|------------0---|------------0---|
A|----------------|----------------|----------------|----------------|
C|0---------------|0---------------|0---------------|0---------------|

E|3---------------|3-0-------------|3---------------|3-----3-0-------|
C|--------0-------|------3---0-----|----------0-----|----------------|
G|----0-------0---|----------------|----0-------0---|----------2-----|
C|----------------|------------0---|----------------|----------------|
A|----------------|----------------|----------------|0---------------|
C|0---------------|0---------------|0---------------|0---------------|
                                                     Ain't no thing.....

E|------3-0-------|----------0-----|----------------|------3-0-------|
C|----------0-----|----0-----------|0-------0-0-----|----------------|
G|1---------------|--------------0-|----0-------2---|2---------2-----|
C|0-----------0---|----------------|0---------------|----------------|
A|----------------|----------------|------------0---|0---------------|
C|----------------|0---------------|----------------|----------------|

E|------3-0-------|----------------|----------------|------0---5-5-5-|
C|----------0-----|----0-----------|0---------0-----|----0-----3-3-4-|
G|1---------------|----------0-----|----0-----0-0---|----------5-5-5-|
C|0-----------0---|------------0---|----------------|----------------|
A|----------------|----------------|------------2---|0---------------|
C|----------------|0---0-----------|0---------------|----------------|

E|5-5-5-5-5-5-----|----------------|----------0----- |
C|3-4-3-4-3-4-----|----0-----------|0-----0---0----- |
G|5-5-5-5-5-5-----|----0-----------|0-----0---------o|
C|----------------|----------------|0---------------o|
A|------------2---|0---------------|---------------- |
C|----------------|------------0---|---------------- |

E|2-0-------0-----|2---------------|2-0-------0-----|----------------|
C|------3---------|--------0-------|------3---------|0-------0-0-----|
G|----------------|----0-------0---|----------------|----0-------0---|
C|0---------------|----------------|0---------------|----------------|
A|----------------|----------------|----------------|----------------|
C|----------------|0---------------|----------------|0---------------|
  So it was one day.....

E|2-0-------0-----|2---------------|2-0-------0-----|----------------|
C|------3---------|--------0-------|------3---------|0---------0-----|
G|----------------|----0-------0---|----------------|----------------|
C|0---------------|----------------|0---------------|----0-------0---|
A|----------------|----------------|----------------|----------------|
C|----------------|0---------------|----------------|0---------------|

E|3-0-------0-----|3-0-------0-----|3-0-------0-----|----------------|
C|------3---------|------3---------|------3---------|3-0-------0-----|
G|----------------|----------------|----------------|------2---------|
C|----------------|0---------------|------------0---|------------0---|
A|----------------|----------------|----------------|----------------|
C|0---------------|----------------|0---------------|0---------------|
  Poor Tom         Seventh son      gotta die    for what you've done

E|2-0--------0----|2---------------|2-0-------0-----|----------------|
C|------3---------|----------0-0---|------3---------|0---------0-0---|
G|----------------|----0-----------|----------------|----0-----------|
C|----------------|----------------|----------------|----------------|
A|----------------|----------------|----------------|----------------|
C|0-------0-------|0-------0-------|0---------------|0---------------|

E|------3-0-------|------3-0-------|----------------|----------------|
C|----------------|----------0-----|----0-----0-----|0-------0-------|
G|2---------2-----|1---------------|--------------0-|----0-----0-----|
C|----------------|0---------------|----------------|----0-------0---|
A|0---------------|------------0---|----------------|----------------|
C|----------------|----------------|0---------------|----------------|

E|------3-0-------|------3-0-------|----------------|----------------|
C|----------------|----------0-----|----0-----0-----|0----------0----|
G|2---------2-----|1---------------|--------------0-|----0--------0--|
C|0---------------|0-----------0---|----------------|----0-----------|
A|------------0---|----------------|----------------|-------------2--|
C|----------------|----------------|0---------------|----------------|

E|------0---5-----|5-5---5---5-5-5-|----------------|----------------|
C|----0-----3-----|3-4---3---4-3-4-|----0-----------|0---------------|
G|----------5-----|5-5---5---5-5-5-|----------0-----|----0---0---0---|
C|----------------|----------------|------------0---|0---------------|
A|0---------------|----------------|0---2-----------|----------------|
C|----------------|----------------|--------0-------|----------------|
  What about that grandson on your knee?

E|0-0---0---0-----|0-----0-----0---|----------------|----------------|
C|0-0---0---0-----|0-----0-----0---|----0-----------|0-----0---0-----|
G|3-3---3---3-----|3-----3-----3---|----0-------0---|0-----0---0-----|
C|2-2---2---2-----|2-----2-----2---|----0-------0---|0-----0---0-----|
A|1-1---1---1-----|1-----1-----1---|----------------|----------------|
C|0-0---0---0-----|0-----0-----0---|0-----------0---|0-----0---0-----|

E|1-----1-----1---|--1-----1---1---|----------------|----------------|
C|0-----0-----0---|--0-----0---0---|----0-0---0-----|0-----0---0-0---|
G|0-----0-----0---|--0-----0---0---|----0-0---0-0---|0-----0---0-0---|
C|2-----2-----2---|--1-----1---1---|----0-0---0-0---|0-----0---0-0---|
A|1-----1-----1---|--2-----2---2---|----------------|----------------|
C|0-----0-----0---|--0-----0---0---|0-----------0---|0-----0---0-0---|

E|1-----1-----1-1-|----1-1-----1---|----------------|----------------|
C|0-----0-----0-0-|----0-0-----0---|------0---------|0-----------0---|
G|0-----0-----0-0-|----0-0-----0---|0-----0-----0---|0-------0---0---|
C|2-----2-----2-2-|----2-2-----2---|0-----0-----0---|0-------0---0---|
A|1-----1-----1-1-|----1-1-----1---|----------------|------------0---|
C|0-----0-----0-0-|----0-0-----0---|0---------------|----------------|
                                                            There aint

E|1---1-1-----1---|1-1-1---1---1---|----------------|----------------|
C|0---0-0-----0---|0-0-0---0---0---|0-----0-----0---|--0-----0---0---|
G|0---0-0-----0---|0-0-0---0---0---|0-----0-----0---|--0-----0---0---|
C|2---2-2-----2---|2-2-2---2---2---|0-----0-----0---|--0-----0---0---|
A|1---1-1-----1---|1-1-1---1---1---|----------------|------------0---|
C|0---0-0-----0---|--0-0---0---0---|0---------------|----------------|
  no thing that you can hide from Tom

E|----------------|----------------|----------------|----------------|
C|----------------|----------------|------0---0-0-0-|0-------0-------|
G|3---3---2-2-2---|1---1---1---1---|0-0-0-0---0-0-0-|0-------0---2---|
C|0---0---0-0-0---|0---0---0---0---|0-0-0-0---0-0-0-|0-------0---0---|
A|----------------|----------------|----------------|----------------|
C|0---0---0-0-0---|0---0---0---0---|0-0-0-0---0-0-0-|0-------0---0---|

E|----------------|----------------|----------------|----------------||
C|----------------|----------------|0---0-----0---0-|0-----0-0-0-0---||
G|2---2---2-2-2---|1---1---1-1-1---|0---0-----0---0-|0-----0-0-0-0---||
C|0---0---0-0-0---|0---0---0-0-0---|0---0-----0---0-|0-----0-0-0-0---||
A|----------------|----------------|----------------|----------------||
C|0---0---0-0-0---|0---0---0-0-0---|0---0-----0---0-|0-----0-0-0-0---||

E|----------------|----------------|
C|0-0-0-0---0---0-|0---------------|
G|0-0-0-0---0---0-|0---0---0---0---| Repeat
C|0-0-0-0---0---0-|0---0---0---0---| 7 times
A|----------------|----0-------0---|
C|0-0-0-0---0---0-|0---0---0---0---|


I Can't Quit You Baby:


Standard Tuning

E|------------------------------------------------|
B|------------------------------------------------|
G|------------------------------------------------|
D|------------------------------------------------|
A|------------------------------------------------|
E|------------------------------------------------|
  I can't quit you                         baby

E|5-----------------------------------------------|
B|5-----------------------------------------------|
G|5-----------------------------------------------|
D|4-----------------------------------------------|
A|5-----------------------------------------------|
E|------------------------------------------------|

E|-------------------------------------------|
B|------------868686868686-10--85------------|
G|-------------------------------75----------|
D|---------------------------------775-------|
A|------------------------------------765347-|
E|-------------------------------------------|
            \--6-/\--6-/\3/\---6---/\---8----|

E|--------------------------------------|
B|------------5-8-5-10------85----------|
G|----------5-----------------76--------|
D|5---------5------------------------57-|
A|--------------------------------------|
E|--------------------------------------|
                                    \3/

E|--------------------------------8-5-8--8-128-128-|
B|-------------------------------------------------|
G|----7---8---7------------------------------------|
D|4------------------------------------------------|
A|-------------------------------------------------|
E|-------------------------------------------------|
                                         \-3-/

E|8-5---8---8-----8-55555---8-5--------------------|
B|-------------------------------------------------|
G|-------------------------------------------------|
D|-------------------------------------------------|
A|-------------------------------------------------|
E|-------------------------------------------------|
  \--3-/\--3-/\--3---------------------------------|

E|-------------------------------------------------|
B|---------55858585858585858585--10----85----------|
G|--------9------------------------------75-5------|
D|-----------------------------------------7-7-5---|
A|-------------------------------------------------|
E|-------------------------------------------------|
               \--6-/\--6-/\--6-/      \3/\3/\3----|

E|-------------------5-----------------------------|
B|------------------5-85---------------------------|
G|----------------79----10--10-10---17----15--1315-|
D|--------7-5--------------------------------------|
A|7-6-5-4------------------------------------------|
E|-------------------------------------------------|
                  \3/\3/

E|----------------------------15--15--15--15--15--|
B|13--------------------------17--17--17--17--17--|
G|------------------------------------------------|
D|--1414------------------------------------------|
A|------------------------------------------------|
E|------------------------------------------------|

E|------------------------------------------------|
B|17----------------171513--13151715161513--15-15-|
G|------------------------14--------------14------|
D|------------------------------------------------|
A|------------------------------------------------|
E|------------------------------------------------|
                                        \--3-/

E|-------------------------------------5----------|
B|13---------------------------------55-85--------|
G|--14-----------------------9-7575-5-----975-7---|
D|------------7----------8---------7---------7-7--|
A|------------7----------8------------------------|
E|-------0----5----------6------------------------|
                               \3/\3/\-5-/\3/

E|----------------------------10---8---7--5---5----|
B|---------------------------5-------------8---875-|
G|6-----------6------------------------------------|
D|------------7-----------8------------------------|
A|------------7-----------8------------------------|
E|------------5-----------6------------------------|

E|-------------------------------------------------|
B|----5-------------------------------17--15131517-|
G|-------------------------------------------------|
D|-------------------------------------------------|
A|-------------------------------------------------|
E|-------------------------------------------------|

E|------------------------------------------------|
B|13----------------------------------------------|
G|--14141414----121212111111----------------------|
D|------------------------------------------------|
A|------------------------------------------------|
E|------------------------------------------------|

E|------------------------------------------------|
B|------------------------------------------------|
G|------------------------------------------------|
D|------------------------------------------------|
A|------------------------------------------------|
E|------------------------------------------------|

E|-------------------------------------------------|
B|-----------5585-----5585--5585--5585--5585--5585-|
G|----------9--------9-----9-----9-----9-----9-----|
D|-------------------------------------------------|
A|-------------------------------------------------|
E|-------------------------------------------------|

E|----------------------------8118108--------------|
B|-5585--5585--5585--5585-810--------8-------------|
G|9-----9-----9-----9-----------------107957454-75-|
D|---------------------------------------------7---|
A|-------------------------------------------------|
E|-------------------------------------------------|

E|--------------------------------------------10--|
B|--8---------------------------------------------|
G|9-----9-8-7-------------------------------------|
D|------------------------------------------------|
A|------------------------------------------------|
E|------------------------------------------------|
      \--3-/

E|8-5---8---8---8---8---8---8---7-8-7-7---6-----6-|
B|----7-------------------------------------------|
G|------------------------------------------------|
D|------------------------------------------------|
A|------------------------------------------------|
E|------------------------------------------------|

E|5-----------------------------------------------|
B|----9-7-5--10-8-5-------------------------------|
G|---------7--------7-65--------------------------|
D|----------------------7-5-----------7--5555-----|
A|--------------------------7-6-5-4---------------|
E|------------------------------------------------|

E|------------------------------------------------|
B|--------8585858585858510----8-5-----------------|
G|------99------------------------787-5-----------|
D|--------------------------------------7-5---5---|
A|------------------------------------------7-----|
E|------------------------------------------------|
                                      \-3-/

E|------------------------------------------------|
B|--------8-8-------------------------8-------8---|
G|------9---9-------------------------9-------9---|
D|7-9-7-------------------------------------------|
A|------------------------------------------------|
E|------------------------------------------------|

E|------------------------------------------------|
B|7-----------------------------------------------|
G|7-5---------------------------------------------|
D|----7-6-5-4-----------4-4-4---4---------------7-|
A|----------------------------------------------7-|
E|----------------------------------------------5-|

E|--------------------------------------5---------|
B|---------------------------------------85-------|
G|-----------------------9-7-5-7-5---5-9---75-7---|
D|7----------7---------8-----------7---------7----|
A|7----------7---------8--------------------------|
E|5----------5---------6--------------------------|

E|------------------------------------------------|
B|------------------------------------------5-7-8-|
G|8---------------------------------------6-------|
D|-----------7---------8--------------------------|
A|-----------7---------8--------------------------|
E|-----------5---------6--------------------------|

  Guitar Solo
E|-------------------------8-9-10---12-10-9-10----|
B|10----------------------------------------------|
G|------------------------------------------------|
D|------------------------------------------------|
A|------------------------------------------------|
E|------------------------------------------------|

E|12-10-8-------8108-------------------------------|
B|--------10-10-----1010810---------20-17-16-15----|
G|---------------------------9----14------------17-|
D|------------------------------16-----------------|
A|-------------------------------------------------|
E|-------------------------------------------------|
                              \--3-/

E|-----------------------------------------|
B|-------------------1517---------19171615-|
G|21-17-14--171416-17----14--1614----------|
D|--------16-------------------------------|
A|-----------------------------------------|
E|-----------------------------------------|

E|-------------------------------------------------|
B|----------------------17-17-17-17-17-17-17-17-17-|
G|17-211714-1714-1418-18-18-18-18-18-17-17-17-17---|
D|-------------------------------------------------|
A|-------------------------------------------------|
E|-------------------------------------------------|

E|--5-----5-----5-----5-----5-----5-----5-----5---|
B|-5-85--5-85--5-85--5-85--5-85--5-85--5-85--5-85-|
G|9-----9-----9-----9-----9-----9-----9-----9-----|
D|------------------------------------------------|
A|------------------------------------------------|
E|------------------------------------------------|

E|8118108---8118108---------------------03030-----|
B|-------810-------810-------010-----0-5-----31---|
G|--------------------779-557---2--02-2-----------|
D|-------------------------------02---------------|
A|------------------------------------------------|
E|------------------------------------------------|

E|-------------------------------------------------|
B|----------------------------------------585------|
G|----------0-2-0--------020----------5-79---75----|
D|--0---0-2-------2-0--02---20----5775-7-------75--|
A|03-30--------------30-------3057---------------7-|
E|-----3-------------------------------------------|

E|------------------------------------5--510--13---|
B|-------------------------------------85---9---12-|
G|---------------------------------57--------9-----|
D|5-------252-------------------57-----------------|
A|-7535-3----353----------35-57--------------------|
E|---------------3-----35--------------------------|

E|---161615--15-----------------------------------|
B|---------17--171615-----------------------------|
G|-13----------------1714141714--14--141714--14---|
D|-----------------------------17--17------17--17-|
A|------------------------------------------------|
E|------------------------------------------------|

E|--------------17----------------------------------|
B|------------17--202020222222-2017--17----19191919-|
G|141714--1421---------------------21--201919191919-|
D|------17------------------------------------------|
A|--------------------------------------------------|
E|--------------------------------------------------|

E|------------------------------------------------|
B|1917--------------------------------------------|
G|1917-----------------------575-579-----7--------|
D|----19-7-----------8-575-57---7-----------------|
A|-------7-----------87---7-----------------------|
E|-------5-----------6----------------------------|

E|------------------------------------------------|
B|------------------------------------------------|
G|5-------------------------------------------14--|
D|--------7---------------8-----------------------|
A|--------7---------------8-----------------------|
E|--------5---------------6-----------------------|

E|------------------------------------------------|
B|17------17--15--13--17--------------------------|
G|-------------------------------14-----------14--|
D|------------------------------------------------|
A|------------------------------------------------|
E|------------------------------------------------|

E|--------------------------------0---------------|
B|17------17--15------17--13----------------------|
G|----------------------------14--------------14--|
D|------------------------------------------------|
A|------------------------------------16----------|
E|------------------------------------------------|

E|----17----17----17----17----17----17----17-------|
B|--17----17----17----17----17----17----17--22--17-|
G|------21----21----21----21----21----21-----------|
D|19-----------------------------------------------|
A|-------------------------------------------------|
E|-------------------------------------------------|

E|2117--2017--2117--2017--2117--2017--------22-20-|
B|----17----17----17----17----17----17171717------|
G|------------------------------------------------|
D|------------------------------------------------|
A|------------------------------------------------|
E|------------------------------------------------|

E|-24--23--23-23201917--17-------------------------|
B|--------------------17--2017------17------5------|
G|----------------------------201917--201917-75----|
D|---------------------------------------------75--|
A|-----------------------------------------------7-|
E|-------------------------------------------------|

E|------------------------------------------------|
B|------------------------------------------------|
G|---------------------2-6542--2------------------|
D|------------------234------4------4----040------|
A|65-4-3-0-354---034------------------------------|
E|------------3-----------------------------------|

E|--------------------------15--15--15--15--------|
B|7-------------------------17--17--17--17151315--|
G|--7-9-7-9---------------------------------------|
D|------------------------------------------------|
A|------------------------------------------------|
E|------------------------------------------------|
            Woman, I can't quit you babe

E|----------------------------15171517-1512-------|
B|17----15171717----171513-----------------1715---|
G|------------------------1412--------------------|
D|------------------------------------------------|
A|------------------------------------------------|
E|------------------------------------------------|
        I think I'm gonna put you down for a while

E|-------------------------------------------5-----|
B|13----------------------------------------5-75---|
G|--1414--------------------------575975-579----75-|
D|--------------7-----------875-57------7----------|
A|--------------7-----------8--7-------------------|
E|----------0---5-----------6----------------------|

E|----------------------------10---8-7---5--------|
B|----------------------------------------85------|
G|------------------------------------------875-7-|
D|------------7-----------8--------------------7--|
A|7-6-5-------7-----------8-----------------------|
E|------------5-----------6-----------------------|

E|------------------------------------------------|
B|------------------------------------------------|
G|5-----------------------------------------------|
D|------------7-----------8-----------------------|
A|------------7-----------8-----------------------|
E|------------5-----------6-----------------------|

E|------------------------------------------------|
B|------------------------------------------------|
G|------------------------------------------------|
D|------------------------------------------------|
A|------------------------------------------------|
E|------------------------------------------------|



Walter's Walk:


Standard Tuning

E|----------------|----------------|----------------|----------------|
B|----------------|----------------|----------------|----------------|
G|----------------|----121212------|--1213--1212----|----12--1213----|
D|--------------12|----12121214--12|--12----1214--12|----12--1214--9-|
A|--------------12|--14--14----0-12|--14--14------12|--14--14----0-7-|
E|----------------|----------------|------------0---|------------0---|

E|----------------|----------------|----------------|----------------|
B|----------------|----------------|----------12----|----------------|
G|----------------|----12--12------|----12--1212----|--------1213----|
D|--9---9-7-9---12|----12----12--12|----121212----12|----12--1214--9-|
A|--7---7-5-7---12|--14--14--12--12|--14----------12|--14--14----0-7-|
E|----------------|----------------|----------------|------------0---|

E|----------------||
B|----------------||
G|----------------||
D|--9---9-7-9-----||
A|--7---7-5-7-----||
E|--------------3-||

E|----------------|----------------|----------------|----------------|
B|----------------|----------------|----------------|----------------|
G|----------0-----|----------0-----|----------0---2-|--2---0-1-------|
D|----------0-----|----------0-----|----------0---2-|--2-------2-----|
A|----0-1-2-------|----0-1-2-------|----0-1-2-----0-|--0---------2---|
E|--3-----------3-|--3-----------3-|--3-------------|--------------3-|

E|----------------|----------------|----------------|----------------|
B|----------------|----------------|----------------|----------------|
G|----------0-----|----------0-----|----------0---2-|--2---0-1-------|
D|----------0-----|----------0-----|----------0---2-|--2-------2-----|
A|----0-1-2-------|----0-1-2-------|----0-1-2-----0-|--0---------2---|
E|--3-----------3-|--3-----------3-|--3-------------|--------------3-|

E|----------------|----------------|----------------|----------------|
B|----------------|----------------|----------------|----------------|
G|----------0-----|----------0-----|----------0---2-|--2---0-1-------|
D|----------0-----|----------0-----|----------0---2-|--2-------2-----|
A|----0-1-2-------|----0-1-2-------|----0-1-2-----0-|--0---------2---|
E|--3-----------3-|--3-----------3-|--3-------------|--------------3-|

E|----------------|----------------|----------------|----------------||
B|----------------|----------------|----------------|----------------||
G|----------0-----|----------0-----|----------0---2-|--2---0-1-------||
D|----------0-----|----------0-----|----------0---2-|--2-------2-0---||
A|----0-1-2-------|----0-1-2-------|----0-1-2-----0-|--0-----------3-||
E|--3-----------3-|--3-----------3-|--3-------------|----------------||

E|----------------|----------------|----------------|----------------|
B|----------------|----------------|----------------|----------------|
G|----------------|--4-----------4-|----------------|----------------|
D|--2-4---------2-|4-5-------2-4-5-|--2-2-2-4-2-----|------2-4-------|
A|4-----0---3-4---|------3-4-------|--3-4-------3-4-|0-3-4-----0---3-|
E|----------------|----------------|----------------|----------------|

                                    2/4 time
E|----------------|----------------|--------|
B|----------------|----------------|--------|
G|------4---------|----------------|--------|
D|--2-4-5---2---2-|4-5-------2-4-2-|--------|
A|4---------3-4---|------3-4-------|3-4-0---|
E|----------------|----------------|------3-|
  4/4 time
E|----------------|----------------|----------------|----------------|
B|----------------|----------------|----------------|----------------|
G|----------0-----|----------0-----|----------0---2-|--2---0-1-------|
D|----------0-----|----------0-----|----------0---2-|--2-------2-----|
A|----0-1-2-------|----0-1-2-------|----0-1-2-----0-|--0---------2---|
E|--3-----------3-|--3-----------3-|--3-------------|--------------3-|

E|----------------|----------------|----------------|----------------|
B|----------------|----------------|----------------|----------------|
G|----------0-----|----------0-----|----------0---2-|--2---0-1-------|
D|----------0-----|----------0-----|----------0---2-|--2-------2-----|
A|----0-1-2-------|----0-1-2-------|----0-1-2-----0-|--0---------2---|
E|--3-----------3-|--3-----------3-|--3-------------|--------------3-|

E|----------------|----------------|----------------|----------------|
B|----------------|----------------|----------------|----------------|
G|----------12----|----------12----|----------12--14|--14--1213------|
D|----------12----|----------12----|----------12--14|--14------14----|
A|----121314------|----121314------|----121314------|------------15--|
E|--3-----------15|--15----------15|--15------------|--------------15|

E|----------------|----------------|----------------|----------------||
B|----------------|----------------|----------------|----------------||
G|----------12----|----------12----|----------12--14|--14--1213------||
D|----------12----|----------12----|----------12--14|--14------14----||
A|----121314------|----121314------|----121314------|--------------7-||
E|--15----------15|--15----------15|--15------------|----------------||

E|----------------|----------------|----------------|----------------|
B|----------------|----------------|----------------|----------------|
G|----------------|----------------|----------------|----------------|
D|----------------|--------------7-|9-------------9-|--9---9-7-9-----|
A|(7)-------------|(7)-----------5-|7-------------7-|--7---7-5-7-----|
E|----------------|----------------|--0-------------|--------------0-|

E|----------------|----------------|----------------|----------------||
B|----------------|----------------|----------------|----------------||
G|----------------|----------------|----------------|----------------||
D|----------------|----------------|--------------9-|--9---9-7-9-----||
A|----------------|----------------|--------------7-|--7---7-5-7-----||
E|(0)-------------|(0)-----------0-|(0)-------------|--------------3-||

E|----------------|----------------|----------------|----------------|
B|----------------|----------------|----------------|----------------|
G|----------0-----|----------0-----|----------0---2-|--2---0-1-------|
D|----------0-----|----------0-----|----------0---2-|--2-------2-----|
A|----0-1-2-------|----0-1-2-------|----0-1-2-----0-|--0---------2---|
E|--3-----------3-|--3-----------3-|--3-------------|--------------3-|

E|----------------|----------------|----------------|----------------|
B|----------------|----------------|----------------|----------------|
G|----------0-----|----------0-----|----------0---2-|--2---0-1-------|
D|----------0-----|----------0-----|----------0---2-|--2-------2-----|
A|----0-1-2-------|----0-1-2-------|----0-1-2-----0-|--0---------2---|
E|--3-----------3-|--3-----------3-|--3-------------|--------------3-|

E|----------------|----------------|----------------|----------------|
B|----------------|----------------|----------------|----------------|
G|----------0-----|----------0-----|----------0---2-|--2---0-1-------|
D|----------0-----|----------0-----|----------0---2-|--2-------2-----|
A|----0-1-2-------|----0-1-2-------|----0-1-2-----0-|--0---------2---|
E|--3-----------3-|--3-----------3-|--3-------------|--------------3-|

E|----------------|----------------|----------------|----------------||
B|----------------|----------------|----------------|----------------||
G|----------0-----|----------0-----|----------0---2-|--2---0-1-------||
D|----------0-----|----------0-----|----------0---2-|--2-------2-0---||
A|----0-1-2-------|----0-1-2-------|----0-1-2-----0-|--0-----------3-||
E|--3-----------3-|--3-----------3-|--3-------------|----------------||

E|----------------|----------------|----------------|----------------|
B|----------------|----------------|----------------|----------------|
G|----------------|--4-----------4-|----------------|----------------|
D|--2-4---------2-|4-5-------2-4-5-|--2-2-2-4-2-----|------2-4-------|
A|4-----0---3-4---|------3-4-------|--3-4-------3-4-|0-3-4-----0---3-|
E|----------------|----------------|----------------|----------------|

                                    2/4 time
E|----------------|----------------|--------|
B|----------------|----------------|--------|
G|------4---------|----------------|--------|
D|--2-4-5---2---2-|4-5-------2-4-2-|--------|
A|4---------3-4---|------3-4-------|3-4-0---|
E|----------------|----------------|------3-|

  4/4 time
E|----------------|----------------|----------------|----------------|
B|----------------|----------------|----------------|----------------|
G|----------0-----|----------0-----|----------0---2-|--2---0-1-------|
D|----------0-----|----------0-----|----------0---2-|--2-------2-----|
A|----0-1-2-------|----0-1-2-------|----0-1-2-----0-|--0---------2---|
E|--3-----------3-|--3-----------3-|--3-------------|--------------3-|

E|----------------|----------------|----------------|----------------|
B|----------------|----------------|----------------|----------------|
G|----------0-----|----------0-----|----------0---2-|--2---0-1-------|
D|----------0-----|----------0-----|----------0---2-|--2-------2-----|
A|----0-1-2-------|----0-1-2-------|----0-1-2-----0-|--0---------2---|
E|--3-----------3-|--3-----------3-|--3-------------|--------------3-|

E|----------------|----------------|----------------|----------------|
B|----------------|----------------|----------------|----------------|
G|----------12----|----------12----|----------12--14|--14--1213------|
D|----------12----|----------12----|----------12--14|--14------14----|
A|----121314------|----121314------|----121314------|------------15--|
E|--3-----------15|--15----------15|--15------------|--------------15|

E|----------------|----------------|----------------|----------------||
B|----------------|----------------|----------------|----------------||
G|----------12----|----------12----|----------12--14|--14--1213------||
D|----------12----|----------12----|----------12--14|--14------14----||
A|----121314------|----121314------|----121314------|--------------7-||
E|--15----------15|--15----------15|--15------------|----------------||

E|----------------|----------------|----------------|----------------|
B|----------------|----------------|----------------|----------------|
G|----------------|----------------|----------------|----------------|
D|----------------|--------------7-|9-------------9-|--9---9-7-9-----|
A|(7)-------------|(7)-----------5-|7-------------7-|--7---7-5-7-----|
E|----------------|----------------|--0-------------|--------------0-|

E|----------------|----------------|----------------|----------------||
B|----------------|----------------|----------------|----------------||
G|----------------|----------------|----------------|----------------||
D|----------------|----------------|--------------9-|--9---9-7-9---12||
A|----------------|----------------|--------------7-|--7---7-5-7---12||
E|(0)-------------|(0)-----------0-|(0)-------------|----------------||

E|----------------|----------------|----------------|----------------|
B|----------------|----------------|----------------|----------------|
G|----12--1213----|----12--1213----|----13--12------|----------------|
D|----12--12141412|----12--1214--12|--9-13141214--9-|--9---9-7-9---12|
A|--14--14------12|--14--14------12|------14------7-|--7---7-5-7---12|
E|----------------|----------------|----------------|----------------|

E|----------------|----------------|----------------|----------------|
B|----------------|----------------|----------------|----------------|
G|----12--1213----|----12--12------|----12--1213----|----------------|
D|----12141214--12|----12141214--12|----12--1214--9-|--9---9-7-9-----|
A|--14--14------12|1414--14------12|--14--14------7-|--7---7-5-7-----|
E|----------------|----------------|----------------|--------------3-|

  Guitar Solo
E|----------------|----------------|----------------|----------------|
B|----------------|----------------|----------------|----------------|
G|----------0-----|----------0-----|----------0---2-|--2---0-1-------|
D|----------0-----|----------0-----|----------0---2-|--2-------2-----|
A|----0-1-2-------|----0-1-2-------|----0-1-2-----0-|--0---------2---|
E|--3-----------3-|--3-----------3-|--3-------------|--------------3-|

E|----------------|----------------|----------------|----------------|
B|----------------|----------------|----------------|----------------|
G|----------0-----|----------0-----|----------0---2-|--2---0-1-------|
D|----------0-----|----------0-----|----------0---2-|--2-------2-----|
A|----0-1-2-------|----0-1-2-------|----0-1-2-----0-|--0---------2---|
E|--3-----------3-|--3-----------3-|--3-------------|--------------3-|

E|----------------|----------------|----------------|----------------|
B|----------------|----------------|----------------|----------------|
G|----------0-----|----------0-----|----------0---2-|--2---0-1-------|
D|----------0-----|----------0-----|----------0---2-|--2-------2-----|
A|----0-1-2-------|----0-1-2-------|----0-1-2-----0-|--0---------2---|
E|--3-----------3-|--3-----------3-|--3-------------|--------------3-|

E|----------------|----------------|----------------|----------------||
B|----------------|----------------|----------------|----------------||
G|----------0-----|----------0-----|----------0---2-|--2---0-1-------||
D|----------0-----|----------0-----|----------0---2-|--2-------2-0---||
A|----0-1-2-------|----0-1-2-------|----0-1-2-----0-|--0-----------3-||
E|--3-----------3-|--3-----------3-|--3-------------|----------------||

E|----------------|----------------|----------------|----------------|
B|----------------|----------------|----------------|----------------|
G|----------------|--4-----------4-|----------------|----------------|
D|--2-4---------2-|4-5-------2-4-5-|--2-2-2-4-2-----|------2-4-------|
A|4-----0---3-4---|------3-4-------|--3-4-------3-4-|0-3-4-----0---3-|
E|----------------|----------------|----------------|----------------|

                                    2/4 time
E|----------------|----------------|--------|
B|----------------|----------------|--------|
G|------4---------|----------------|--------|
D|--2-4-5---2---2-|4-5-------2-4-2-|--------|
A|4---------3-4---|------3-4-------|3-4-0---|
E|----------------|----------------|------3-|

  4/4 time
E|----------------|----------------|----------------|----------------|
B|----------------|----------------|----------------|----------------|
G|----------0-----|----------0-----|----------0---2-|--2---0-1-------|
D|----------0-----|----------0-----|----------0---2-|--2-------2-----|
A|----0-1-2-------|----0-1-2-------|----0-1-2-----0-|--0---------2---|
E|--3-----------3-|--3-----------3-|--3-------------|--------------3-|

E|----------------|----------------|----------------|----------------|
B|----------------|----------------|----------------|----------------|
G|----------0-----|----------0-----|----------0---2-|--2---0-1-------|
D|----------0-----|----------0-----|----------0---2-|--2-------2-----|
A|----0-1-2-------|----0-1-2-------|----0-1-2-----0-|--0---------2---|
E|--3-----------3-|--3-----------3-|--3-------------|--------------15|

E|----------------|----------------|----------------|----------------|
B|----------------|----------------|----------------|----------------|
G|----------12----|----------12----|----------12--14|--14--1213------|
D|----------12----|----------12----|----------12--14|--14------14----|
A|----121314------|----121314------|----121314------|------------15--|
E|--15----------15|--15----------15|--15------------|--------------15|

E|----------------|----------------|----------------|----------------||
B|----------------|----------------|----------------|----------------||
G|----------12----|----------12----|----------12--14|--14--1213------||
D|----------12----|----------12----|----------12--14|--14------14--12||
A|----121314------|----121314------|----121314------|--------------12||
E|--15----------15|--15----------15|--15------------|----------------||

E|----------------|----------------|----------------|----------------|
B|----------------|----------------|----------------|--15--151412----|
G|----12--1213----|----12--1213----|----12--12----14|16--16--1412----|
D|----12--1214--12|----12--1214--12|----12--12------|--------------12|
A|--14--14----0-12|--14--14----0-12|--14--14--0-----|--------------12|
E|----------------|----------------|------------0---|----------------|

E|----------------|----------------|----------------|----------------|
B|----------------|------------1315|--15151515151515|1515------------|
G|----12--1213----|----12--12131416|--16161616161616|161615141412----|
D|----12--1214--12|----12--1214----|----------------|------------1412|
A|--14--14----0-12|--14--14--------|----------------|--------------12|
E|----------------|----------------|----------------|----------------|

E|----------------|----------------|----------------|----------------|
B|--------1213----|----------------|----------------|----------------|
G|----12--1214----|----12--1213----|--------12------|----------1212--|
D|----12--------12|----12--1214--12|----12--1214----|----------121214|
A|--14--14----0-12|--14--14----0-12|--14--14--14--12|10--101214------|
E|----------------|----------------|------------0---|--12--0---------|

E|----------------|----------------|----------------|----------------|
B|----------------|----------------|--------------15|15--15----------|
G|----------------|----12--12------|----12----15----|16----16--16----|
D|141412--1214--12|----12--1214--12|----12----------|----------------|
A|141412141214--12|--14--14----0-12|--14--149-------|----------------|
E|----------------|----------------|----------------|----------------|

E|12--------------|----------------|----0-----------|----------------|
B|12------------15|--15------------|--------------15|--1514----------|
G|12--14--1213--16|--1614--1213--15|--1514--1213--15|161614--1213----|
D|----14--1214----|----14--12----16|--16----1214----|----14--1212----|
A|----14------14--|----------------|----------------|----------------|
E|------------12--|----------------|----------------|--------------0-|

E|----------------|----------------|----------------|----------------|
B|----------------|----------------|----------------|----------------|
G|----------------|--------------9-|--9-7---9-9-9---|----------------|
D|----9---7-9---9-|--9-9---7-----9-|--9-7---9-9-9-7-|--------------9-|
A|----7---5-7---7-|--7-7---5-7---7-|--7-5---7-7-7-5-|--7---5---7---7-|
E|--0-------------|----------------|----------------|--5---3---5-----|

E|----------------|
B|----------------|
G|----------------|
D|9---9-7-9-9---9-|
A|7---7-5-7-7---7-|
E|--------------0-|

E|----------------|--------------7-|--7-------------|--------------7-|
B|----------------|--------------7-|--7-------------|--------------7-|
G|----------------|--------------7-|--7-------------|--------------7-|
D|----------------|9-9-----9-------|----------------|9-9-----9-------|
A|--------------5-|7-7-----7-------|--------------5-|7-7-----7-------|
E|----------------|----0-----0-----|----------------|----0-----0-----|

E|--7-------------|--------------7-|--7-------------|--------------7-|
B|--7-------------|--------------7-|--7-------------|--------------7-|
G|--7-------------|--------------7-|--7-------------|--------------7-|
D|----------------|9-9-----9-------|----------------|9-9-----9-------|
A|--------------5-|7-7-----7-------|--------------5-|7-7-----7-------|
E|----------------|----0-----0-----|----------------|----0-----0-----|

E|--7-------------|--------------7-|--7-------------|--------------7-|
B|--7-------------|--------------7-|--7-------------|--------------7-|
G|--7-------------|--------------7-|--7-------------|--------------7-|
D|----------------|9-9-----9-------|----------------|9-9-----9-------|
A|--------------5-|7-7-----7-------|--------------5-|7-7-----7-------|
E|----------------|----0-----0-----|----------------|----0-----0-----|

E|--7-------------|--------------7-|--7-------------|--------------7-|
B|--7-------------|--------------7-|--7-------------|--------------7-|
G|--7-------------|--------------7-|--7-------------|--------------7-|
D|----------------|9-9-----9-------|----------------|9-9-----9-------|
A|--------------5-|7-7-----7-------|--------------5-|7-7-----7-------|
E|----------------|----0-----0-----|----------------|----0-----0-----|

E|--7-------------|--------------7-|--7-------------|--------------7-|
B|--7-------------|--------------7-|--7-------------|--------------7-|
G|--7-------------|--------------7-|--7-------------|--------------7-|
D|----------------|9-9-----9-------|----------------|9-9-----9-------|
A|--------------5-|7-7-----7-------|--------------5-|7-7-----7-------|
E|----------------|----0-----0-----|----------------|----0-----0-----|

E|--7-------------|--------------7-|--7-------------|--------------7-|
B|--7-------------|--------------7-|--7-------------|--------------7-|
G|--7-------------|--------------7-|--7-------------|--------------7-|
D|----------------|9-9-----9-------|----------------|9-9-----9-------|
A|--------------5-|7-7-----7-------|--------------5-|7-7-----7-------|
E|----------------|----0-----0-----|----------------|----0-----0-----|

  Guitar Solo
E|----------------|----------------|----------------|----------------|
B|--1111108-----10|111111108-----11|--1012108-------|--------------10|
G|----------------|----------------|------------9-9-|--9-------------|
D|----------------|----------------|----------------|----------------|
A|----------------|----------------|----------------|11--------------|
E|----------------|----------------|----------------|----------------|

E|----------------|----------------|----------------|----------------|
B|--1011108---8-11|--1011108-----11|--1011----108---|--9-------------|
G|----------9-----|----------------|--------------9-|----------------|
D|----------------|----------------|----------------|----------------|
A|----------------|----------------|----------------|11--------------|
E|----------------|----------------|----------------|----------------|

E|----------------|----------------|----------------|----------------|
B|----10--11--12--|1212108-------12|--12--1212108---|--------------10|
G|----------------|----------------|----------------|--9-------------|
D|----------------|----------------|----------------|----------------|
A|----------------|----------------|--------------10|13--------------|
E|----------------|----------------|----------------|----------------|

E|----------------|----------------|----------------|----------------|
B|--10--1011----11|--11--108-----11|--11--118-------|----------------|
G|----------------|----------------|----------0-9-9-|--9-------------|
D|----------------|----------------|----------------|----------------|
A|----------------|----------------|----------------|11--------------|
E|----------------|----------------|----------------|----------------|



Ozone Baby:


Standard Tuning

  The main riff
E|----------------|--------------2-|----2---2-2-2-2-|2-222-2---------|
B|----------------|--------------3-|----3---3-3-3-3-|3-333-3---------|
G|----------------|--------------2-|----2---2-2-2-2-|2-222-2---------|
D|----------------|----------0-2-0-|----0---0-0-0-0-|0-000-0---------|
A|----------------|--0-2-3---------|----------------|----------------|
E|----------0-2-3-|----------------|----------------|----------------|

  Two measures before chorus
E|----------------|----------------|
B|----------------|----------------|
G|----2---2-2-2---|2-2-2---2---2---|
D|----0---0-0-0---|0-0-0---0---0---|
A|2-3-------------|----------------|
E|----------------|----------------|

    Chorus
E|7---7---7-------|----------------|
B|8---8---8-----3-|3--33-----3-----|
G|9---9---9-----2-|2--22-222-2-2---|
D|9---9---9-----0-|0--00-000-0-0---|
A|7---7---7-0-7---|----------------|
E|----------------|----------------|
  Oooh ooh, it's my love

  Interlude
E|----------------|--------------10|101210----------|
B|----------------|--------------10|101210----------|
G|----------------|------4---0-4---|----------------|
D|--------------4-|--0-4-----------|----------------|
A|------------0---|----------------|----------------|
E|--------0-2-----|----------------|----------------|

  End part
E|----------------|----------------|----------------|----------------|
B|----------------|----------------|----------------|----------------|
G|----------------|----------------|----------------|----------------|
D|--6-7-----------|--6-7-----------|--6-7-----------|--6-7-----------|
A|0-4-5-----------|0-4-5-----------|0-4-5-----------|0-4-5-----------|
E|----------------|----------------|----------------|----------------|
  My own true love My own true love My own true love My own true love

  Guitar Solo
E|----------------|----------------|----------------|----------------|
B|--------------5-|--5---5---5---5-|----------------|----------------|
G|--------------5-|--5---5---5---5-|--4-2---2-------|------------20-0|
D|----------------|----------------|------4---------|-----220-224--4-|
A|----------------|----------------|----------------|--234---4-------|
E|----------------|----------------|----------------|----------------|

E|----------------|----------------|----------------|----------------|
B|----------------|7-5-5-----------|----------------|----------------|
G|20-020-02-----45|-5-5-54-422-20-0|20--------------|------0---0-----|
D|--4---4---------|-----------4--4-|--4220----------|-------424-42-4-|
A|----------------|----------------|------420-3-4-4-|0---------------|
E|----------------|----------------|----------------|----------------|

E|--------5-5---3-|5-3---3-5-2-----|------0---------|----------710-8-|
B|---33-2---------|---5--------5-2-|3---3---1-3-----|---------8------|
G|----------------|----------------|-----------00---|--------9-------|
D|0---------------|----------------|----------------|----------------|
A|--3-------------|----------------|----------------|----------------|
E|----------------|----------------|----------------|----------------|

                                                     octave up........
E|97--------5-7-5-|7-5-7-9---9---14|12--------------|--33--33--33----|
B|--10------------|----------------|--1412--12--12--|35--35--35--3---|
G|----------------|----------------|------14--14----|----------------|
D|----------------|----------------|----------------|----------------|
A|----------------|----------------|----------------|----------------|
E|----------------|----------------|----------------|----------------|

  .................................:
E|5---5--55---5---|----------------|
B|---------75--75-|(5)-------------|
G|-----------6----|----------------|
D|----------------|----------------|
A|----------------|----------------|
E|----------------|----------------|



Darlene:


Standard Tuning

E|----------------|----------------|----------------|----------------|
B|----------------|----------------|--------------3-|(3)-------------|
G|----------------|----------------|--------------2-|(2)-------------|
D|--------------3-|(3)-3-3---------|--------------0-|(0)-------------|
A|--------------1-|(1)-0-1-010---3-|(3)-2-3-2320----|----------------|
E|----------------|------------3---|------------31--|----------------|

E|----------------||
B|(3)-------------||
G|(2)-------------||
D|(0)-------------||
A|----------------||
E|----------------||

E|----------------|----------------|----------------|----------------|
B|----------------|----------------|----------------|----------------|
G|----------------|--------0-------|----------------|--------0-------|
D|5-----3-----2---|--0-2-3---3-2320|5-----3-----2---|--0-2-3---3-2320|
A|----------------|----------------|----------------|----------------|
E|----------------|----------------|----------------|----------------|
                               \3/                               \3/

E|----------------|----------------|----------------|----------------|
B|----------------|----------------|----------------|----------------|
G|----------------|--------0-------|----------------|----------------|
D|5-----3-----2---|--0-2-3---3-2320|5---------------|----------------|
A|----------------|----------------|----------------|----------------|
E|----------------|----------------|----------------|----------------|
                               \3/

E|----------------|----------------|----------------|----------------|
B|----------------|----------------|----------------|----------------|
G|----------------|--------0-------|----------------|--------0-------|
D|5-----3-----2---|--0-2-3---3-2320|5-----3-----2---|--0-2-3---3-2320|
A|----------------|----------------|----------------|----------------|
E|----------------|----------------|----------------|----------------|
                               \3/                               \3/

E|----------------|----------------|----------------|----------------|
B|----------------|----------------|----------------|----------------|
G|----------------|--------0-------|----------------|----------------|
D|5-----3-----2---|--0-2-3---3-2320|5---------------|----------------|
A|----------------|----------------|----------------|----------------|
E|----------------|----------------|----------------|----------------|
                               \3/

E|----------------|----------------|----------------|----------------|
B|----------------|----------------|----------------|----------------|
G|----------------|--------0-------|----------------|--------0-------|
D|5-----3-----2---|--0-2-3---3-2320|5-----3-----2---|--0-2-3---3-2320|
A|----------------|----------------|----------------|----------------|
E|----------------|----------------|----------------|----------------|
                               \3/                               \3/

                                                     w/ Fill 1
E|----------------|----------------|----------------|----------------|
B|----------------|----------------|----------------|----------------|
G|----------------|--------0-------|----------------|----------3-4-5-|
D|5-----3-----2---|--0-2-3---3-2320|5---------------|----------3-4-5-|
A|----------------|----------------|----------------|----------1-2-3-|
E|----------------|----------------|----------------|----------------|
                               \3/

E|----------------|----------------|----------------|----------------|
B|----------------|----------------|----------------|----------------|
G|----3-4-5-------|--3-4-5---3-4-5-|----3-4-5-------|--3-4-5---3-4-5-|
D|----3-4-5-------|--3-4-5---3-4-5-|----3-4-5-------|--3-4-5---3-4-5-|
A|----1-2-3-------|--1-2-3---1-2-3-|----1-2-3-------|--1-2-3---1-2-3-|
E|----------------|----------------|----------------|----------------|

                                                     w/ Fill 2
E|----------------|----------------|----------------|----------------|
B|----------------|--------------7-|----------------|----------------|
G|----3-4-5-------|--3-4-5---5-6-7-|----------------|----------------|
D|----3-4-5-------|--3-4-5---5-6-7-|----------------|--------------3-|
A|----1-2-3-------|--1-2-3---3-4-5-|----------------|----------------|
E|----------------|----------------|----------------|----------------|

E|----------------|----------------|----------------|----------------|
B|----------------|----------------|----------------|----------------|
G|----------------|--------0-------|----------------|--------0-------|
D|5-----3-----2---|--0-2-3---3-2320|5-----3-----2---|--0-2-3---3-2320|
A|----------------|----------------|----------------|----------------|
E|----------------|----------------|----------------|----------------|
                               \3/                               \3/

                                                     w/ Fill 3
E|----------------|----------------|----------------|----------------|
B|----------------|----------------|----------------|----------------|
G|----------------|--------0-------|----------------|----------------|
D|5-----3-----2---|--0-2-3---3-2320|5---------------|----------------|
A|----------------|----------------|----------------|----------------|
E|----------------|----------------|----------------|----------------|
                               \3/

E|----------------|----------------|----------------|----------------|
B|----------------|----------------|----------------|----------------|
G|----------------|--------0-------|----------------|--------0-------|
D|5-----3-----2---|--0-2-3---3-2320|5-----3-----2---|--0-2-3---3-2320|
A|----------------|----------------|----------------|----------------|
E|----------------|----------------|----------------|----------------|
                               \3/                               \3/

E|----------------|----------------|----------------|----------------|
B|----------------|----------------|----------------|----------------|
G|----------------|--------0-------|----------------|----------3-4-5-|
D|5-----3-----2---|--0-2-3---3-2320|5---------------|----------3-4-5-|
A|----------------|----------------|----------------|----------1-2-3-|
E|----------------|----------------|----------------|----------------|
                               \3/

E|----------------|----------------|----------------|----------------|
B|----------------|----------------|----------------|----------------|
G|----3-4-5-------|--3-4-5---3-4-5-|----3-4-5-------|--3-4-5---3-4-5-|
D|----3-4-5-------|--3-4-5---3-4-5-|----3-4-5-------|--3-4-5---3-4-5-|
A|----1-2-3-------|--1-2-3---1-2-3-|----1-2-3-------|--1-2-3---1-2-3-|
E|----------------|----------------|----------------|----------------|

                                                     w/ Fill 4
E|----------------|----------------|----------------|----------------|
B|----------------|--------------7-|----------------|----------------|
G|----3-4-5-------|--3-4-5---5-6-7-|----------------|----------------|
D|----3-4-5-------|--3-4-5---5-6-7-|----------------|--------------3-|
A|----1-2-3-------|--1-2-3---3-4-5-|----------------|----------------|
E|----------------|----------------|----------------|----------------|

  Guitar Solo 1
E|----------------|----------------|----------------|----------------|
B|----------------|----------------|----------------|----------------|
G|----------------|--------0-------|----------------|--------0-------|
D|5-----3-----2---|--0-2-3---3-2320|5-----3-----2---|--0-2-3---3-2320|
A|----------------|----------------|----------------|----------------|
E|----------------|----------------|----------------|----------------|
                               \3/                               \3/

E|----------------|----------------|----------------|----------------|
B|----------------|----------------|----------------|----------------|
G|----------------|--------0-------|----------------|----------------|
D|5-----3-----2---|--0-2-3---3-2320|5---------------|----------------|
A|----------------|----------------|----------------|----------------|
E|----------------|----------------|----------------|----------------|
                               \3/

E|----------------|----------------|----------------|----------------|
B|----------------|----------------|----------------|----------------|
G|----------------|--------0-------|----------------|--------0-------|
D|5-----3-----2---|--0-2-3---3-2320|5-----3-----2---|--0-2-3---3-2320|
A|----------------|----------------|----------------|----------------|
E|----------------|----------------|----------------|----------------|
                               \3/                               \3/

E|----------------|----------------|----------------|----------------|
B|----------------|----------------|----------------|----------------|
G|----------------|--------0-------|----------------|----------3-4-5-|
D|5-----3-----2---|--0-2-3---3-2320|5---------------|----------3-4-5-|
A|----------------|----------------|----------------|----------1-2-3-|
E|----------------|----------------|----------------|----------------|
                               \3/

E|----------------|----------------|----------------|----------------|
B|----------------|----------------|----------------|----------------|
G|----3-4-5-------|--3-4-5---3-4-5-|----3-4-5-------|--3-4-5---3-4-5-|
D|----3-4-5-------|--3-4-5---3-4-5-|----3-4-5-------|--3-4-5---3-4-5-|
A|----1-2-3-------|--1-2-3---1-2-3-|----1-2-3-------|--1-2-3---1-2-3-|
E|----------------|----------------|----------------|----------------|

E|----------------|----------------|----------------|----------------|
B|----------------|--------------7-|----------------|----------------|
G|----3-4-5-------|--3-4-5---5-6-7-|----------------|----------3-4-5-|
D|----3-4-5-------|--3-4-5---5-6-7-|----------------|----------3-4-5-|
A|----1-2-3-------|--1-2-3---3-4-5-|----------------|----------1-2-3-|
E|----------------|----------------|----------------|----------------|

E|----------------|----------------|----------------|----------------|
B|----------------|----------------|----------------|----------------|
G|----3-4-5-------|--3-4-5---3-4-5-|----3-4-5-------|--3-4-5---3-4-5-|
D|----3-4-5-------|--3-4-5---3-4-5-|----3-4-5-------|--3-4-5---3-4-5-|
A|----1-2-3-------|--1-2-3---1-2-3-|----1-2-3-------|--1-2-3---1-2-3-|
E|----------------|----------------|----------------|----------------|

E|----------------|----------------|----------------|----------------|
B|----------------|--------------7-|----------------|----------------|
G|----3-4-5-------|--3-4-5---5-6-7-|----------------|----------------|
D|----3-4-5-------|--3-4-5---5-6-7-|----------------|--------------3-|
A|----1-2-3-------|--1-2-3---3-4-5-|----------------|--------------1-|
E|----------------|----------------|----------------|----------------|

E|----------------|----------------|----------------|----------------|
B|----------------|--------------3-|(3)-------------|(3)-------------|
G|----------------|--------------2-|(2)-------------|(2)-------------|
D|----2-3---------|--------------0-|(0)-------------|(0)-----------3-|
A|----0-1-010---3-|(3)-2-3-2320----|----------------|--------------1-|
E|------------3---|------------31--|----------------|----------------|

E|----------------|----------------|----------------|----------------||
B|----------------|--------------3-|(3)-------------|(3)-------------||
G|----------------|--------------2-|(2)-------------|(2)-------------||
D|----2-3---------|--------------0-|(0)-------------|(0)-------------||
A|----0-1-010---3-|(3)-2-3-2320----|----------------|----------------||
E|------------3---|------------31--|----------------|----------------||

  12/8 time
E|------------------------|------------------------|------------------------|
B|----------0-------------|------------------3---4-|5---------0-------------|
G|----------0-------2-----|------------------3---4-|5---------0-------2-----|
D|5---------2-------3-----|------2---3-2320--------|----------2-------3-----|
A|3-----------------------|------------------------|------------------------|
E|------------------------|------------------------|------------------------|

E|------------------------|------------------------|------------------------|
B|------------------3---4-|5---------0-------------|------------------3---4-|
G|------------------3---4-|5---------0-------2-----|------------------3---4-|
D|------2---3-2320--------|----------2-------3-----|------2---3-2320--------|
A|------------------------|------------------------|------------------------|
E|------------------------|------------------------|------------------------|

                           w/ Fill 5
E|------------------------|------------------------|
B|5-----------------------|------------------------|
G|5-----------------------|------------------------|
D|------------------------|------------------------|
A|------------------------|------------------------|
E|------------------------|------------------------|

E|------------------------|------------------------|------------------------|
B|----------0-------------|------------------3---4-|5---------0-------------|
G|----------0-------2-----|------------------3---4-|5---------0-------2-----|
D|5---------2-------3-----|------2---3-2320--------|----------2-------3-----|
A|3-----------------------|------------------------|------------------------|
E|------------------------|------------------------|------------------------|

E|------------------------|------------------------|------------------------|
B|------------------3---4-|5---------0-------------|------------------3---4-|
G|------------------3---4-|5---------0-------2-----|------------------3---4-|
D|------2---3-2320--------|----------2-------3-----|------2---3-2320--------|
A|------------------------|------------------------|------------------------|
E|------------------------|------------------------|------------------------|

                           w/ Fill 6
E|------------------------|------------------------|
B|5-----------------------|------------------------|
G|5-----------------------|------------------------|
D|------------------------|------------------------|
A|------------------------|------------------------|
E|------------------------|------------------------|

E|------------------------|------------------------|------------------------|
B|----------0-------------|------------------3---4-|5---------0-------------|
G|----------0-------2-----|------------------3---4-|5---------0-------2-----|
D|5---------2-------3-----|------2---3-2320--------|----------2-------3-----|
A|3-----------------------|------------------------|------------------------|
E|------------------------|------------------------|------------------------|

E|------------------------|------------------------|------------------------|
B|------------------3---4-|5---------0-------------|------------------3---4-|
G|------------------3---4-|5---------0-------2-----|------------------3---4-|
D|------2---3-2320--------|----------2-------3-----|------2---3-2320--------|
A|------------------------|------------------------|------------------------|
E|------------------------|------------------------|------------------------|

E|------------------------|------------------------|
B|5-----------------------|------------------------|
G|5-----------------------|------------------------|
D|------------------------|------------------------|
A|------------------------|------------------------|
E|------------------------|------------------------|

E|----------1-------------|------------------------|----------1-------------|
B|----------1-------------|------------------------|----------1-------------|
G|------------------------|------------------------|------------------------|
D|------------------3-----|------2---3-2320--0-----|------------------3-----|
A|3-----------------3-----|------------------------|3-----------------3-----|
E|1-----------------------|------------------------|1-----------------------|

E|------------------------|------------------------|------------------------|
B|------------------------|----------5-------------|------------------------|
G|------------------------|----------5-------------|------3---5-3-5-3-------|
D|------2---3-2320--0---0-|5---------5-------5-----|------------------0-----|
A|------------------------|3-----------------3-----|------------------------|
E|------------------------|------------------------|------------------------|

E|------------------------|------------------------|----------1-------------|
B|----------5-------------|------------------------|----------1-------------|
G|----------5-------------|------3---5-3-5-3-------|------------------------|
D|5---------5-------5-----|------------------0-----|3-----------------3-----|
A|3-----------------3-----|------------------------|3-----------------3-----|
E|------------------------|------------------------|1-----------------------|

E|------------------------|----------1-------------|------------------------|
B|------------------------|----------1-------------|------------------------|
G|------------------------|------------------------|----------------------0-|
D|-----2---3-2320--0------|------------------3-----|------2---3-2320--0-----|
A|------------------------|3-----------------3-----|------------------------|
E|------------------------|1-----------------------|------------------------|

E|------------------------|------------------------|------------------------|
B|------------------------|------------------------|------------------------|
G|------2-----2-----4-----|5---5-4-----------------|------------------------|
D|------0-----0-----0-----|0-----0-----4-5-7-0---0-|5-----------------------|
A|5-----------------------|------------------------|------------------------|
E|------------------------|------------------------|------------------------|

  w/ Fill 7
E|------------------------|
B|------------------------|
G|------------------------|
D|------------------------|
A|------------------------|
E|------------------------|

E|----------1-------------|------------------------|----------1-------------|
B|----------1-------------|------------------------|----------1-------------|
G|------------------------|------------------------|------------------------|
D|------------------3-----|------2---3-2320--0-----|------------------3-----|
A|3-----------------3-----|------------------------|3-----------------3-----|
E|1-----------------------|------------------------|1-----------------------|

E|------------------------|------------------------|------------------------|
B|------------------------|----------5-------------|------------------------|
G|------------------------|----------5-------------|------3---5-3-5-3-------|
D|------2---3-2320--0---0-|5---------5-------5-----|------------------0-----|
A|------------------------|3-----------------3-----|------------------------|
E|------------------------|------------------------|------------------------|

E|------------------------|------------------------|----------1-------------|
B|----------5-------------|------------------------|----------1-------------|
G|----------5-------------|------3---5-3-5-3-------|------------------------|
D|5---------5-------5-----|------------------0-----|3-----------------3-----|
A|3-----------------3-----|------------------------|3-----------------3-----|
E|------------------------|------------------------|1-----------------------|

E|------------------------|----------1-------------|------------------------|
B|------------------------|----------1-------------|------------------------|
G|------------------------|------------------------|----------------------0-|
D|-----2---3-2320--0------|------------------3-----|------2---3-2320--0-----|
A|------------------------|3-----------------3-----|------------------------|
E|------------------------|1-----------------------|------------------------|

E|------------------------|------------------------|------------------------|
B|------------------------|------------------------|------------------------|
G|------------5---2-4---5-|----4-5-4-2-5-4-2-5-4-2-|------------------------|
D|------0---0-------------|------------------------|------------------------|
A|5-----------------------|------------------------|------------------------|
E|------------------------|------------------------|3-----------------------|

E|------------------------|
B|------------------------|
G|------------------------|
D|------------------------|
A|------------------------|
E|------------------------|

  Guitar Solo 2
E|----------1-------------|------------------------|----------1-------------|
B|----------1-------------|------------------------|----------1-------------|
G|------------------------|------------------------|------------------------|
D|------------------3-----|------2---3-2320--0-----|------------------3-----|
A|3-----------------3-----|------------------------|3-----------------3-----|
E|1-----------------------|------------------------|1-----------------------|

E|------------------------|------------------------|------------------------|
B|------------------------|----------5-------------|------------------------|
G|------------------------|----------5-------------|------3---5-3-5-3-------|
D|------2---3-2320--0---0-|5---------5-------5-----|------------------0-----|
A|------------------------|3-----------------3-----|------------------------|
E|------------------------|------------------------|------------------------|

E|------------------------|------------------------|----------1-------------|
B|----------5-------------|------------------------|----------1-------------|
G|----------5-------------|------3---5-3-5-3-------|------------------------|
D|5---------5-------5-----|------------------0-----|3-----------------3-----|
A|3-----------------3-----|------------------------|3-----------------3-----|
E|------------------------|------------------------|1-----------------------|

E|------------------------|----------1-------------|------------------------|
B|------------------------|----------1-------------|------------------------|
G|------------------------|------------------------|----------------------0-|
D|-----2---3-2320--0------|------------------3-----|------2---3-2320--0-----|
A|------------------------|3-----------------3-----|------------------------|
E|------------------------|1-----------------------|------------------------|

E|------------------------|------------------------|------------------------|
B|------------------------|------------------------|------------------------|
G|------------------------|------------------------|------------------------|
D|------0-----------0-----|3-0-0-0-----3-0-0-0-----|------------------------|
A|5-----------5-----------|------------------------|------------------------|
E|------------------------|------------------------|3-----------------------|

E|------------------------|
B|------------------------|
G|------------------------|
D|------------------------|
A|------------------------|
E|------------------------|

E|----------1-------------|------------------------|----------1-------------|
B|----------1-------------|------------------------|----------1-------------|
G|------------------------|------------------------|------------------------|
D|------------------3-----|------2---3-2320--0-----|------------------3-----|
A|3-----------------3-----|------------------------|3-----------------3-----|
E|1-----------------------|------------------------|1-----------------------|

E|------------------------|------------------------|------------------------|
B|------------------------|----------5-------------|------------------------|
G|------------------------|----------5-------------|------3---5-3-5-3-------|
D|------2---3-2320--0---0-|5---------5-------5-----|------------------0-----|
A|------------------------|3-----------------3-----|------------------------|
E|------------------------|------------------------|------------------------|

E|------------------------|------------------------|----------1-------------|
B|----------5-------------|------------------------|----------1-------------|
G|----------5-------------|------3---5-3-5-3-------|------------------------|
D|5---------5-------5-----|------------------0-----|3-----------------3-----|
A|3-----------------3-----|------------------------|3-----------------3-----|
E|------------------------|------------------------|1-----------------------|

E|------------------------|----------1-------------|------------------------|
B|------------------------|----------1-------------|------------------------|
G|------------------------|------------------------|----------------------0-|
D|-----2---3-2320--0------|------------------3-----|------2---3-2320--0-----|
A|------------------------|3-----------------3-----|------------------------|
E|------------------------|1-----------------------|------------------------|

E|------------------------|------------------------|------------------------|
B|------------------------|------------------------|------------------------|
G|------------------------|------------------------|------------------------|
D|0---0-4---0-4---0-5---0-|4---0-3---0-5---0-4---0-|5-----------------------|
A|------------------------|------------------------|------------------------|
E|------------------------|------------------------|------------------------|

E|------------------------|
B|------------------------|
G|------------------------|
D|------------------------|
A|------------------------|
E|------------------------|

E|----------1-------------|------------------------|----------1-------------|
B|----------1-------------|------------------------|----------1-------------|
G|------------------------|------------------------|------------------------|
D|------------------3-----|------2---3-2320--0-----|------------------3-----|
A|3-----------------3-----|------------------------|3-----------------3-----|
E|1-----------------------|------------------------|1-----------------------|

E|------------------------|------------------------|------------------------|
B|------------------------|----------5-------------|------------------------|
G|------------------------|----------5-------------|------3---5-3-5-3-------|
D|------2---3-2320--0---0-|5---------5-------5-----|------------------0-----|
A|------------------------|3-----------------3-----|------------------------|
E|------------------------|------------------------|------------------------|

E|------------------------|------------------------|----------1-------------|
B|----------5-------------|------------------------|----------1-------------|
G|----------5-------------|------3---5-3-5-3-------|------------------------|
D|5---------5-------5-----|------------------0-----|3-----------------3-----|
A|3-----------------3-----|------------------------|3-----------------3-----|
E|------------------------|------------------------|1-----------------------|

E|------------------------|----------1-------------|------------------------|
B|------------------------|----------1-------------|------------------------|
G|------------------------|------------------------|----------------------0-|
D|-----2---3-2320--0------|------------------3-----|------2---3-2320--0-----|
A|------------------------|3-----------------3-----|------------------------|
E|------------------------|1-----------------------|------------------------|

E|------------------------|------------------------|------------------------|
B|------------------------|------------------------|------------------------|
G|----------------------0-|------------------------|------------------------|
D|0-----0---0-4---0-0-----|0-----3-0-0-5-0-0-3-0-0-|------------------------|
A|------------------------|------------------------|------------------------|
E|------------------------|------------------------|3-----------------------|

E|------------------------|
B|------------------------|
G|------------------------|
D|------------------------|
A|------------------------|
E|------------------------|


  Guitar Fill 1                   Guitar Fill 2
E|----------------|             E|----------------|--1---1---------|
B|------6---------|             B|--------------1-|3---3---3-------|
G|--5-7---753-3---|             G|----------------|-----------0----|
D|--------------5-|             D|----------------|----------------|
A|----------------|             A|----------------|----------------|
E|----------------|             E|----------------|----------------|

  Guitar Fill 3                   Guitar Fill 4
E|-------1--------|             E|----------------|--3-13131-------|
B|--1-3----1-31---|             B|--------------1-|3---3-----3-1---|
G|--------------3-|             G|----------------|--------------3-|
D|----------------|             D|----------------|----------------|
A|----------------|             A|----------------|----------------|
E|----------------|             E|----------------|----------------|
           \3/\3/

  Guitar Fill 5                           Guitar Fill 6
E|----3-----3-------------|             E|----11------11----11----|
B|----6-----6-----4-------|             B|----13------11----8-----|
G|------------------------|             G|------------------------|
D|------------------------|             D|------------------------|
A|------------------------|             A|------------------------|
E|------------------------|             E|------------------------|

  Guitar Fill 7
E|----3-------------------|
B|----6-------------------|
G|------------5-3-0-0-----|
D|--------------------3-0-|
A|------------------------|
E|------------------------|

  Guitar Solo 1
E|----------------|----------------|----------------|----------------|
B|--------------5-|--3---------8-6-|--108---108---8-|----8-6---8-1010|
G|30--0---0-0-----|------8-6-------|----------------|----------------|
D|--3---3---3-5---|----7------7----|9-----9-----9---|--7-----7-9-----|
A|----------------|----------------|----------------|----------------|
E|----------------|----------------|----------------|----------------|

E|----------------|--3-------------|----------------|----------------|
B|8-----368-6---1-|3-----3-1-------|---------1--1---|4-3-8--68-6-----|
G|----------------|----------3-030-|0---3-0--0--0---|----------------|
D|----------------|---------------3|--30----3--3--3-|5---------------|
A|----------------|----------------|----------------|----------------|
E|----------------|----------------|----------------|----------------|
                         \3/ \3/        \-3-/

E|------1513------|--------------15|----15----15----|18----18------18|
B|--1415--151513--|12--12------15--|--15----15--1820|--1820--20------|
G|--------------15|--15--15--19----|19----19--------|----------------|
D|----------------|----------------|----------------|----------------|
A|----------------|----------------|----------------|----------------|
E|----------------|----------------|----------------|----------------|
              \-3/

E|20--1815--------|----------------|-1113-13-1-33-31|------------------|
B|--------1815----|----------15----|-3--3--1-1------|------------------|
G|------------1815|151715171515----|----------------|320-0---0---------|
D|----------------|------------17--|----------------|---3--3-----------|
A|----------------|----------------|----------------|------------------|
E|----------------|----------------|----------------|------------------|
                       \--3-/           \3/\3/  \3---------------------|

E|------------------------|------------------------|------------------------|
B|------------------------|------------------------|------------------------|
G|------------10--10----10|14--1212--10----10----10|13--1013--10121213131313|
D|--------1012------12----|------------------------|------------------------|
A|----8-12----------------|------------------------|------------------------|
E|------------------------|------------------------|------------------------|

E|------------------------|----8-5-----5-----------|----8-------------------|
B|13121012--10----1012--10|----------8-----8-6-----|----------------------1-|
G|------------------------|----------------------8-|9-----------------------|
D|------------------------|------------------------|------------------------|
A|------------------------|------------------------|------------------------|
E|------------------------|------------------------|------------------------|

E|--5-5-8---------------8-|5-----------------------|------------------------|
B|5-------------8---------|--8-5-8-5---5-----------|------------------------|
G|----------7-9---9-------|----------7---7-5-7-5---|5---------5-----5-----8-|
D|------------------------|----------------------7-|------7-----7-----------|
A|------------------------|------------------------|------------------------|
E|------------------------|------------------------|------------------------|

E|------------------------|------------------------|------------------------|
B|----8-7---8-------------|------------------------|------------------------|
G|10----------7---5-----5-|----5-----5-2-----2---5-|2-----2---2-------------|
D|------------------7-----|------7---------5-------|----3-------------------|
A|------------------------|------------------------|------------------------|
E|------------------------|------------------------|------------------------|

E|------------------------|------------------------|------------------------|
B|------------------------|------------------------|------------------------|
G|------2---------2-------|2---2-----2-------2---2-|-0----------------------|
D|----------4-----------0-|------0-----0-----0-----|------------------------|
A|------------------------|------------------0-----|------------------------|
E|------------------------|------------------------|------------------------|

E|------------------------|----------10------------|------------------------|
B|------------------------|--------10--1310--1310--|10----------------------|
G|------------------------|10--1014--------------12|--1210--1210--10----10--|
D|--------------------1012|--12--------------------|------0-----12----12----|
A|----------------8-12----|------------------------|------------------------|
E|------------------------|------------------------|------------------------|

E|-----------13----1415-16|17-17----17-----15------|------------------------|
B|-----131517-------------|------------------13----|13--13----1315----13----|
G|--14--------------------|----------------------14|------14----------------|
D|------------------------|------------------------|------------------------|
A|------------------------|------------------------|------------------------|
E|------------------------|------------------------|------------------------|

E|----------------1517--15|------------------------|----131515--------------|
B|------15--13------------|----1315----13--------13|17--------17--1513---14-|
G|----14------------------|------------------14----|------------------------|
D|------------------------|------------------------|------------------------|
A|------------------------|------------------------|------------------------|
E|------------------------|------------------------|------------------------|

E|------------------------|10--------------10------|----------------10------|
B|15----13----------13----|----1313----13------13--|13------------------1313|
G|------------------14----|------14--1212----12--14|12--1012--1012--14----14|
D|------------------------|------------------------|------------------------|
A|------------------------|------------------------|------------------------|
E|------------------------|------------------------|------------------------|

E|------------------------|------------------------|------8---10------------|
B|------------------------|----8-9---10------------|----12------12--108-----|
G|14121012--1012----------|12----------12--108-----|------------------------|
D|------------------------|----------------------9-|------------------------|
A|------------------------|------------------------|------------------------|
E|------------------------|------------------------|------------------------|

E|------------------------|------------------------|------------------------|
B|----------------------8-|101010------10101010108-|6-----------------------|
G|------------------------|------------------------|------------------------|
D|------------------------|------------------------|------------------------|
A|------------------------|------------------------|------------------------|
E|------------------------|------------------------|------------------------|

E|--5-5-------------------|------------------------|------------------------|
B|--------886-----------6-|4-----------6---6-6-----|--------------------1213|
G|------------------7-----|----5-3---2-------------|------------------------|
D|------------------------|------------------------|------------------------|
A|------------------------|------------------------|------------------------|
E|------------------------|------------------------|------------------------|

E|------------------------|------------------------|----------5-------------|
B|13----------------------|----101313--------------|------------8---5-------|
G|------------------5-----|--10----------------5-7-|9---9---------------9---|
D|--------------5-7-----10|12--------------5-7-----|------------------------|
A|----------3-7-----------|------------3-6---------|------------------------|
E|------------------------|------------------------|------------------------|

E|------------------------|------------------------|------------------------|
B|------------------------|------------------------|------------------1---1-|
G|7---5-------5-------5---|2-----------------------|----------------2-------|
D|--------7-------7-------|----3-----------7-------|----------2-3-----------|
A|------------------------|------------------------|------------------------|
E|------------------------|------------------------|------------------------|

E|----0-------------------|------------------------|------------------------|
B|----1-----------1-3---1-|----------13------------|------------------------|
G|------------------------|------------------------|------------5---5-------|
D|------------------------|------------------------|----------57------------|
A|------------------------|------------------------|5---5-9---------------5-|
E|------------------------|------------------------|------------------------|

E|------------------------|------------------------|6---7-8---------108-----|
B|------------------------|----10------8---------10|----------12----------9-|
G|------7---7-----7-7-----|------------------------|------------------------|
D|--9---------------------|------------------------|------------------------|
A|9-----------------------|------------------------|------------------------|
E|------------------------|------------------------|------------------------|



Bonzo's Montreux - No guitar parts

Wearing And Tearing:



Standard Tuning

E|----------------|----------------|----------------|----------------|
B|----------------|----------------|----------------|----------------|
G|----------------|----------------|----------------|----------------|
D|2---2-2-2---2-2-|2-2-2-2-----2---|----2-2-2---2-2-|2-2-2-2-----2---|
A|0---0-0-0---0-0-|0-0-0-0-----0---|----0-0-0---0-0-|0-0-0-0-----0---|
E|----------------|----------------|----------------|----------------|
 |                                                                   |
E|----------------|----------------|----------------|----------------|
B|----------------|----------------|----------------|----------------|
G|----------------|------2---------|----------------|------2---------|
D|----------------|2-2-2-----------|----------------|2-2-2-----------|
A|0---0-0-4-4-4-4-|------------0---|--0-0-0-4-4-4-4-|------------0---|
E|----------------|----------------|----------------|----------------|

E|----------------|----------------|----------------|----------------|
B|----------------|----------------|----------------|----------------|
G|----------------|----------------|----------------|----------------|
D|----2-2-2---2---|2-2-2-2-----2---|----2-2-2---2-2-|2-2-2-----------|
A|----0-0-0---0---|0-0-0-0-----0---|----0-0-0---0-0-|0-0-0-----------|
E|----------------|----------------|----------------|----------------|
 |                                                                   |
E|----------------|----------------|----------------|----------------|
B|----------------|----------------|----------------|----------------|
G|----------------|------2---------|----------------|------2---------|
D|----------------|2-2-2-----------|----------------|2-2-2-----------|
A|--0-0-0-4-4-4-4-|------------0---|--0-0-0-4-4-4-4-|----------------|
E|----------------|----------------|----------------|------------2---|

E|----------------|----------------|----------------|----------------|
B|----------------|----------------|----------------|----------------|
G|----------------|----------------|----------------|----------------|
D|----------------|----------------|----------------|----------------|
A|----------------|--------------0-|(0)-------------|--3-2-0-2-0-0---|
E|(2)-------------|(2)-------0-2---|----------------|--------------2-|

E|----------------|----------------|----------------|----------------|
B|----------------|----------------|----------------|----------------|
G|----------------|----------------|----------------|----------------|
D|----------------|----------------|----------------|----------------|
A|----------------|--------------0-|(0)-------------|--3-2-0-2-0-0---|
E|(2)-------------|(2)-------0-2---|----------------|--------------2-|

E|----------------|----------------|----------------|----------------|
B|----------------|----------------|----------------|----------------|
G|----------------|----------------|----------------|----------------|
D|----------------|----------------|----------------|----------------|
A|----------------|--------------0-|(0)-------------|--3-2-0-2-0-0---|
E|(2)-------------|(2)-------0-2---|----------------|--------------2-|

E|----------------|----------------|----------------|----------------|
B|----------------|----------------|----------------|----------------|
G|----------------|----------------|----------------|----------------|
D|----------------|----------------|----------------|----------------|
A|----------------|--------------0-|(0)-------------|--3-2-0-2-0-0---|
E|(2)-------------|(2)-------0-2---|----------------|--------------2-|

E|----------------|----------------|----------------|----------------|
B|----------------|----------------|----------------|----------------|
G|----------------|--------------2-|--2-0-1-2-2-----|----0-1-2-2-2---|
D|--4-2-3-4-4---4-|--4-2-3-4-4---4-|------------0-1-|2-2-----------4-|
A|----------------|----------------|----------------|----------------|
E|----------------|----------------|----------------|----------------|

E|----------------|----------------|----------------|----------------|
B|----------------|----------------|----------------|----------------|
G|----------------|--------------2-|--2-0-1-2-2-----|----0-1-2-2-2---|
D|--4-2-3-4-4---4-|--4-2-3-4-4---4-|------------0-1-|2-2-----------4-|
A|----------------|----------------|----------------|----------------|
E|----------------|----------------|----------------|----------------|

E|----------------|----------------|----------------|----------------|
B|----------------|----------------|----------------|----------------|
G|----------------|--------------2-|--2-0-1-2-2-----|----0-1-2-2-2---|
D|--4-2-3-4-4---4-|--4-2-3-4-4---4-|------------0-1-|2-2-----------4-|
A|----------------|----------------|----------------|----------------|
E|----------------|----------------|----------------|----------------|

E|----------------|----------------|----------------|----------------||
B|----------------|----------------|----------------|----------------||
G|----------------|--------------2-|--2-0-1-2-2-----|----0-1-2-2-2---||
D|--4-2-3-4-4---4-|--4-2-3-4-4---4-|------------0-1-|2-2-----------4-||
A|----------------|----------------|----------------|----------------||
E|----------------|----------------|----------------|----------------||

E| ----------------|----------------|----------------|----------------|
B| ----------------|----------------|----------------|----------------|
G|o----------------|----------------|----------------|----------------|
D|o2---2-2-2---2-2-|2-2-2-2-----2---|----2-2-2---2-2-|2-2-2-2-----2---|
A| 0---0-0-0---0-0-|0-0-0-0-----0---|----0-0-0---0-0-|0-0-0-0-----0---|
E| ----------------|----------------|----------------|----------------|
 |                                                                    |
E| ----------------|----------------|----------------|----------------|
B| ----------------|----------------|----------------|----------------|
G|o----------------|------2---------|----------------|------2---------|
D|o----------------|2-2-2-----------|----------------|2-2-2-----------|
A| 0---0-0-4-4-4-4-|------------0---|--0-0-0-4-4-4-4-|------------0---|
E| ----------------|----------------|----------------|----------------|

                                                     3/4 time
E|----------------|----------------|----------------|------------|
B|----------------|----------------|----------------|------------|
G|----------------|----------------|----------------|------------|
D|----2-2-2---2-2-|2-2-2-2-----2---|----2-2-2---2-2-|2-2-2-2-----|
A|----0-0-0---0-0-|0-0-0-0-----0---|----0-0-0---0-0-|0-0-0-0-----|
E|----------------|----------------|----------------|------------|
 |                                                               |
E|----------------|----------------|----------------|------------|
B|----------------|----------------|----------------|------------|
G|----------------|------2---------|--2-2-2-0-0-0-0-|------------|
D|----------------|2-2-2-----------|----------------|4-4-4-2-----|
A|--0-0-0-4-4-4-4-|------------0---|----------------|------------|
E|----------------|----------------|----------------|------------|

  4/4 time
E|2---------------|(2)---------2-2-|(2)-------------|(2)-------------|
B|3---------------|(3)---------3-3-|(3)-------------|(3)-------------|
G|2---------------|(2)---------2-2-|(2)-------------|(2)-------------|
D|0---------------|(0)---------0-0-|(0)-------------|(0)-------------|
A|----------------|----------------|----------------|----------------|
E|----------------|----------------|----------------|----------------|
  1. It starts out like a murmur...
  2. Oh, don't you feel the same way...
  3. Well, ya say your body's achin'...
  4. Go back to the country...

E|----------------|------------2---|----------------|----------------|
B|2---------------|(2)---------3-2-|(2)-------------|(2)-------------|
G|2---------------|(2)---------2-2-|(2)-------------|(2)-------------|
D|2---------------|(2)---------0-2-|(2)-------------|(2)-------------|
A|0---------------|(0)-----------0-|(0)-------------|(0)-------------|
E|----------------|----------------|----------------|----------------|

E|2---------------|(2)---------2-2-|(2)-------------|(2)-------------|
B|3---------------|(3)---------3-3-|(3)-------------|(3)-------------|
G|2---------------|(2)---------2-2-|(2)-------------|(2)-------------|
D|0---------------|(0)---------0-0-|(0)-------------|(0)-------------|
A|----------------|----------------|----------------|----------------|
E|----------------|----------------|----------------|----------------|

E|----------------|------------2---|----------------|----------------|
B|2---------------|(2)---------3-2-|(2)-------------|(2)-------------|
G|2---------------|(2)---------2-2-|(2)-------------|(2)-------------|
D|2---------------|(2)---------0-2-|(2)-------------|(2)-------------|
A|0---------------|(0)-----------0-|(0)-------------|(0)-------------|
E|----------------|----------------|----------------|----------------|

E|2---------------|(2)---------2-2-|(2)-------------|(2)-------------|
B|3---------------|(3)---------3-3-|(3)-------------|(3)-------------|
G|2---------------|(2)---------2-2-|(2)-------------|(2)-------------|
D|0---------------|(0)---------0-0-|(0)-------------|(0)-------------|
A|----------------|----------------|----------------|----------------|
E|----------------|----------------|----------------|----------------|

E|----------------|------------2---|----------------|----2-----------|
B|2---------------|(2)---------3-2-|(2)-------------|(2)-3-2-----2---|
G|2---------------|(2)---------2-2-|(2)-------------|(2)-2-2-----2---|
D|2---------------|(2)---------0-2-|(2)-------------|(2)-0-2-----2-4-|
A|0---------------|(0)-----------0-|(0)-------------|(0)---0-----0---|
E|----------------|----------------|----------------|----------------|

E|----------------|----------------|----------------|----------------|
B|----------------|----------------|----------------|----------------|
G|----------------|--------------2-|--2-0-1-2-2-----|----0-1-2-2-2---|
D|--4-2-3-4-4---4-|--4-2-3-4-4---4-|------------0-1-|2-2-----------4-|
A|----------------|----------------|----------------|----------------|
E|----------------|----------------|----------------|----------------|

E|----------------|----------------|----------------|----------------|
B|----------------|----------------|----------------|----------------|
G|----------------|--------------2-|--2-0-1-2-2-----|----0-1-2-2-2---|
D|--4-2-3-4-4---4-|--4-2-3-4-4---4-|------------0-1-|2-2-----------4-|
A|----------------|----------------|----------------|----------------|
E|----------------|----------------|----------------|----------------|

E|----------------|----------------|----------------|----------------|
B|----------------|----------------|----------------|----------------|
G|----------------|--------------2-|--2-0-1-2-2-----|----0-1-2-2-2---|
D|--4-2-3-4-4---4-|--4-2-3-4-4---4-|------------0-1-|2-2-------------|
A|----------------|----------------|----------------|--------------0-|
E|----------------|----------------|----------------|----------------|
                                                     _________________
                                                    |1.2.4.  4th time to CODA
E|----------------|----------------|----------------|---------------- |
B|----------------|----------------|----------------|---------------- |
G|----------------|--------------2-|--2-0-1-2-2-----|----0-1-2-2-2---o|
D|--4-2-3-4-4---4-|--4-2-3-4-4---4-|------------0-1-|2-2-----------4-o|
A|----------------|----------------|----------------|---------------- |
E|----------------|----------------|----------------|---------------- |
  _________________
 |3.
E|----------------|
B|----------------|
G|----0-1-2-------|
D|2-2-------------|
A|----------0-----|
E|----------------|

E|----------------|----------------|----------------|----------------|
B|----------------|----------------|----------------|----------------|
G|----------------|----------------|----------------|----------------|
D|2---2-2-2---2-2-|2-2-2-2-----2---|----2-2-2---2-2-|2-2-2-2-----2---|
A|0---0-0-0---0-0-|0-0-0-0-----0---|----0-0-0---0-0-|0-0-0-0-----0---|
E|----------------|----------------|----------------|----------------|
 |                                                                   |
E|----------------|----------------|----------------|------2---------|
B|----------------|------2---------|----------------|2-2-2-----------|
G|----------------|2-2-2-----------|--------4-4-4-4-|----------------|
D|0---0-0-4-4-4-4-|------------0---|--0-0-0---------|------------0---|
A|----------------|----------------|----------------|----------------|
E|----------------|----------------|----------------|----------------|

E|----------------|----------------|----------------|----------------|
B|----------------|----------------|----------------|----------------|
G|----------------|----------------|----------------|----------------|
D|----2-2-2---2---|2-2-2-2-----2---|----2-2-2---2-2-|2-2-2-----------|
A|----0-0-0---0---|0-0-0-0-----0---|----0-0-0---0-0-|0-0-0-----------|
E|----------------|----------------|----------------|----------------|
 |                                                                   |
E|----------------|----------------|----------------|----------------|
B|----------------|----------------|----------------|----------------|
G|----------------|------2---------|----------------|------2---------|
D|----------------|2-2-2-----------|----------------|2-2-2-----------|
A|--0-0-0-4-4-4-4-|------------0---|--0-0-0-4-4-4-4-|----------------|
E|----------------|----------------|----------------|------------2---|

E|----------------|----------------|----------------|----------------|
B|----------------|----------------|----------------|----------------|
G|----------------|----------------|----------------|----------------|
D|----------------|----------------|----------------|----------------|
A|----------------|--------------0-|(0)-------------|--3-2-0-2-0-0---|
E|(2)-------------|(2)-------0-2---|----------------|--------------2-|

E|----------------|----------------|----------------|----------------|
B|----------------|----------------|----------------|----------------|
G|----------------|----------------|----------------|----------------|
D|----------------|----------------|----------------|----------------|
A|----------------|--------------0-|(0)-------------|--3-2-0-2-0-0---|
E|(2)-------------|(2)-------0-2---|----------------|--------------2-|

E|----------------|----------------|----------------|----------------|
B|----------------|----------------|----------------|----------------|
G|----------------|----------------|----------------|----------------|
D|----------------|----------------|----------------|----------------|
A|----------------|--------------0-|(0)-------------|--3-2-0-2-0-0---|
E|(2)-------------|(2)-------0-2---|----------------|--------------2-|

E|----------------|----------------|----------------|----------------|
B|----------------|----------------|----------------|----------------|
G|----------------|----------------|----------------|----------------|
D|----------------|----------------|----------------|----------------|
A|----------------|--------------0-|(0)-------------|--3-2-0-2-0-0---|
E|(2)-------------|(2)-------0-2---|----------------|--------------2-|

E|----------------|----------------|----------------|----------------|
B|----------------|----------------|----------------|----------------|
G|----------------|--------------2-|--2-0-1-2-2-----|----0-1-2-2-2---|
D|--4-2-3-4-4---4-|--4-2-3-4-4-----|------------0-1-|2-2-----------4-|
A|----------------|----------------|----------------|----------------|
E|----------------|----------------|----------------|----------------|

E|----------------|----------------|----------------|----------------|
B|----------------|----------------|----------------|----------------|
G|----------------|--------------2-|--2-0-1-2-2-----|----0-1-2-2-2---|
D|--4-2-3-4-4---4-|--4-2-3-4-4-----|------------0-1-|2-2-----------4-|
A|----------------|----------------|----------------|----------------|
E|----------------|----------------|----------------|----------------|

E|----------------|----------------|----------------|----------------|
B|----------------|----------------|----------------|----------------|
G|----------------|--------------2-|--2-0-1-2-2-----|----0-1-2-2-2---|
D|--4-2-3-4-4---4-|--4-2-3-4-4-----|------------0-1-|2-2-----------4-|
A|----------------|----------------|----------------|----------------|
E|----------------|----------------|----------------|----------------|

E|----------------|----------------|----------------|----------------|
B|----------------|----------------|----------------|----------------|
G|----------------|--------------2-|--2-0-1-2-2-----|----0-1-2-2-2---|
D|--4-2-3-4-4---4-|--4-2-3-4-4-----|------------0-1-|2-2-------------|
A|----------------|----------------|----------------|--------------0-|
E|----------------|----------------|----------------|----------------|

                                                           D.S. al CODA
E|0---------------|(0)-------------|0---------------|(0)-------------||
B|12----10--------|(10)------------|12----10--------|(10)------------||
G|----------------|----------------|----------------|----------------||
D|----------------|----------------|----------------|----------------||
A|----------------|----------------|----------------|----------------||
E|----------------|----------------|----------------|----------------||
 |                                                                   |
E|----------------|----------------|----------------|----------------||
B|9-----7---------|----------------|----------------|----------------||
G|------------9---|--7-----6-------|----------------|----------------||
D|----------------|------------9---|7-----6-----9---|--7-----6---4---||
A|----------------|----------------|------------11--|--9-----7---5---||
E|----------------|----------------|----------------|----------------||

  CODA
E|----------------|----------------|----------------|----------------|
B|----------------|----------------|----------------|----------------|
G|4-4-4-----------|----------------|----------------|----------------|
D|------7-7-7-6-6-|6-4-4-4---------|----------------|----------------|
A|----------------|--------7-7-5-5-|7-7-7-5-5-5-4-4-|4-3-3-3-0-0-----|
E|----------------|----------------|----------------|------------4-4-|
 |                                                                   |
E|10----9-----7---|--5-------------|----------------|----------------|
B|12----11----9---|--7-----9---7---|9-----7---------|----------------|
G|----------------|--------9---7---|9-----7-----9---|--7-----6---4---|
D|----------------|----------------|------------11--|--9-----7---6---|
A|----------------|----------------|----------------|----------------|
E|----------------|----------------|----------------|----------------|

E|----------------|----------------|----------------|----------------|
B|----------------|----------------|----------------|----------------|
G|----------------|----------------|----------------|----------------|
D|----------------|----------------|----------------|----------------|
A|----------------|----------------|----------------|----------------|
E|2---------------|(2)-------------|0---------------|(0)-------------|
 |                                                                   |
E|----------------|----------------|----------------|----------------|
B|----------------|----------------|----------------|----------------|
G|6---6-----------|(6)-------------|----------------|----------------|
D|4---4-----------|(4)-------------|----------------|----------------|
A|----------------|----------------|----------------|----------------|
E|----------------|----------------|4---------------|(4)-------------|

E|----------------|----------------|----------------|----------------|
B|----------------|----------------|----------------|----------------|
G|----------------|----------------|----------------|----------------|
D|----------------|----------------|----------------|----------------|
A|4---4-5-----2---|4---4-5-----2---|4---4-5-----2---|4---4-5-----2---|
E|2---2-3-----0---|2---2-3-----0---|2---2-3-----0---|2---2-3-----0---|

E|----------------|----------------|----------------|----------------|
B|----------------|----------------|----------------|----------------|
G|----------------|----------------|----------------|----------------|
D|----------------|----------------|----------------|----------------|
A|4---4-5-----2---|4---4-5-----2---|4---4-5-----2---|4---4-5-----2---|
E|2---2-3-----0---|2---2-3-----0---|2---2-3-----0---|2---2-3-----0---|

E|----------------|----------------|----------------|----------------|
B|----------------|----------------|----------------|----------------|
G|----------------|----------------|----------------|----------------|
D|----------------|----------------|----------------|----------------|
A|4---4-5-----2---|4---4-5-----2---|4---4-5-----2---|4---4-5-----2---|
E|2---2-3-----0---|2---2-3-----0---|2---2-3-----0---|2---2-3-----0---|

E|----------------|----------------|----------------|----------------|
B|----------------|----------------|----------------|----------------|
G|----------------|----------------|----------------|----------------|
D|----------------|----------------|----------------|----------------|
A|4---4-5-----2---|4---4-5-----2---|4---4-5-----2---|4---4-5-----2---|
E|2---2-3-----0---|2---2-3-----0---|2---2-3-----0---|2---2-3-----0---|

E|----------------|----------------|----------------|----------------|
B|----------------|----------------|----------------|----------------|
G|----------------|----------------|----------------|----------------|
D|2---2-2-2---2-2-|2-2-2-2-----2---|----2-2-2---2-2-|2-2-2-2-----2---|
A|0---0-0-0---0-0-|0-0-0-0-----0---|----0-0-0---0-0-|0-0-0-0-----0---|
E|----------------|----------------|----------------|----------------|
 |                                                                   |
E|----------------|----------------|----------------|------2---------|
B|----------------|------2---------|----------------|2-2-2-----------|
G|----------------|2-2-2-----------|--------4-4-4-4-|----------------|
D|0---0-0-4-4-4-4-|------------0---|--0-0-0---------|------------0---|
A|----------------|----------------|----------------|----------------|
E|----------------|----------------|----------------|----------------|

E|----------------|----------------|----------------|----------------|
B|----------------|----------------|----------------|----------------|
G|----------------|----------------|----------------|----------------|
D|----2-2-2---2---|2-2-2-2-----2---|----2-2-2---2-2-|2-2-2-2---------|
A|----0-0-0---0---|0-0-0-0-----0---|----0-0-0---0-0-|0-0-0-0---------|
E|----------------|----------------|----------------|----------------|
 |                                                                   |
E|----------------|----------------|----------------|----------------|
B|----------------|----------------|----------------|----------------|
G|----------------|------2---------|----------------|------2---------|
D|----------------|2-2-2-----------|----------------|2-2-2-----------|
A|--0-0-0-4-4-4-4-|------------0---|--0-0-0-4-4-4-4-|----------------|
E|----------------|----------------|----------------|----------------|



Baby Come On Home:


Standard Tuning

E|------------|------------|------------|------------|
B|------------|------------|------------|------1-----|
G|------------|------0-----|------0---3-|----0---0---|
D|------------|----1---1---|----1---1-3-|--2-------2-|
A|------------|--3-------3-|--3-------5-|3-----------|
E|------------|4-----------|4-----------|------------|

E|------------|------------|------------|------------|
B|------------|--------1---|--------1---|------------|
G|--454-------|------0-----|------0---0-|------0-----|
D|-0---5--020-|----2-------|----2-------|--------0---|
A|2-----2----2|--3---------|--3---------|----2-----2-|
E|------------|------------|------------|------------|

E|------------|------------|------------|------------|
B|------------|------------|------------|------------|
G|------0-----|------------|------------|------0-----|
D|----0---0---|------3-----|------3-----|----1---1---|
A|--2---------|--0-3-------|--0-3---3---|--3-------3-|
E|3---------3-|1-----------|1---------1-|4-----------|

E|------------|------------|------------|------------|
B|------------|------1-----|------1-----|------------|
G|------1-----|----0---0---|----0---0---|------0-----|
D|----1-------|--2-------2-|--2-------2-|----0---0---|
A|--3-----3-3-|3-----------|3-----------|--2-------2-|
E|3-------3-3-|------------|------------|3-----------|

E|------------|------------|------------|------------|
B|------------|------------|------------|------------|
G|------0-----|------------|------------|------0-----|
D|----0---0---|------3-----|------3-----|----1---1---|
A|--2-------2-|--0-3---3-0-|0-0-3---0-2-|--3-------3-|
E|3-----------|1-----------|1-----------|4-----------|

E|------------|------------|------------|------------|
B|------------|------------|------------|------------|
G|------------|0-----0-----|0-----0-----|------------|
D|----1-0-----|2-----2-----|2-----2-----|------------|
A|3-3-------1-|3-----3-----|3-----3-----|--0-3-------|
E|4-----------|------------|------------|1-----------|
               Babe  Babe   Babe  Babe   come on home

E|------------|------------|------------|------------|
B|------------|------------|------1-----|------------|
G|------0-----|------------|----0---0---|--454-0-----|
D|----0---0---|------------|--2-------2-|-0---0-020--|
A|--2-------2-|-3----------|3-----------|2---------2-|
E|3-----------|15----------|------------|-----------3|

E|------------|------------|------------|------------|
B|------1-----|------1-----|------------|------------|
G|----0---0---|----0---0---|------0-----|------0-----|
D|--2-------2-|--2-------2-|----0---0---|----0---0---|
A|3-----------|------------|--2-------2-|--2-------2-|
E|------------|------------|3-----------|3-----------|

E|------------|------------|------------|------------|
B|------------|------------|------------|------------|
G|------------|------------|------0-----|------0-----|
D|------3-----|------3-----|----1---1---|----1---1-0-|
A|--0-3---3---|--0-3---3---|--3-------3-|--3---------|
E|1---------1-|1---------1-|4-----------|4-----------|

E|------------|------------|------------|------------|
B|------1-----|------------|------------|------------|
G|----0---0---|------0-----|------0-----|------------|
D|--2-------2-|----0---0---|----0---0---|------3-----|
A|3-----------|--2-------2-|--2---------|--0-3---3-0-|
E|------------|3-----------|3---------3-|1-----------|

E|------------|------------|------------|------------|
B|------------|------------|------------|------------|
G|------------|------0-----|------0-----|0-----0-----|
D|------3-----|----1---1---|----1---1-01|2-----2-----|
A|--0-3---3---|--3-------3-|--3---------|3-----3-----|
E|1---------1-|4-----------|4-----------|------------|
                                         Babe  Babe

E|------------|------------|------------|------------|
B|------------|------------|------------|------------|
G|0-----0-----|2-----------|------------|------0-----|
D|2-----2-----|3-----------|------------|----0---0---|
A|3-----3-----|3-----------|------------|--2-------2-|
E|------------|1-----------|------------|3-----------|
  Please come on home...

E|------------|------------|------------|------------|
B|------------|------1-----|------0-----|------------|
G|------------|----0---0---|----0---0---|0-----0-----|
D|------------|--2-------2-|--0---------|2-----2-----|
A|--0---3-0---|3-----------|2---------2-|3-----3-----|
E|1-----------|------------|------------|------------|
                                         Babe  Babe

E|------------|------------|------------|------------|
B|------------|------------|------------|------------|
G|0-----0-----|2-----------|------------|------0-----|
D|2-----2-----|3-----------|------------|----0---0---|
A|3-----3-----|3-----------|------------|--2-------2-|
E|------------|1-----------|------------|3-----------|
  Come on home....
E|------------|------------|------------|------------|
B|------------|------1-----|------------|------1-----|
G|------------|----0---0---|----0---0---|----0---0---|
D|------------|--2-------2-|--0-------0-|--2-------2-|
A|0-3---------|3-----------|2-----2-----|3-----------|
E|------------|------------|------------|------------|

E|------------|------------|------------|------------|
B|------1-----|------------|------------|------------|
G|----0---0---|------0-----|------0-----|------------|
D|--2-------2-|----0---0---|----0-------|------3-----|
A|3-----------|--2-------2-|--2-----3-2-|--0-3---3-0-|
E|------------|3-----------|------------|1-----------|

E|------------|------------|------------|------------|
B|------------|------------|------1-----|------1-----|
G|------------|------0-----|----0---0---|----0---0---|
D|------3-----|----1---1---|--2-------2-|--2-------2-|
A|--0-3---3-0-|--3-------3-|3-----------|3-----------|
E|1-----------|4-----------|------------|------------|

E|------------|------------|------------|------------|
B|------------|------------|------------|------------|
G|------0-----|------0-----|------------|------------|
D|----0---0---|----0---0---|------3-----|------3-----|
A|--2-------2-|--2-------2-|--0-3---3-0-|--0-3---3-0-|
E|3-----------|------------|1-----------|1-----------|

E|------------|------------|------------|------------|
B|------------|------------|------------|------------|
G|------0-----|------0-----|0-----0-----|0-----0-----|
D|----1---1---|----1---1-3-|2-----2-----|2-----2-----|
A|--3-------3-|--3---------|3-----3-----|3-----3-----|
E|4-----------|4-----------|------------|------------|

E|------------|------------|------------|------------|
B|------------|------------|------------|------------|
G|2-----------|------------|------0-----|------------|
D|3-----------|------3-----|----0---0---|------3-----|
A|3-----3-0---|--0-3---3-0-|--2-------2-|--0-3---3-0-|
E|1---------1-|1-----------|3-----------|1-----------|

E|------------|------------|------------|------------|
B|------1-----|------------|------------|------------|
G|----0---0---|------0-----|0-----0-----|0-----0-----|
D|--2-------2-|----0---0---|2-----2-----|2-----2-----|
A|3-----------|--2-------2-|3-----3-----|3-----3-----|
E|------------|3-----------|------------|------------|

E|------------|------------|------------|------------|
B|------------|------------|------------|------------|
G|------------|------------|------0-----|------------|
D|3-----3-----|------3-----|----0---0---|------3-----|
A|----0---0---|--0-3---3-0-|--2-------2-|--0-3---3-0-|
E|1-----------|1-----------|3-----------|1-----------|

E|------------|------------|------------|------------|
B|------------|------0-----|------------|------------|
G|--------0---|----0---0---|0-----0-----|0-----0-----|
D|--2-------2-|--0-------0-|2-----2-----|2-----2-----|
A|3-----------|2-----------|3-----3-----|3-----3-----|
E|------------|------------|------------|------------|

E|------------|------------|------------|------------|
B|------------|------------|------0-----|------------|
G|------------|------2-----|----0---0---|----2-------|
D|3-----3-----|----3---3---|---0------0-|--3---3---3-|
A|----0---3-0-|0-3-------3-|02----------|0-------3---|
E|1-----------|------------|------------|------------|



  Second guitar part that comes in at approx. 02:50
E|------------|------------|------------|------------|
B|--3535353535|5-----------|---------3--|------------|
G|------------|------------|----------54|5-----------|
D|------------|------------|------------|------------|
A|------------|------------|------------|------------|
E|------------|------------|------------|------------|

E|------------|--------4-2-|------------|------------|
B|------------|-------5---4|-5----------|------------|
G|------------|------6-----|6-----6-6-67|5-----------|
D|------------|------------|-------6-6--|------------|
A|------------|------------|------------|------------|
E|------------|------------|------------|------------|

E|------------|------------|------------|------------|
B|---------353|5-3---------|--------3-5-|------------|
G|------------|------------|--------44-4|5-----------|
D|------------|------------|--575-57----|------------|
A|------------|------------|57---7------|------------|
E|------------|------------|------------|------------|

E|------------|------------|----4543----|------------|
B|------343434|34---34343-4|34------6---|------35----|
G|------------|------------|--5------75-|5-----------|
D|------------|------------|-----------7|------------|
A|------------|------------|------------|------------|
E|------------|------------|------------|------------|

E|------------|-----------0|------------|3-----------|
B|35----35----|--3---1-----|------------|------------|
G|------------|----2-----2-|-----------2|4-----------|
D|------------|------------|----------2-|------------|
A|------------|------------|------------|------------|
E|------------|------------|------------|------------|

E|------------|------------|------------------------|
B|6-----------|------------|------------------------|
G|------------|------------|-----------------------0|
D|------------|------------|----------------1332-23-|
A|------------|------------|------------3--3----3---|
E|------------|------------|------134-34--5---------|

E|------------|------------|------------|------------|
B|------------|------------|------------|------------|
G|45----35----|35----35----|3-1---------|------------|
D|------------|------------|------------|------------|
A|------------|------------|------------|------------|
E|------------|------------|------------|------------|

E|------------|------------|------------|-------------------358--|
B|------------|------------|------------|------------1-1-1-35--10|
G|------------|------------|------------|------0---2--2-2--------|
D|------------|------------|------------|-----2------------------|
A|------------|------------|------------|3-335-------------------|
E|------------|------------|------------|------------------------|

E|-5----------|------------|------------|------------|
B|------------|------------|------------|------------|
G|5-----------|------------|------------|------------|
D|------------|------------|------------|------------|
A|------------|------------|------------|------------|
E|------------|------------|------------|------------|

E|------------|------------|------------|
B|------------|------------|------------|
G|------------|------------|------------|
D|------------|------------|------------|
A|------------|------------|------------|
E|------------|------------|------------|



Travelling Riverside Blues:



EADGBD (low to high) Tuning

D|-/12-12-12-12-12\-0-0-3-5-3-0-|-----0-----0-----0-----0-------|
B|-/12-12-12-12-12\-0-0-3-5-3-0-|---0-----0-----0-----0---------|
G|-/12-12-12-12-12\-0-0-3-5-3-0-|-------------------------------|
D|-/12-12-12-12-12\-0---3-5-3-0-|-3-----2-----0-----------------|
A|------------------------------|-------------------3-----1-2---|
E|------------------------------|-----------------------------3-|

D|-/12-12-12-12-12\-0-0-3-5-3-0-|-----0-----0-----0-----0-------|
B|-/12-12-12-12-12\-0-0-3-5-3-0-|---0-----0-----0-----0---------|
G|-/12-12-12-12-12\-0-0-3-5-3-0-|-------------------------------|
D|-/12-12-12-12-12\-0---3-5-3-0-|-3-----2-----0---------------0-|
A|------------------------------|-------------------3-----1-2---|
E|------------------------------|-------------------------------|

D|-/12-12-12-12-12\-0-0-3-5-3-0-|-----0-----0-----0-----0-------|
B|-/12-12-12-12-12\-0-0-3-5-3-0-|---0-----0-----0-----0---------|
G|-/12-12-12-12-12\-0-0-3-5-3-0-|-------------------------------|
D|-/12-12-12-12-12\-0---3-5-3-0-|-3-----2-----0---------------0-|
A|------------------------------|-------------------3-----1-2---|
E|------------------------------|-------------------------------|

D|-/12-12-12-12-12\-0-0-3-5-3-0-|-----0-----0-----0-----0-------|
B|-/12-12-12-12-12\-0-0-3-5-3-0-|---0-----0-----0-----0---------|
G|-/12-12-12-12-12\-0-0-3-5-3-0-|-------------------------------|
D|-/12-12-12-12-12\-0---3-5-3-0-|-3-----2-----0---------------0-|
A|------------------------------|-------------------3-----1-2---|
E|------------------------------|-------------------------------|


E| -------------3--|-------------3--|-------------3--|-------------3--|
B| -------------3--|-------------3--|-------------3--|-------------3--|
G|o0---0---0----0--|0---0---0----0--|0---0---0----0--|0---0---0----0--|
D|o0-002-223-3320--|0-002-223-3320--|0-002-223-3320--|0-002-223-3320--|
A| ----------------|----------------|----------------|----------------|
E| ----------------|----------------|----------------|----------------|
  Now sweet Mama, let me.....
  See my baby, tell her.....

E|--------5---55--|5-------5---55--|----------------|-------------3--|
B|--------5---55--|5-------5---55--|-------------3--|-------------3--|
G|----5--55---55--|555-5---5---55--|0---0---0----0--|0---0---0----0--|
D|----------------|----------------|0-002-223-3320--|0-002-223-3320--|
A|57--------------|----------------|----------------|----------------|
E|----------------|----------------|----------------|----------------|

E|--0-0-0-0-0-0---|--5---5-5-0-3-3-|0-0-------0--0--|--0---0-----0---|
B|--1-0-1-0-0-1---|--5---5-5-0-3-3-|0-0--3--3-------|3---------------|
G|--2-2-2-2-2-2---|--5---5-5-0-3-3-|0-0-------------|----------------|
D|--0-0-0---------|----------------|--0-3---2-2-1-1-|0-----0-----0---|
A|----------------|----------------|----------------|----------------|
E|----------------|----------------|----------------|----35----------|

D|-/12-12-12-12-12\-0-0-3-5-3-0-|-----0-----0-----0-----0-------|
B|-/12-12-12-12-12\-0-0-3-5-3-0-|---0-----0-----0-----0---------|
G|-/12-12-12-12-12\-0-0-3-5-3-0-|-------------------------------|
D|-/12-12-12-12-12\-0---3-5-3-0-|-3-----2-----0---------------0-|
A|------------------------------|-------------------3-----1-2---|
E|------------------------------|-------------------------------|

D|-/12-12-12-12-12\-0-0-3-5-3-0-|-----0-----0-----0-----0-------|
B|-/12-12-12-12-12\-0-0-3-5-3-0-|---0-----0-----0-----0---------|
G|-/12-12-12-12-12\-0-0-3-5-3-0-|-------------------------------|
D|-/12-12-12-12-12\-0---3-5-3-0-|-3-----2-----0---------------0-|
A|------------------------------|-------------------3-----1-2---|
E|------------------------------|-------------------------------|

D|-/12-12-12-12-12\-0-0-3-5-3-0-|-----0-----0-----0-----0-------|
B|-/12-12-12-12-12\-0-0-3-5-3-0-|---0-----0-----0-----0---------|
G|-/12-12-12-12-12\-0-0-3-5-3-0-|-------------------------------|
D|-/12-12-12-12-12\-0---3-5-3-0-|-3-----2-----0---------------0-|
A|------------------------------|-------------------3-----1-2---|
E|------------------------------|-------------------------------|
                                 ________________________________
                                |1.2.                            |
D|-/12-12-12-12-12\-0-0-3-5-3-0-|-----0-----0-----0-----0------- |
B|-/12-12-12-12-12\-0-0-3-5-3-0-|---0-----0-----0-----0--------- |
G|-/12-12-12-12-12\-0-0-3-5-3-0-|-------------------------------o|
D|-/12-12-12-12-12\-0---3-5-3-0-|-3-----2-----0---------------0-o|
A|------------------------------|-------------------3-----1-2--- |
E|------------------------------|------------------------------- |

E|-------------3--|-------------3--|-------------3--|-------------3--|
B|-------------3--|-------------3--|-------------3--|-------------3--|
G|0---0---0----0--|0---0---0----0--|0---0---0----0--|0---0---0----0--|
D|0-002-223-3320--|0-002-223-3320--|0-002-223-3320--|0-002-223-3320--|
A|----------------|----------------|----------------|----------------|
E|----------------|----------------|----------------|----------------|
  I'm goin' to Rosedale.....

E|--------5---55--|5-------5---55--|----------------|-------------3--|
B|--------5---55--|5-------5---55--|-------------3--|-------------3--|
G|----5--55---55--|555-5---5---55--|0---0---0----0--|0---0---0----0--|
D|----------------|----------------|0-002-223-3320--|0-002-223-3320--|
A|57--------------|----------------|----------------|----------------|
E|----------------|----------------|----------------|----------------|

E|--0-0-0-0-0-0---|--5---5-5-0-3-3-|0-0-------0--0--|--0---0-----0---|
B|--1-0-1-0-0-1---|--5---5-5-0-3-3-|0-0--3--3-------|3---------------|
G|--2-2-2-2-2-2---|--5---5-5-0-3-3-|0-0-------------|----------------|
D|--0-0-0---------|----------------|--0-3---2-2-1-1-|0-----0-----0---|
A|----------------|----------------|----------------|----------------|
E|----------------|----------------|----------------|----35----------|

D|-/12-12-12-12-12\-0-0-3-5-3-0-|-----0-----0-----0-----0-------|
B|-/12-12-12-12-12\-0-0-3-5-3-0-|---0-----0-----0-----0---------|
G|-/12-12-12-12-12\-0-0-3-5-3-0-|-------------------------------|
D|-/12-12-12-12-12\-0---3-5-3-0-|-3-----2-----0---------------0-|
A|------------------------------|-------------------3-----1-2---|
E|------------------------------|-------------------------------|

D|-/12-12-12-12-12\-0-0-3-5-3-0-|-----0-----0-----0-----0-------|
B|-/12-12-12-12-12\-0-0-3-5-3-0-|---0-----0-----0-----0---------|
G|-/12-12-12-12-12\-0-0-3-5-3-0-|-------------------------------|
D|-/12-12-12-12-12\-0---3-5-3-0-|-3-----2-----0---------------0-|
A|------------------------------|-------------------3-----1-2---|
E|------------------------------|-------------------------------|

D|-/12-12-12-12-12\-0-0-3-5-3-0-|-----0-----0-----0-----0-------|
B|-/12-12-12-12-12\-0-0-3-5-3-0-|---0-----0-----0-----0---------|
G|-/12-12-12-12-12\-0-0-3-5-3-0-|-------------------------------|
D|-/12-12-12-12-12\-0---3-5-3-0-|-3-----2-----0---------------0-|
A|------------------------------|-------------------3-----1-2---|
E|------------------------------|-------------------------------|

D|-/12-12-12-12-12\-0-0-3-5-3-0-|-----0-----0-----0-----0---0-0-|
B|-/12-12-12-12-12\-0-0-3-5-3-0-|---0-----0-----0-----0---------|
G|-/12-12-12-12-12\-0-0-3-5-3-0-|-------------------------------|
D|-/12-12-12-12-12\-0---3-5-3-0-|-3-----2-----0-----------------|
A|------------------------------|-------------------3-----2-----|
E|------------------------------|-------------------------------|

  Guitar Solo
E|--------------------------------|----------------------12--------|
B|--------------------------------|--------------13--14------------|
G|151412--12----16--1412--12----14|151412--121416----------12----16|
D|------14--------------14--------|------14------------------------|
A|--------------------------------|--------------------------------|
E|--------------------------------|--------------------------------|

E|--------------------------------|------------------12------------|
B|--------------------------------|--------------------151715------|
G|--1412--12----15--1412--12----16|--1412--1214--1416--------12----|
D|------14--------------14--------|------14------------------------|
A|--------------------------------|--------------------------------|
E|--------------------------------|--------------------------------|

E|--------------------------------|------------5-3-----------------|
B|--------------------------------|----------3----363-3------------|
G|15------------------------------|--------7---------6--6-5-3---3--|
D|--------------------------------|---------------------------5----|
A|--------------------------------|--------------------------------|
E|--------------------------------|--------------------------------|

E|----------5---------------------|--------------------------------|
B|--------------------------------|------3-------------------8-1010|
G|5---7-------5-7---------753---3-|4-------------------7---9-------|
D|----------------------------5---|--------------------------------|
A|--------------------------------|--------------------------------|
E|--------------------------------|--------------------------------|

E|--------------------------------|--12------------------------------|
B|128-10------------------------17|----1413111311--------------------|
G|------9-----7---7---------12----|--------------1412--1412--12--1214|
D|--------------10--------14------|------------------14----14--14----|
A|--------------------------------|----------------------------------|
E|--------------------------------|----------------------------------|
                                                       \--3-/
E|--------------------------------|--------------------------------------------------|
B|------3-6-3---363---------------|--------------------------------------------------|
G|----7------7-----553535-3-------|------------------------------3-5-3-5-3-3-3---5---|
D|--------------------------53----|----------------3-5-3---3-4-5---------------------|
A|----------------------------535-|3-1-------1-5---------5---------------------------|
E|--------------------------------|----3-3-------------------------------------------|
          \--3-/                   \--3-/\--3-/\--3-/\--3-/\--3-/\--3-/\--3-/\--3----|

D|-/12-12-12-12-12\-0-0-3-5-3-0-|-----0-----0-----0-----0-------|
B|-/12-12-12-12-12\-0-0-3-5-3-0-|---0-----0-----0-----0---------|
G|-/12-12-12-12-12\-0-0-3-5-3-0-|-------------------------------|
D|-/12-12-12-12-12\-0---3-5-3-0-|-3-----2-----0---------------0-|
A|------------------------------|-------------------3-----1-2---|
E|------------------------------|-------------------------------|

D|-/12-12-12-12-12\-0-0-3-5-3-0-|-----0-----0-----0-----0-------|
B|-/12-12-12-12-12\-0-0-3-5-3-0-|---0-----0-----0-----0---------|
G|-/12-12-12-12-12\-0-0-3-5-3-0-|-------------------------------|
D|-/12-12-12-12-12\-0---3-5-3-0-|-3-----2-----0---------------0-|
A|------------------------------|-------------------3-----1-2---|
E|------------------------------|-------------------------------|

D|-/12-12-12-12-12\-0-0-3-5-3-0-|-----0-----0-----0-----0-------|
B|-/12-12-12-12-12\-0-0-3-5-3-0-|---0-----0-----0-----0---------|
G|-/12-12-12-12-12\-0-0-3-5-3-0-|-------------------------------|
D|-/12-12-12-12-12\-0---3-5-3-0-|-3-----2-----0---------------0-|
A|------------------------------|-------------------3-----1-2---|
E|------------------------------|-------------------------------|

D|-/12-12-12-12-12\-0-0-3-5-3-0-|-----0-----0-----0-----0-------|
B|-/12-12-12-12-12\-0-0-3-5-3-0-|---0-----0-----0-----0---------|
G|-/12-12-12-12-12\-0-0-3-5-3-0-|-------------------------------|
D|-/12-12-12-12-12\-0---3-5-3-0-|-3-----2-----0---------------0-|
A|------------------------------|-------------------3-----1-2---|
E|------------------------------|-------------------------------|

E|-------------3--|-------------3--|-------------3--|-------------3--|
B|-------------3--|-------------3--|-------------3--|-------------3--|
G|0---0---0----0--|0---0---0----0--|0---0---0----0--|0---0---0----0--|
D|0-002-223-3320--|0-002-223-3320--|0-002-223-3320--|0-002-223-3320--|
A|----------------|----------------|----------------|----------------|
E|----------------|----------------|----------------|----------------|
  Squeeze my lemon till the juice.....

E|--------5---55--|5-------5---55--|----------------|-------------3--|
B|--------5---55--|5-------5---55--|-------------3--|-------------3--|
G|----5--55---55--|555-5---5---55--|0---0---0----0--|0---0---0----0--|
D|----------------|----------------|0-002-223-3320--|0-002-223-3320--|
A|57--------------|----------------|----------------|----------------|
E|----------------|----------------|----------------|----------------|

E|--0-0-0-0-0-0---|--5---5-5-0-3-3-|0-0-------0--0--|--0---0-----0---|
B|--1-0-1-0-0-1---|--5---5-5-0-3-3-|0-0--3--3-------|3---------------|
G|--2-2-2-2-2-2---|--5---5-5-0-3-3-|0-0-------------|----------------|
D|--0-0-0---------|----------------|--0-3---2-2-1-1-|0-----0-----0---|
A|----------------|----------------|----------------|----------------|
E|----------------|----------------|----------------|----35----------|

D| -/12-12-12-12-12\-0-0-3-5-3-0-|-----0-----0-----0-----0-------|
B| -/12-12-12-12-12\-0-0-3-5-3-0-|---0-----0-----0-----0---------|
G|o-/12-12-12-12-12\-0-0-3-5-3-0-|-------------------------------|
D|o-/12-12-12-12-12\-0---3-5-3-0-|-3-----2-----0---------------0-|
A| ------------------------------|-------------------3-----1-2---|
E| ------------------------------|-------------------------------|

D|-/12-12-12-12-12\-0-0-3-5-3-0-|-----0-----0-----0-----0------- |
B|-/12-12-12-12-12\-0-0-3-5-3-0-|---0-----0-----0-----0--------- |
G|-/12-12-12-12-12\-0-0-3-5-3-0-|-------------------------------o| repeat ad lib
D|-/12-12-12-12-12\-0---3-5-3-0-|-3-----2-----0---------------0-o| to fade
A|------------------------------|-------------------3-----1-2--- |
E|------------------------------|------------------------------- |



White Summer/Black Mountainside:



DADGAD (low to high) Tuning

  o   o   o            o            3/4 time          4/4 time         9/8 time
D|12--7---5-------|----------------|-----------0-----|----------------|------------------|
A|12--7---5-------|-------------0--|-----------0-----|----------------|--------------2---|
G|12--7---5-------|0---12-------020|--0245-420220-020|-02454202-2-20--|------------------|
D|12--7---5----024|----------------|4----------0-4---|4---------0---20|2--22-4--44-------|
A|----------------|----------------|-----------0-----|----------0-----|3---3-5---5-3-2---|
D|----------------|--------3-5-----|-----------0-----|----------0-----|------------------|
               \3/              \3/   \3/  \3/    \3/  \3/ \3/

  12/8 time                4/4 time                                            3/4 time
D|------------4-5-4-8-7-12|10--------------|-----------------|----------------|------------|
A|------------------------|--------------0-|----0---0--------|----------------|0---202-2-0-|
G|------------------------|-------------2--|2---4---5--5-5757|7-77-77---7-5---|-----------0|
D|----0-24242-4-5-4-8-7-12|10-------------0|------------0----|----------------|------------|
A|--0---------------------|----------------|-----------------|----------------|------------|
D|0-----------------------|----------------|-----------------|----------------|------------|

  2/4 time         3/4 time         4/4 time
D|----------0-----|----------------|404-404-404----0|----------------|------------------|
A|----------0-----|----------------|0-------0-----0-|----0---0-------|------------------|
G|-02454202-2-----|---0200245-4202-|2------------2--|2---4---5--5--57|7---7---7----754--|
D|4---------0-----|024-------------|0---------------|------------0---|------------------|
A|----------0-----|----------------|0---------------|----------------|------------------|
D|----------0-----|----------------|0---------------|----------------|------------------|
   \3/ \4/         \---9----/ \3/                                                  \3---|

  3/4 time         2/4 time   3/4 time                       10/16 time
D|----------------|----------|----------------|-----------0-|----------|
A|----------------|----------|-------------0--|-----------0-|----------|
G|5-7545-7545-7-9-|7545754542|42024--------020|--0245-420-2-|---020-024|
D|----------------|----------|----------------|4----------0-|024---4---|
A|----------------|----------|----------------|-----------0-|----------|
D|----------------|----------|------3535------|-----------0-|----------|
    \3/            \3/    \3/  \3/  \3/    \3/   \3/  \3/

  3/4 time             o                               9/8 time           2/4 time 4/4 time
D|-------0--------|----------------|------------0-----|------------------|--------|----------------||
A|-------0--------|----12-------0--|------------0-----|-----------------2|020-----|----0-----------||
G|5-4202-2--------|0---12-------020|--0245-4202-2-20--|------------0-4---|----020-|----2-----------||
D|-------0-----024|----------------|4-----------0---20|---2-----4--2-5---|4---2---|----4-------024-||
A|-------0--------|----------------|------------0-----|3---3-5---5-------|--------|----0-----------||
D|-------0--------|--------3-5-----|------------0-----|------------------|--------|0---------------||
    \3/        \3/              \3/   \3/  \3/

D| 0-----0-----0---|0-----0-----0---|----------------|----------------|
A| ----0------0----|---0-----0------|----------------|----------------|
G|o0-20--0--20-0---|02----2-----20--|----------------|-------2----2-4-|
D|o----4------4--4-|----0-----0---20|---2-----4------|----4-----------|
A| ----------------|----------------|3---3-5---5-3-2-|0---------------|
D| ----------------|----------------|----------------|--------0-------|

D|0-----0---------|0-20--0-20------|0-----0-----0---|0--0-----0-0----|
A|--30-----0------|----------------|--0-------------|--0-----0-------|
G|5-----5-7---5-2-|4-----4-----40--|0-20--0-20--0---|02----2-----2-4-|
D|----0-----0-----|----0-----0---4-|----4-----4---4-|----0-----0-----|
A|----------------|----------------|----------------|----------------|
D|----------------|----------------|----------------|----------------|

D|0-----0---------|0-20--0-20------|0-----0-----0---|0--0--0--------0|
A|--30-----0------|----------------|--0-----0-------|--0---0---------|
G|5-----5-7---5-2-|4-----4-----40--|0-20--0-20--0---|02--------------|
D|----0-----0-----|----0-----0---4-|----4-----4---4-|----0----0--024-|
A|----------------|----------------|----------------|--------5-5-----|
D|----------------|----------------|----------------|----------------|

    o
D|--12------------|------0---------|----------------|----------------|
A|--12------------|---0--0--0------|----------------|----------------|
G|--12------20--0-|--------2---20--|----------------|-------2--------|
D|--12--------4---|57--------0---20|---2-----4------|----4-----------|
A|0---------------|----0-----------|3---3-4---5-3-2-|0-------0---2-0-|
D|------5---------|----------------|----------------|----------------|
                                    __________________________________
                                   |1.                                |
D|----0---0-------|----0---0-------|----0---0-------|----0---0------- |
A|----0---0-------|----0---0-------|----0---0-------|----0---0------- |
G|----------------|----------------|----------------|----------------o|
D|----4---4-------|----4---4-------|----4---4-------|----4---4---024-o|
A|------------2-0-|------------2-0-|------------2-0-|---------------- |
D|0-0-------------|0-0-------------|0-0-------------|---------------- |
  ________________
 |2.
D|--0-------------|-----------0----|----------------|----------------|--0-------------|
A|--0---0-0---0---|0---0-----------|--0---0-0---0-0-|--0-0-----------|--0---0-0---0---|
G|----------------|----------2-----|----------------|--------0-------|----------------|
D|--4---2-0---0---|2-4-2-0-24--4-4-|--0---2-4-5-4-2-|--2-242-0--0----|--4---2-0---0---|
A|----------------|----------------|----------------|------------2-0-|----------------|
D|0---------------|----------------|0---------------|----------------|0---------------|

D|-----------0----|----------------|----------------|7---7-5-3---3-5-|3---2-3---2-3-2-|
A|0---0-----------|--0---0-0---0-0-|--0-0-----------|---0-------0----|---0-----0------|
G|----------2-----|----------------|----------------|----------------|----------------|
D|2-4-2-0-24--4-4-|--0---2-4-5-4-2-|--2-242-0--02-0-|7-7--5--3-3--5--|3-3-2-3-3-2-3-2-|
A|----------------|----------------|----------------|----------------|----------------|
D|----------------|0---------------|----------------|----------------|----------------|

D|7---7-5-3---5-3-|--2-3--00---0---|--0-------------|-----------0----|----------------|
A|---0-------0----|-0--------------|--0---0-0---0---|0---0-----------|--0---0-0---0-0-|
G|----------------|----------------|----------------|----------2-----|----------------|
D|7-7--5--3-3-5-3-|3-2-3--0020-0---|--4---2-0---0---|2-4-2-0-24--4-4-|--0---2-4-5-4-2-|
A|----------------|-----------3--3-|----------------|----------------|----------------|
D|----------------|----------------|0---------------|----------------|0---------------|
                           \3/

                                                                      3/4 time
D|----------------|----------------|----------------|----------------|------------|
A|--0-0-----------|----------------|----------------|----------------|------------|
G|----------------|----------------|----------------|----------------|------------|
D|--2-242-0---2-0-|---0-----0----0-|-------0-----0--|-0-----------0--|-----0------|
A|----------------|5-5-5-5-5-5-5---|----5-5-5-5-5-5-|5---5-------5---|--5-5---5---|
D|----------------|----------------|0-0-------------|--0---0---0---0-|0-----0---0-|

  4/4 time
D|----------------|----------------|----------------|----------------|----------------|
A|5---------------|3---------------|5---------------|3---------------|----------------|
G|0---------------|0---------------|0---------------|0---------------|---0-------0----|
D|----0-0-----0-0-|----0-0-----0-0-|----0-0-----0-0-|----0-0---------|--0-----3----30-|
A|5----5--5----5--|5----5--5----5--|5----5--5----5--|5----5--5-----0-|45----5-5--5----|
D|----------------|----------------|----------------|----------0-34--|----0-----------|

D|----------------|----------------|----------------|----------------|--------0-------|
A|30--------------|----------------|30--------------|----------------|--------0-------|
G|--20----0-------|0----0--0-------|--20----0-------|---0-------0----|---0----0-------|
D|0---3------3-0--|---3-------3-0--|0---3------3-0--|3----30-3----30-|2----3--0-------|
A|------5-5-5---5-|5-5---5-5-5---5-|------5-5-5---5-|5-5-----5-5-----|5-5---0-5-5-5-5-|
D|----------------|----------------|----------------|----------------|----------------|

D|----------------|--------0-------|4-----4-4----1--|0-----0-0----1--|4-----4-4----1--|
A|----------------|--------0-------|-----0----------|-----0----------|-----0----------|
G|---0-------0----|---0----0-------|----------------|----------------|----------------|
D|3----30-3----30-|2----3--0-------|4---4-4-4---4-1-|0---0-0-0---0-1-|4---4-4-4---4-1-|
A|5-5-----5-5-----|5-5---0-5-5-5-5-|----------------|----------------|----------------|
D|----------------|----------------|----------------|----------------|----------------|

D|0-----5-4-----8-|7---8-10---87---|8-10---87-8---10|8---7-8----1012---|1214---1210---1210|
A|-----0-------0--|---0------0----0|------0------0--|---0-----0-------0|------------------|
G|----------------|----------------|----------------|----------0-------|------0------0----|
D|0---5---4---8---|7-7-8-1010-87-7-|8-1010-87-8-8-10|8-8-7-8-8--101212-|121414-121010-1210|
A|----------------|----------------|----------------|------------------|------------------|
D|----------------|----------------|----------------|------------------|------------------|

  5/8 time      4/4 time
D|---8-10----8-|6---7-6---0-2-4-|6---7-6---7-2-4-|6---7-6---7-2-4-|0-----0-0-----0-|
A|--0------0---|---0-----0------|---0-----0------|---0-----0------|-----0-------0--|
G|-------------|----------------|----------------|----------------|----------------|
D|10-8-1010--8-|6-7---6-7---2-4-|6-7---6-7---2-4-|6-7---6-7---2-4-|0-20--0-0-20--0-|
A|-------------|----------------|----------------|----------------|----3-------3---|
D|-------------|----------------|----------------|----------------|----------------|

D|0-----0-0-----4-|0-----0-0-----0-|0-----0-0-----4-|0-----0-0-----0-|0-----0-0---8-7-|
A|-----0-------0--|-----0-------0--|-----0-------0--|-----0-------0--|-----0-------0--|
G|----------------|----------------|----------------|----------------|----------------|
D|0-20--0-0-205-4-|0-20--0-0-20--0-|0-20--0-0-205-4-|0-20--0-0-20--0-|0-20--0-0-208-7-|
A|----3-----------|----3-------3---|----3-----------|----3-------3---|----3-----------|
D|----------------|----------------|----------------|----------------|----------------|

                                       rit.
D|-----------7----|8----7--------7----|8----7--9---10-|-9--7--4--5-|-1--1---------||
A|---------0----0-|---0--------0----0-|------0--0----0|--0--0--0--0|--0--0--0-3-5-||
G|----------------|-------------------|---------------|------------|--------------||
D|----------7----8|----7--------7----8|----7--9--10---|9--7--4--5--|1--1----0-3-5-||
A|----------------|-------------------|---------------|------------|--------------||
D|----------------|-------------------|---------------|------------|--------------||
                                           \3/\3/\-3-/ \3/\3/\3/\3/ \3/\3/

D|----------------|----------------|----------------|----------------|----------------------|
A|353-------0-35--|353-------------|5---10--9109----|5---10--9109----|7---12--11--11--11----|
G|----------------|----------------|----------------|----------------|----------------------|
D|----------------|----------------|----------------|----------------|----------------------|
A|3---------0-35-3|---------------5|----10-9-------5|----10-9--------|7---12--1111--11---11-|
D|----------------|----------------|----------------|----------------|------------------0---|

D|-----------------------0---||
A|7-9-12--11--11-----11--0---||
G|---------------------------||
D|-----------------------0---||
A|7-9-12--1111--11-11--1111--||
D|----------------0------0---||

                                                                      9/8 time
D|--0-------------|--0-------------|--0-----------0-|----0-2-4-----4-|4---4---5-754-2---|
A|--------2-------|--------2-------|--------2-------|--0-------------|--5---------0-----|
G|--0--20---------|--0--20---------|--0--20---------|----------------|------------------|
D|-------4----3-0-|-------4----3-0-|-------4----3---|--0-0---0-----0-|--0-----0---------|
A|--------2-------|--------2-------|--------2-------|------4---------|------------------|
D|0-----------3---|0-----------3---|0-----------3---|0---------0-0---|0-----0---------0-|

  4/4 time                          5/8 time   4/4 time
D|0---------------|0---------------|----------|--0-------------|--0-----------0-|
A|------------0---|----3---3--3--3-|---2--2---|--------2-------|--------2-------|
G|0-20------------|----0---0--0--0-|---0--0---|--0--20-----3-0-|--0--20-----3---|
D|----4-2-0-------|----------------|----------|-------4--------|-------4--------|
A|----------------|--3---3---3--3--|3-2--2--2-|--------2---3---|--------2---3---|
D|----------0-----|----------------|----------|0---------------|0---------------|

D|--0-------------|----------------|----------------|------0---0-----|0-----0---------|
A|------------0---|----------0-0---|--------------2-|--0-------------|----------------|
G|--0-020-4545--4-|7-----7-7-----2-|4---3-4-7-------|0---------------|0-20--0-0-20----|
D|-------3--------|7-----7-7-0-4---|5---4-5-7-------|-0--3-----0-2-4-|0---4-------20--|
A|----------------|----------------|--------------2-|--2-------------|--------------3-|
D|0-----------5-5-|0---0-0---0-0-0-|0-0-0-0-0-0-0---|----3---0-------|----------------|

                                                                      9/8 time
D|--0-------------|--0-------------|--0-----------0-|----0-2-4-----4-|----4---5-754-2---|
A|--------2-------|--------2-------|--------2-------|--0-------------|--5---------0-----|
G|--0--20-------0-|--0--20---------|--0--20---------|----------------|--------0---------|
D|-------4----3---|-------4----3-0-|-------4----3---|--0-0---0-----0-|--0---------------|
A|--------2-------|--------2-------|--------2-------|------4---------|------------------|
D|------------3---|0-----------3---|0-----------3---|0---------0-0---|0-----0---------0-|

  4/4 time                          5/8 time   4/4 time
D|0---------------|0---------------|----------|--0-------------|--0-----------0-|
A|------------0---|----3---3--3--3-|---2--2---|--------2-------|--------2-------|
G|0-20------------|----0---0--0--0-|---0--0---|--0-020-----3-0-|--0-020---------|
D|----4-2-0-------|----------------|----------|-------4--------|-------4----3---|
A|----------------|--3---3---3--3--|3-2--2--2-|--------2---3---|--------2-------|
D|----------0-----|----------------|----------|0---------------|0-----------3---|

D|--0-------------|----------------|----------------|------0---0-----|0-----0---------|
A|------------0---|----------0-0---|--------------2-|--0-------------|----------------|
G|--0-020-4545--4-|7-----7-7-----2-|4---3-4-7-------|0---------------|0-20--0-0-20----|
D|-------3--------|7-----7-7-0-4---|5---4-5-7-------|-0--3-----0-2-4-|----4-------20--|
A|----------------|----------------|--------------2-|----------------|--------------3-|
D|0-------5---5-5-|0---0-0---0-0-0-|0-0-0-0-0-0-0---|----3---0-------|----------------|

D|--0-------------|--0-------------|--0-------------|--0-------------||
A|--------2-------|--------2-------|--------2-------|--------2-------||
G|--0--20-------0-|--0--20---------|--0--20---------|--0--20---------||
D|-------4----3---|-------4----3-0-|-------4----3-0-|-------4----3-0-||
A|--------2-------|--------2-------|--------2-------|--------2-------||
D|------------3---|0-----------3---|0-----------3---|0-----------3---||

  Free time
D|0---------------|0--------------------------|----------------|----------------|
A|0---------------|0--------------------------|----------------|----------------|
G|2---------------|2-----------------024202-4-|5---4---5---7---|9797976---7-----|
D|0---------------|0-----------20-024---------|--0---0---0---0-|--------0-------|
A|0---------------|0--------024--4------------|----------------|--------------0-|
D|0---------------|0-----024------------------|----------------|------------5---|
                               \3/\-5-/\3/                      \3/\3/

                                     a tempo
D|----------------|----------------||0-----0-----0---|----------------|
A|----------------|----------------||----0-----------|---0-----0------|
G|--------0-5-4---|30--------------||0-20--0-2-4-5---|020---0---------|
D|----0-2---------|--20------------||----4-----------|----4-----4-2-0-|
A|2-4-------------|----3-------5---||----------------|----------------|
D|----------------|----------------||----------------|----------------|

D|0-----0-----0---|----------------|0-----0-----0---|----------------|0-----0-----0---|
A|----0-----------|----------------|----0-----------|---0-----0------|----0-----------|
G|0-20--0-2-4-5---|----------------|0-20--0-2-4-5---|020---0---------|0-20--0-2-4-5---|
D|----4-----------|---0-----0------|----4-----------|----4-----4-2-0-|----4-----------|
A|----------------|5-5-5-5-5-5-5---|----------------|----------------|----------------|
D|----------------|--------------0-|----------------|----------------|----------------|

D|------------0-1-|4-----4-4----1--|0-----0-0----1--|4-----4-4----1--|0-----5-4-----8-|
A|----------------|-----0----------|-----0----------|-----0----------|-----0-------0--|
G|----------------|--------------1-|----------------|----------------|----------------|
D|---0-----0--0-1-|4---4-4-4---4---|0---0-0-0---0-1-|4---4-4-4---4-1-|0---5---4---8---|
A|5-5-5-5-5-5-----|----------------|----------------|----------------|----------------|
D|----------------|----------------|----------------|----------------|----------------|

D|7---8-10---8-7---|8-10---8-7-8---10|8---7-8---1012---|1214---1514---1214|---1210---1210---0-|
A|---0------0-----0|------0-------0--|---0-----0------0|------0------0----|--0------0------0--|
G|-----------------|-----------------|-----------------|------------------|-------------------|
D|7-7-8-1010-8-7-7-|8-1010-8-7-8-8-10|8-8-7-8-8-101212-|121414-151414-1214|14-121010-121010-0-|
A|-----------------|-----------------|-----------------|------------------|-------------------|
D|-----------------|-----------------|-----------------|------------------|-------------------|

  3/4 time      4/4 time
D|9---8-10---8-|9-8-8-9-8-8-9---|8-7-7-8-7-7-8---|6---7-6---7-2-4-|6---7-6---7-2-4-|
A|---0------0--|--0-----0-----0-|--0-----0-----0-|---0-----0------|---0-----0------|
G|-------------|----------------|----------------|----------------|----------------|
D|9-9-8-1010-8-|9-8-8-9-8-8-9---|8-7-7-8-7-7-8---|6-7---6-7---2-4-|6-7---6-7---2-4-|
A|-------------|----------------|----------------|----------------|----------------|
D|-------------|----------------|----------------|----------------|----------------|

D|6---7-6---7-2-4-|6---7-6---7-2-4-|0-----0-0-----0-|0-----0-0-----4-|
A|---0-----0------|---0-----0------|-----0-------0--|-----0-------0--|
G|----------------|----------------|----------------|----------------|
D|6-7---6-7---2-4-|6-7---6-7---2-4-|0-20--0-0-20--0-|0-20--0-0-205-4-|
A|----------------|----------------|----3-------3---|----3-----------|
D|----------------|----------------|----------------|----------------|

|0-----0-0-----0-|0-----0-0-----4-|
|-----0-------0--|-----0-------0--|
|----------------|----------------|
|0-20--0-0-20--0-|0-20--0-0-205-4-|
|----3-------3---|----3-----------|
|----------------|----------------|


D|0-----0-0-----0-|0-----0-0---8-7-||----7-----7-----|6-----6-----6---|5-----5-----5---|
A|-----0-------0--|-----0-------0--||8-----8-----8---|--8-----8---8---|--6-----6-------|
G|----------------|----------------||--9-----9-----9-|----0---9-0---0-|----0-----0---0-|
D|0-20--0-0-20--0-|0-20--0-0-208-7-||----------------|----------------|----------------|
A|----3-------3---|----3-----------||----------------|----------------|----------------|
D|----------------|----------------||----------------|----------------|----------------|

D|4-----4-----4---|7-----9-----7---|6-----9-9---6-5-|5-----7---5-----|4---------------||
A|5-5-----5---5---|8-8-----8-------|7-7-------------|--5---------5---|5---------------||
G|----------6-----|----9-----9-----|----------------|----------------|7---------------||
D|----0---------5-|----------0---0-|----0-----0---0-|----0---0-------|0---------------||
A|----------------|----------------|----------------|----------------|0---------------||
D|----------------|----------------|----------------|----------------|----------------||

D|----0---0-------|----0---0-------|----0---0-------|----0---0-------|
A|----0---0-------|----0---0-------|----0---0-------|----0---0-------|
G|----------------|----------------|----------------|----------------|
D|----4---4-------|----4---4-------|----4---4-------|----4---4-------|
A|------------2-0-|------------2-0-|------------2-0-|------------2-0-|
D|0-0-------------|0-0-------------|0-0-------------|----------------|

D|----0---0-------|----0---0-------|----0---0-------|----0---0-------|
A|----0---0-------|----0---0-------|----0---0-------|----0---0-------|
G|----------------|----------------|----------------|----------------|
D|----4---4-------|----4---4-------|----4---4-------|----4---4---024-|
A|------------2-0-|------------2-0-|------------2-0-|----------------|
D|0-0-------------|0-0-------------|0-0-------------|----------------|

D| 0-----0-----0---|0-----0-----0---|----------------|----------------|
A| ----0------0----|---0-----0------|----------------|----------------|
G|o0-20--0--20-0---|02----2-----20--|----------------|-------2----2-4-|
D|o----4------4--4-|----0-----0---20|---2-----4------|----4-----------|
A| ----------------|----------------|3---3-5---5-3-2-|0---------------|
D| ----------------|----------------|----------------|--------0-------|

D|0-----0---------|0-20--0-20------|0-----0-----0---|0--0-----0-0----|
A|--30-----0------|----------------|--0-------------|--0-----0-------|
G|5-----5-7---5-2-|4-----4-----40--|0-20--0-20--0---|02----2-----2-4-|
D|----0-----0-----|----0-----0---4-|----4-----4---4-|----0-----0-----|
A|----------------|----------------|----------------|----------------|
D|----------------|----------------|----------------|----------------|

D|0-----0---------|0-20--0-20------|0-----0-----0---|0--0--0--------0|
A|--30-----0------|----------------|--0-----0-------|--0---0---------|
G|5-----5-7---5-2-|4-----4-----40--|0-20--0-20--0---|02--------------|
D|----0-----0-----|----0-----0---4-|----4-----4---4-|----0----0--024-|
A|----------------|----------------|----------------|--------5-5-----|
D|----------------|----------------|----------------|----------------|

    o                               3/4 time
D|--12------------|------0---------|------------||
A|--12------------|---0--0--0------|------------||
G|--12------20--0-|--------2---20--|------------||
D|--12--------4---|57--------0---20|---2-----4--||
A|0---------------|----0-----------|3---3-5---5-||
D|------5---------|----------------|------------||

  4/4 time             vvvv---stretch behind nut       9/8 time          10-----------------------|
D|----------------|-------------0--|------------0-----|-------------------|----------5-4-7---8-7--|
A|--------020-----|----787---------|------------0-----|-------------------|-----------------------|
G|--45454---------|0-12---------020|--0245-4202-2-20--|-------------------|-----------------------|
D|2-5-----0----024|----------------|4-----------0---20|2--22-4--4-4-------|----0-24245-4-7---8-7--|
A|----------------|----------------|------------0-----|3---3-5----5-3-2---|--0--------------------|
D|----------------|--------3-5-----|------------0-----|-------------------|0----------------------|
               \3/              \3/   \3/  \3/                                   \3/ 8 time

  3/4 time     4/4 time                               3/4 time        2/4 time
D|10--1210----|-----------------|--------------------|---------------|------------|
A|----------0-|----0---0--------|7---7---7---7----754|5-7545-75457-9-|7545754542--|
G|---------2--|2---4---5--5-5757|--------------------|---------------|------------|
D|10--1210---0|------------0----|--------------------|---------------|------------|
A|------------|-----------------|--------------------|---------------|------------|
D|------------|-----------------|--------------------|---------------|------------|
                                 \-3-/   \-3-/          \3/           \3/    \3---|

  3/4 time                        10/16 time 4/4 time                      vvvv----------|stretch
D|-------------0--|--0---------0-|----------|-------------------------|-------------0----|behind
A|42024-----------|-------0----0-|----------|-------------------------|----787-----------|nut
G|-------------020|--0245-4202-2-|---020-024|5---420------------------|0-12---------020--|
D|----------------|4-----------0-|024---4---|-------420--------757-024|------------------|
A|----------------|------------0-|----------|----------420------------|------------------|
D|------3535------|------------0-|----------|-------------54205-------|--------3-5-------|
   \3/  \3/    \3/   \3/  \3/                    \3/\3/\3/\3/      \3/   \3/

  6/4 time                      9/8 time           2/4 time   4/4 time
D|--0----0---------------0-----|------------------|----------|0-------0-------|0---------------|
A|0----------------------0-----|-----------------2|020-------|0-------0-------|0---------------|
G|--0245-45404-5-7-6767677-20--|------------0-4---|-----020--|2-------2-------|2---------------|
D|4----------------------0---20|---2-----4--2-5---|4----2----|0-------0-------|0---------------|
A|-----------------------0-----|3---3-5---5-------|----------|0-------0-------|0---------------|
D|-----------------------0-----|------------------|----------|0-------0-------|0---------------|
    \3/  \3/       \3/



Hey Hey What Can I Do:



Standard Tuning

E|----------------|----------------|----------------|----------------|
B|----------------|2---------------|2-----------2-22|2-------------22|
G|----------------|2-----------2-22|2-----------2-22|2-----------2-22|
D|------------2-24|2-222-222-222-24|2-222-222-222-24|2-222-222-222-24|
A|------------340-|--000-000-00340-|--000-000-00340-|0-000-000-00340-|
E|----------------|----------------|----------------|----------------|

  3/4 time     4/4 time
E|-------3-3-0|2---------------||
B|2---2--3-3-0|3---------------||
G|2---2--4-4--|2---------------||
D|2-222225-5--|0---------------||
A|0-00000-----|----------------||
E|------------|----------------||

E| ------------2-20|2-20202-20-----0|5---4---3-332-20|202-2-----------|
B| 2---0---0---3-30|3-33333-33332122|5---5---3-333-33|333-3---2---2---|
G|o2---1---0---2-20|2-20202-20222-22|6---4---4---2-20|2-2-2---2--242--|
D|o2---2---0---4---|------------2--2|7---6---5-------|0-0-0-2-234---34|
A| 0---2-------0---|----------------|----------------|----------------|
E| ----0---3-------|----------------|----------------|----------------|
   I wanna tell you bout the girl I love.....
   On Sunday morning when we go down to church.....

                                    3/4 time     4/4 time
E|--------3-332-20|20202-22--------|5-0-4-0-2-20|2---------------|
B|2---0---3-333-33|33333-333333----|5-5-5-5-2-20|3---------------|
G|2---1---0---2-20|20202-2222222-22|6-6-4-4-2-2-|2---------------|
D|2---2---0---4---|--------00002-22|7-7-6---4-4-|0---------------|
A|0---2-----------|-------------34-|------------|----------------|
E|----0-----------|----------------|------------|----------------|

E|----0--3-2202-20|20202-202-2----0 |
B|2---2--3-3333-33|33333-333-3-2122 |
G|2---2--0-2202-22|2---2-2-----2222o| Play these two
D|2---2--0-44-4---|4-----------2-2-o| measures 4 times then
A|0---0-----------|---------------- | repeat back to beginning
E|----------------|---------------- | of verse

E|------------2-20|2-20202-20-----0|5---4---3-332-20|202-2-----------|
B|2---0---0---3-30|3-33333-33332122|5---5---3-333-33|333-3---2---2---|
G|2---1---0---2-20|2-20202-20222-22|6---4---4---2-20|2-2-2---2--242--|
D|2---2---0---4---|------------2--2|7---6---5-------|0-0-0-2-234---34|
A|0---2-------0---|----------------|----------------|----------------|
E|----0---3-------|----------------|----------------|----------------|
   And in the bars where the men play guitars.....

                                    3/4 time     4/4 time
E|--------3-332-20|20202-22--------|5-0-4-0-2-20|2---------------|
B|2---0---3-333-33|33333-333333----|5-5-5-5-2-20|3---------------|
G|2---1---0---2-20|20202-2222222-22|6-6-4-4-2-2-|2---------------|
D|2---2---0---4---|--------00002-22|7-7-6---4-4-|0---------------|
A|0---2-----------|-------------34-|------------|----------------|
E|----0-----------|----------------|------------|----------------|

E|----0--3-2202-20|20202-202-2----0|
B|2---2--3-3333-33|33333-333-3-2122|
G|2---2--0-2202-22|2---2-2-----2222| Play these two
D|2---2--0-44-4---|4-----------2-2-| measures 4 times
A|0---0-----------|----------------|
E|----------------|----------------|

E|----0--3-2202-20|20202-202020----|-------3-2202-22|2-000-222-000-222---------------|
B|2---2--3-3333-33|33333-333-332121|-------3-3333-33|3-333-333-333-333-------------2-|
G|2---2--0-2202-22|2---2-2-2-222222|-------0-2222-22|2-000-222-000-222-------------2-|
D|2---2--0-44-4---|4-----------2-2-|2---2--0-0--0-00|0-000-000-000-000-------2-----2-| repeat ad lib.
A|0---0-----------|----------------|0---0-----------|--------------------3-4-0-------| to fade
E|----------------|----------------|----------------|--------------------------------|
  Hey hey what can I do.....


1000 views - 24 February 2013
2000 views - 11 June 2013
3000 views - 29 October 2013
comments
We did not receive enough feedback on this tab! Please rate:
print report bad tab
1 2 3 4 5
I want to post or [tab]
guest
You may want to rate the tab now too:
select rating
Please do not post tabs as comments. Select "correction" instead!