Oops, an error
Loading. Please wait.

Gallows Pole Tab

ver2
ver2

Solo

Whole song

Interactive

More versions @911Tabs.com
42,995 views 6 this week
1 commentread comment
1 2 3 4 5
accurate
x 11
Autoscroll
+/-
esc
set tempo
stop
Contributor
WARNING: You are trying to view
                                    content from Ultimate-Guitar.com
                                    in an unauthorized application,
                                    which is prohibited.

                                    Please use an official Ultimate
                                    Guitar Tabs application for iPhone,
                                    iPad or Android to access legitimate
                                    chords, guitar, bass, and drum tabs
                                    from Ultimate-Guitar.com database.

                                    Type "ultimate guitar tabs" in Apple
                                    App Store's or Android Market's
                                    search to find the application.
                               Gallows Pole                                   

23/2/2005

Jimmy Page 12 String standard tuning

                                                    
E||----------------0---0--0-----|
B||-----2-0-2--2-2-1---1--1-2-3-|
G||-----0-0-0--0-0-0---0--0-0---|
D||-----2-2-2--2-2-2--------2-4-|
B||--0--------------------------|
E||-----------------------------|


                                                             
------0-0-0--0-0-0---0------5-|-----0-0-0--0-0-0---0------5-|
--3---2-2-2--2-2-1---1--1-3---|-----2-2-2--2-2-1---1--2-3---|
--0---0-0-0--0-0-0---0--0-----|-----0-0-0--0-0-0---0----0---|
--4-2-2----------2------2-4---|-----2---2--2---2------2-4---|
------------------------------|--0--------------------------|
------------------------------|-----------------------------|


                                                            
-----0-0-0--0-0-0---0------5-|-----0-0-0--0-0-0---0------5-|
-----2-2-2--2-2-1---1--2-3---|-----2-2-2--2-2-1---1--2-3---|
-----0-0-0--0-0-0---0----0---|-----0-0-0--0-0-0---0----0---|
-----2---2--2---2------2-4---|-----2---2--2---2------2-4---|
--0--------------------------|--0--------------------------|
-----------------------------|-----------------------------|


                                                                             
-----0-0-0--0-0-0---0------5-|-----0-0-0--0-0-0---0--------|--3--3-3-2--2-2-|
-----2-2-2--2-2-1---1--2-3---|-----2-2-2--2-2-1---1--2-3-3-|--0--0-0-3--3-3-|
-----0-0-0--0-0-0---0----0---|-----0-0-0--0-0-0---0----0-0-|--0--0-0-2--2-2-|
-----2---2--2---2------2-4---|-----2---2--2---2------2-4-4-|--0--0-0-0--0-0-|
--0--------------------------|--0--------------------------|--2--2-2--------|
-----------------------------|-----------------------------|--3--3-3--------|


                                                            
-----0-0-0--0-0-0---0------5-|-----0-0-0--0-0-0---0------5-|
-----2-2-2--2-2-1---1--2-3---|-----2-2-2--2-2-1---1--2-3---|
-----0-0-0--0-0-0---0----0---|-----0-0-0--0-0-0---0----0---|
-----2---2--2---2------2-4---|-----2---2--2---2------2-4---|
--0--------------------------|--0--------------------------|
-----------------------------|-----------------------------|


                                                            
-----0-0-0--0-0-0---0------5-|-----0-0-0--0-0-0---0--------|
-----2-2-2--2-2-1---1--2-3---|-----2-2-2--2-2-1---1--2-3-3-|
-----0-0-0--0-0-0---0----0---|-----0-0-0--0-0-0---0----0-0-|
-----2---2--2---2------2-4---|-----2---2--2---2------2-4-4-|
--0--------------------------|--0--------------------------|
-----------------------------|-----------------------------|


                                                                           
-----0-0-0--0-0-0---0--------|--3--3-3-2--2-2-|-----0---0-0--0---0------5-|
-----2-2-2--2-2-1---1--2-3-3-|--0--0-0-3--3-3-|-----2---0-2--1---1--------|
-----0-0-0--0-0-0---0----0-0-|--0--0-0-2--2-2-|-----0---0-0--0---0----0---|
-----2---2--2---2------2-4-4-|--0--0-0-0--0-0-|--2--2-----2--2------2-4---|
--0--------------------------|--2--2-2--------|--0------------------------|
-----------------------------|--3--3-3--------|---------------------------|


                                                             
-----0-0-0--0-0-0---0------5-|-----0-0-0--0-0-3--3-3-2--2-2-|
-----2-2-2--2-2-1---1--2-3---|-----2-0-2--2-2-0--0-0-3--3-3-|
-----0-0-0--0-0-0---0----0-0-|-----0-0-0--0-0-0--0-0-2--2-2-|
-----2---2--2---2------2-4-4-|-----2---2--2-2-0--0-0-0--0-0-|
--0--------------------------|--0-------------2--2-2--------|
-----------------------------|----------------3--3-3--------|


                                                          
-----0---0-0--0---0------5-|-----0-0-0--0-0-0---0------5-|
-----2---0-2--1---1--------|-----2-2-2--2-2-1---1--2-3---|
-----0---0-0--0---0----0---|-----0-0-0--0-0-0---0----0-0-|
--2--2-----2--2------2-4---|-----2---2--2---2------2-4-4-|
--0------------------------|--0--------------------------|
---------------------------|-----------------------------|


                                                            
-----0-0-0--0-0-0---0------5-|-----0-0-0--0-0-0---0------5-|
-----2-2-2--2-2-1---1--2-3---|-----2-2-2--2-2-1---1--2-3---|
-----0-0-0--0-0-0---0----0---|-----0-0-0--0-0-0---0----0---|
-----2---2--2---2------2-4---|-----2---2--2---2------2-4---|
--0--------------------------|--0--------------------------|
-----------------------------|-----------------------------|


                                                                             
-----0-0-0--0-0-0---0--------|--3--3-3-2--2-2-|-----0-0-0--0-0-0---0------5-|
-----2-2-2--2-2-1---1--2-3-3-|--0--0-0-3--3-3-|-----2-2-2--2-2-1---1--2-3---|
-----0-0-0--0-0-0---0----0-0-|--0--0-0-2--2-2-|-----0-0-0--0-0-0---0----0---|
-----2---2--2---2------2-4-4-|--0--0-0-0--0-0-|-----2---2--2---2------2-4---|
--0--------------------------|--2--2-2--------|--0--------------------------|
-----------------------------|--3--3-3--------|-----------------------------|


                                                             
-----0-0-0--0-0-0---0--------|--0--0-0-3--3-3-2--2-2-3--3-3-|
-----2-2-2--2-2-1---1--2-3-3-|--2--2-2-0--0-0-3--3-3-0--0-0-|
-----0-0-0--0-0-0---0----0-0-|--2--2-2-0--0-0-2--2-2-0--0-0-|
-----2---2--2---2------2-4-4-|--2--2-2-0--0-0-0--0-0-0--0-0-|
--0--------------------------|--0--0-0-2--2-2--------2--2-2-|
-----------------------------|---------3--3-3--------3--3-3-|


                                                                             
--0--0-0-2--2-2----3---3-3--|--0--0-0-3--3-3-2--2-2-3--3-3-|--3--3-3-2--2-2-|
--2--2-2-3--3-3----3---3-3--|--2--2-2-0--0-0-3--3-3-0--0-0-|--3--3-3-3--3-3-|
--2--2-2-2--2-2----0---0-0--|--2--2-2-0--0-0-2--2-2-0--0-0-|--0--0-0-2--2-2-|
--2--2-2-0--0-0----0---0-0--|--2--2-2-0--0-0-0--0-0-0--0-0-|--0--0-0-0--0-0-|
--0--0-0--------2--2---2-2--|--0--0-0-2--2-2--------2--2-2-|--2--2-2--------|
----------------3--3---3-3--|---------3--3-3--------3--3-3-|--3--3-3--------|


                                                            
------------------------------|----------------------------|
------------------------------|----------------------------|
--------------2-2-2-2-2-2-2-2-|-----2-----2--2-2-2--2-2-2--|
-----2-----2--2-2-2-2-2-2-2-2-|-----2-----2--2-2-2--2-2-2--|
-----0-----0--0-0-0-0-0-0-0-0-|-----0-----0--0-0-0--0-0-0--|
--3-----3---------------------|--3-----3-------------------|


                                                          
----------------------------|----------------------------|
----------------------------|----------------------------|
-----2-----2--2-2-2--2-2-2--|-----2-----2--2-2-2--2-2-2--|
-----2-----2--2-2-2--2-2-2--|-----2-----2--2-2-2--2-2-2--|
-----0-----0--0-0-0--0-0-0--|-----0-----0--0-0-0--0-0-0--|
--3-----3-------------------|--3-----3-------------------|


                                                                       
----------------------------|--3----2----|----------------------------|
----------------------------|--0----3----|----------------------------|
-----2-----2--2-2-2--2-2-2--|--0----2----|-----2-----2--2-2-2--2-2-2--|
-----2-----2--2-2-2--2-2-2--|--0----0----|-----2-----2--2-2-2--2-2-2--|
-----0-----0--0-0-0--0-0-0--|------------|-----0-----0--0-0-0--0-0-0--|
--3-----3-------------------|--3---------|--3-----3-------------------|


                                                          
----------------------------|----------------------------|
----------------------------|----------------------------|
-----2-----2--2-2-2--2-2-2--|-----2-----2--2-2-2--2-2-2--|
-----2-----2--2-2-2--2-2-2--|-----2-----2--2-2-2--2-2-2--|
-----0-----0--0-0-0--0-0-0--|-----0-----0--0-0-0--0-0-0--|
--3-----3-------------------|--3-----3-------------------|


                                                                       
----------------------------|----------------------------|--3----2----|
----------------------------|----------------------------|--0----3----|
-----2-----2--2-2-2--2-2-2--|-----2-----2--2-2-2--2-2-2--|--0----2----|
-----2-----2--2-2-2--2-2-2--|-----2-----2--2-2-2--2-2-2--|--0----0----|
-----0-----0--0-0-0--0-0-0--|-----0-----0--0-0-0--0-0-0--|------------|
--3-----3-------------------|--3-----3-------------------|--3---------|


                                                                        
----------------------------|----------------------------|--0---2------|
----------------------------|----------------------------|--1---3------|
-----2-----2--2-2-2--2-2-2--|-----2-----2--2-2-2--2-2-2--|--0-----2----|
-----2-----2--2-2-2--2-2-2--|-----2-----2--2-2-2--2-2-2--|--2----------|
-----0-----0--0-0-0--0-0-0--|-----0-----0--0-0-0--0-0-0--|--3----------|
--3-----3-------------------|--3-----3-------------------|-------------|


                                                          
----------------------------|----------------------------|
----------------------------|----------------------------|
-----2-----2--2-2-2--2-2-2--|-----2-----2--2-2-2--2-2-2--|
-----2-----2--2-2-2--2-2-2--|-----2-----2--2-2-2--2-2-2--|
-----0-----0--0-0-0--0-0-0--|-----0-----0--0-0-0--0-0-0--|
--3-----3-------------------|--3-----3-------------------|


                                                            
--0--0-0-3--3-3-2--2-2-3--3-3-|--0--0-0-2--2-2----3---3-3--|
--2--2-2-0--0-0-3--3-3-0--0-0-|--2--2-2-3--3-3----3---3-3--|
--2--2-2-0--0-0-2--2-2-0--0-0-|--2--2-2-2--2-2----0---0-0--|
--2--2-2-0--0-0-0--0-0-0--0-0-|--2--2-2-0--0-0----0---0-0--|
--0--0-0-2--2-2--------2--2-2-|--0--0-0--------2--2---2-2--|
---------3--3-3--------3--3-3-|----------------3--3---3-3--|


                                                                               
--0--0-0-3--3-3-2--2-2-3--3-3-|--3--3-3-2--2-2-|------------------------------|
--2--2-2-0--0-0-3--3-3-0--0-0-|--3--3-3-3--3-3-|------------------------------|
--2--2-2-0--0-0-2--2-2-0--0-0-|--0--0-0-2--2-2-|--------------2-2-2-2-2-2-2-2-|
--2--2-2-0--0-0-0--0-0-0--0-0-|--0--0-0-0--0-0-|-----2-----2--2-2-2-2-2-2-2-2-|
--0--0-0-2--2-2--------2--2-2-|--2--2-2--------|-----0-----0--0-0-0-0-0-0-0-0-|
---------3--3-3--------3--3-3-|--3--3-3--------|--3-----3---------------------|


                                                           
----------------------------|-----------------------------|
----------------------------|-----------------------------|
-----2-----2--2-2-2--2-2-2--|-----2--2-2-2--2-2-2--2-2-2--|
-----2-----2--2-2-2--2-2-2--|-----2--2-2-2--2-2-2--2-2-2--|
-----0-----0--0-0-0--0-0-0--|-----0--0-0-0--0-0-0--0-0-0--|
--3-----3-------------------|--3--------------------------|


                                                            
-----------------------------|-----------------------------|
-----------------------------|-----------------------------|
-----2--2-2-2--2-2-2--2-2-2--|-----2--2-2-2--2-2-2--2-2-2--|
-----2--2-2-2--2-2-2--2-2-2--|-----2--2-2-2--2-2-2--2-2-2--|
-----0--0-0-0--0-0-0--0-0-0--|-----0--0-0-0--0-0-0--0-0-0--|
--3--------------------------|--3--------------------------|


                                                                         
-----------------------------|--3----2----|-----------------------------|
-----------------------------|--0----3----|-----------------------------|
-----2--2-2-2--2-2-2--2-2-2--|--0----2----|-----2--2-2-2--2-2-2--2-2-2--|
-----2--2-2-2--2-2-2--2-2-2--|--0----0----|-----2--2-2-2--2-2-2--2-2-2--|
-----0--0-0-0--0-0-0--0-0-0--|--2---------|-----0--0-0-0--0-0-0--0-0-0--|
--3--------------------------|--3---------|--3--------------------------|


                                                         
-----------------------------|--------------3------2----|
-----------------------------|--------------------------|
-----2--2-2-2--2-2-2--2-2-2--|-----2--2-2-2--------2----|
-----2--2-2-2--2-2-2--2-2-2--|-----2--2-2-2--------0----|
-----0--0-0-0--0-0-0--0-0-0--|-----0--0-0-0-------------|
--3--------------------------|--3-------------3---------|


                                                            
-----------------------------|-----------------------------|
-----------------------------|-----------------------------|
-----2--2-2-2--2-2-2--2-2-2--|-----2--2-2-2--2-2-2--2-2-2--|
-----2--2-2-2--2-2-2--2-2-2--|-----2--2-2-2--2-2-2--2-2-2--|
-----0--0-0-0--0-0-0--0-0-0--|-----0--0-0-0--0-0-0--0-0-0--|
--3--------------------------|--3--------------------------|


                                                            
--0--0-0-3--3-3-2--2-2-3--3-3-|--0--0-0-2--2-2----3---3-3--|
--2--2-2-0--0-0-3--3-3-0--0-0-|--2--2-2-3--3-3----3---3-3--|
--2--2-2-0--0-0-2--2-2-0--0-0-|--2--2-2-2--2-2----0---0-0--|
--2--2-2-0--0-0-0--0-0-0--0-0-|--2--2-2-0--0-0----0---0-0--|
--0--0-0-2--2-2--------2--2-2-|--0--0-0--------2--2---2-2--|
---------3--3-3--------3--3-3-|----------------3--3---3-3--|


                                                                               
--0--0-0-3--3-3-2--2-2-3--3-3-|--3--3-3-2--2-2-|------------------------------|
--2--2-2-0--0-0-3--3-3-0--0-0-|--3--3-3-3--3-3-|------------------------------|
--2--2-2-0--0-0-2--2-2-0--0-0-|--0--0-0-2--2-2-|--------------2-2-2-2-2-2-2-2-|
--2--2-2-0--0-0-0--0-0-0--0-0-|--0--0-0-0--0-0-|-----2-----2--2-2-2-2-2-2-2-2-|
--0--0-0-2--2-2--------2--2-2-|--2--2-2--------|-----0-----0--0-0-0-0-0-0-0-0-|
---------3--3-3--------3--3-3-|--3--3-3--------|--3-----3---------------------|


                                                          
----------------------------|----------------------------|
----------------------------|----------------------------|
-----2-----2--2-2-2--2-2-2--|-----2-----2--2-2-2--2-2-2--|
-----2-----2--2-2-2--2-2-2--|-----2-----2--2-2-2--2-2-2--|
-----0-----0--0-0-0--0-0-0--|-----0-----0--0-0-0--0-0-0--|
--3-----3-------------------|--3-----3-------------------|


                                                          
----------------------------|----------------------------|
----------------------------|----------------------------|
-----2-----2--2-2-2--2-2-2--|-----2-----2--2-2-2--2-2-2--|
-----2-----2--2-2-2--2-2-2--|-----2-----2--2-2-2--2-2-2--|
-----0-----0--0-0-0--0-0-0--|-----0-----0--0-0-0--0-0-0--|
--3-----3-------------------|--3-----3-------------------|


                                                                       
----------------------------|--3----2----|----------------------------|
----------------------------|--0----3----|----------------------------|
-----2-----2--2-2-2--2-2-2--|--0----2----|-----2-----2--2-2-2--2-2-2--|
-----2-----2--2-2-2--2-2-2--|--0----0----|-----2-----2--2-2-2--2-2-2--|
-----0-----0--0-0-0--0-0-0--|--2---------|-----0-----0--0-0-0--0-0-0--|
--3-----3-------------------|--3---------|--3-----3-------------------|


                                                          
----------------------------|----------------------------|
----------------------------|----------------------------|
-----2-----2--2-2-2--2-2-2--|-----2-----2--2-2-2--2-2-2--|
-----2-----2--2-2-2--2-2-2--|-----2-----2--2-2-2--2-2-2--|
-----0-----0--0-0-0--0-0-0--|-----0-----0--0-0-0--0-0-0--|
--3-----3-------------------|--3-----3-------------------|


                                                                       
----------------------------|----------------------------|--3----2----|
----------------------------|----------------------------|--0----3----|
-----2-----2--2-2-2--2-2-2--|-----2-----2--2-2-2--2-2-2--|--0----2----|
-----2-----2--2-2-2--2-2-2--|-----2-----2--2-2-2--2-2-2--|--0----0----|
-----0-----0--0-0-0--0-0-0--|-----0-----0--0-0-0--0-0-0--|--2---------|
--3-----3-------------------|--3-----3-------------------|--3---------|


                                                          
----------------------------|----------------------------|
----------------------------|----------------------------|
-----2-----2--2-2-2--2-2-2--|-----2-----2--2-2-2--2-2-2--|
-----2-----2--2-2-2--2-2-2--|-----2-----2--2-2-2--2-2-2--|
-----0-----0--0-0-0--0-0-0--|-----0-----0--0-0-0--0-0-0--|
--3-----3-------------------|--3-----3-------------------|


                                                                       
----------------------------|--3----2----|----------------------------|
----------------------------|--0----3----|----------------------------|
-----2-----2--2-2-2--2-2-2--|--0----2----|-----2-----2--2-2-2--2-2-2--|
-----2-----2--2-2-2--2-2-2--|--0----0----|-----2-----2--2-2-2--2-2-2--|
-----0-----0--0-0-0--0-0-0--|--2---------|-----0-----0--0-0-0--0-0-0--|
--3-----3-------------------|--3---------|--3-----3-------------------|


                                                                           
--3----2----------------|--3----2----------------|--3----2----------------|
--0----3----------------|--0----3----------------|--0----3----------------|
--0----2-------2-----2--|--0----2-------2-----2--|--0----2-------2-----2--|
--0----0-------2-----2--|--0----0-------2-----2--|--0----0-------2-----2--|
--2------------0-----0--|--2------------0-----0--|--2------------0-----0--|
--3---------3-----3-----|--3---------3-----3-----|--3---------3-----3-----|


                                                                           
--3----2----------------|--3----2----------------|--3----2----------------|
--0----3----------------|--0----3----------------|--0----3----------------|
--0----2-------2-----2--|--0----2-------2-----2--|--0----2-------2-----2--|
--0----0-------2-----2--|--0----0-------2-----2--|--0----0-------2-----2--|
--2------------0-----0--|--2------------0-----0--|--2------------0-----0--|
--3---------3-----3-----|--3---------3-----3-----|--3---------3-----3-----|


                                                                           
--3----2----------------|--3----2----------------|--3----2----------------|
--0----3----------------|--0----3----------------|--0----3----------------|
--0----2-------2-----2--|--0----2-------2-----2--|--0----2-------2-----2--|
--0----0-------2-----2--|--0----0-------2-----2--|--0----0-------2-----2--|
--2------------0-----0--|--2------------0-----0--|--2------------0-----0--|
--3---------3-----3-----|--3---------3-----3-----|--3---------3-----3-----|


                                                                           
--3----2----------------|--3----2----------------|--3----2----------------|
--0----3----------------|--0----3----------------|--0----3----------------|
--0----2-------2-----2--|--0----2-------2-----2--|--0----2-------2-----2--|
--0----0-------2-----2--|--0----0-------2-----2--|--0----0-------2-----2--|
--2------------0-----0--|--2------------0-----0--|--2------------0-----0--|
--3---------3-----3-----|--3---------3-----3-----|--3---------3-----3-----|


                                                                         
--3----2----------------|--3----2----------------|--3----2--------------|
--0----3----------------|--0----3----------------|--0----3--------------|
--0----2-------2-----2--|--0----2-------2-----2--|--0----2-------2------|
--0----0-------2-----2--|--0----0-------2-----2--|--0----0-------2------|
--2------------0-----0--|--2------------0-----0--|--2------------0------|
--3---------3-----3-----|--3---------3-----3-----|--3---------3---------|
comments
print report bad tab
1 comment total. show 1 bad comment
I want to post or [tab]
guest
You may want to rate the tab now too:
select rating
Please do not post tabs as comments. Select "correction" instead!