Oops, an error
Loading. Please wait.

Houses Of The Holy Bass Tab

ver1
ver1

Album

Whole song

Interactive

More versions @911Tabs.com
7,217 views 6 this week
2 commentsread comments
1 2 3 4 5
worth learning
x 1
Autoscroll
+/-
esc
set tempo
stop
Contributor
Hey! There's an official Ultimate Guitar app which is ideal
for learning songs when you're away from computer. Get the app
WARNING: You are trying to view
                                    content from Ultimate-Guitar.com
                                    in an unauthorized application,
                                    which is prohibited.

                                    Please use an official Ultimate
                                    Guitar Tabs application for iPhone,
                                    iPad or Android to access legitimate
                                    chords, guitar, bass, and drum tabs
                                    from Ultimate-Guitar.com database.

                                    Type "ultimate guitar tabs" in Apple
                                    App Store's or Android Market's
                                    search to find the application.
1. The Song Remains The Same

G||----------------7-----|----------------7-----|----------------7-----|
D||----------------------|----------------------|----------------------|
A||----------------------|----------------------|----------------------|
E||----------------------|----------------------|----------------------|

----------------7-----|---------------------7----|--------------------7----|
----------------------|--0---0-0---0---0-0-------|--0----0---0---0-0-------|
----------------------|--------------------------|-------------------------|
----------------------|--------------------------|-------------------------|

------------------------|------------------------|-------------------------|
------------------------|------------------------|-------------------7-----|
--0----0-------0--0-0---|--0------------0--0-0---|--0---0-0-------0------7-|
------------------------|------------------------|-------------------------|

------------------------|-------------------------|-------------------------|
-------------------7----|--------7----------7-----|-------------------------|
--0---0-0-------0-------|--0---0---------0----0---|--0---0-0-------0--0-0---|
------------------------|-------------------------|-------------------------|

|------------------------------|-------------------------------|
|*-----------------------------|--5g7---7-7--------5g5--7-7----|
|*--5---5-5--x-x-x-x-5----5----|-----------------------------5-|
|------------------------------|-------------------------------|

----------------------7---|--7---7-7------------------||
--------------------7-----|-----------------5----7---*||
--5---5-5--------5--------|--------------------------*||
--------------------------|---------------------------||

----------------------------|-----12-----14------------12--|
----------------12--14--15--|-------------------15---------|
--5-------0--0--------------|------------------------------|
----------------------------|------------------------------|

-------------------------------|--------------------------------|
-----12--14--------------------|--------------------------------|
-------------15-----14-----12--|-----14-------------------------|
-------------------------------|---------15h----15--13--12--10--|

-------------------------|-------------------------|--------------------------|
-------------------7-----|-------------------7-----|--------------------7-----|
--0---0-0-------0----0---|--0---0-0-------0----0---|--0---0-0--------0----0---|
-------------------------|-------------------------|--------------------------|

--------------------------|--------------------------|
--------------------------|--------------------------|
--0---0-0----0------------|--------------------------|
----------------3----3-3--|--5---5-5-----5--3----3---|

----------------------------|----------------------------|
----------------------------|----------------------------|
----------------------------|----------------------------|
--5---5-5----x-x---3----3---|--5---5-5----x-x---3----3---|

--------------------------|---------------------------|
--------------------------|---------------------------|
--------------------------|--5---5-5--------5----5----|
--5---5-5--------5----5---|---------------------------|

----------------------------|--------7-----------7------|
--5g7---7-7-------5---7-----|-----------------7----7----|
--------------------------5-|--5---5-----------------5--|
----------------------------|---------------------------|

--------------------------|--7-----------------7-----|
----------------5---7-7---|------7-------------------|
--5---5-5-----------------|--------5--------5------5-|
--------------------------|--------------------------|

--------------------------|--------------------7-7---|
--------7-------5---7-7---|-----------------7--------|
--5---5-------------------|--5---5-5-----------------|
--------------------------|--------------------------|

--7-----------------7-----|--------------------------|
------7-------------------|-----------------5--7-7---|
--------5--------5-----5--|--5---5-5-----------------|
--------------------------|--------------------------|

--10-----------------------|--10------------------------|
-------7-------------------|-------7---------------7----|
---------5--------5--5-5---|---------5--------5---------|
---------------------------|----------------------------|

--10------------------------|--10------------------------|
------7----------------7----|-------7---------------7----|
---------5--------5---------|---------5--------5---------|
----------------------------|----------------------------|

--10-------------------------|--10------------------------|
------7-7---------------7----|-----------------------7----|
----------5--------5---------|------5--5--------5---------|
-----------------------------|----------------------------|

--10---------------------|--------------------------|-------------------|
------7------------------|--------------------------|-------------------|
---------5---------5--5--|--5--5-----5--5--5-----5--|--5----------------|
-------------------------|--------------------------|-------------------|

--------------------|------------------------|------------------0--0--0--|
--------------------|------------------------|---------0--2--------------|
--3--------3--------|--------------------0h--|--1h--2--------------------|
--------------------|--3---------------------|---------------------------|

--0--------------------|--------------------|------------------------|
-----------------------|--------------------|------------------------|
-----------------------|--3--------3--------|--------------------0h--|
-----------------------|--------------------|--3---------------------|

----------------0-----0--|--0-----------------|--------------------------|
-----0-------2-----------|--------------------|--------------------------|
--2----------------------|--------------------|--2g3---------3-----------|
-------------------------|--------------------|----------------------1h--|

----------------------|----------------------|-------------------------|
----------------------|------------1----2----|--3---------3p--2--------|
------------1----2----|--3----4--------------|-------------------3-----|
--2----3--------------|----------------------|----------------------1--|

-----------------------|-------------------|-------------------|
-----------------------|-------------------|-------------------|
-----------3-----------|-------------------|-------------------|
-----------------1-----|--3----------------|-------------------|

-------------------|---------------------------|-----------------------|
-------------------|---------------------------|-----------------------|
-------------------|--2h--3-------2h--3--------|---------------0--2----|
-------------------|---------------------------|--3--------------------|

-----------0--------------|--------------------|--------------------|
-----0--2--------2--0-----|--------------------|--------------------|
-----------------------2--|--------------------|--3--------3--------|
--------------------------|--3-----------------|--------------------|

-----------------------|-------------------0----|--0--------0----0----|
-----------------------|--------0-------4-------|---------------------|
---------------0--2----|-----4------------------|---------------------|
--3--------------------|------------------------|---------------------|

-----------------------|----------------------|----------------------|
--------------------3--|--4----2----1---------|----------------------|
--3---------3----------|-----------------4----|--2----1--------------|
-----------------------|----------------------|------------4----2----|

------------------------|-----------------------|------------------------|
---------------------3--|-----------------------|------------------------|
---------------0--3-----|-----3--0--------------|------------------------|
--1---------------------|-----------1-----------|--3------------3----3---|

--------------------------|--------------------------|
--------------------------|--------------------------|
--------------------------|--0---0-0--------0----0---|
--3---3-3--------3----3---|--------------------------|

--------------------------|---------------------------|
--------------------------|----------------7---7---7--|
--0---0-0--------0----0---|--0---0-0-------------7----|
--------------------------|---------------------------|

----------------------------|--------------------------|
------------------7----7----|--------------------------|
--0---0-0----0-0-----7---0--|--0---0-0-----------------|
----------------------------|-----------------3----3---|

-------------9-9-------------|--------------9-----------|
-----------------------------|--------------------------|
--0---0-0--------------------|--0---0-0-----------------|
-------------------3----0-3--|-----------------3----3---|

---------------------------|-----------------------------|
-------------------------0-|-----------------------------|
--0---0-0-----0--2----3----|--5---5-5----x-x---5----5----|
---------------------------|-----------------------------|

---------------------------7-|--7------------------------|
--5g7---7-7-------5---7-7----|------7---------5-----7----|
-----------------------------|--------5------------------|
-----------------------------|---------------------------|

--------------------------|--------------------7------|
--7---7-7-------5---7-7---|-----------------7---------|
--------------------------|--5---5-5-------------5--5-|
--------------------------|---------------------------|

----------------------------|--------------------7-7---|
----------------7-7--5-5----|-----------------7--------|
--5---5-5-----------------5-|--5---5-5-----------------|
----------------------------|--------------------------|

--7---7-7--------7---------|----------------------12----|
----------------------7----|----------12--14--15--------|
---------------------------|--5-------------------------|
---------------------------|----------------------------|

--------------------14---------|-----16-----14---------16-17---|
-----15--14--12------------17--|-------------------17----------|
-------------------------------|-------------------------------|
-------------------------------|-------------------------------|

-----17--16----14--14--12----|---------------------------|
-----------------------------|--14-----14----------------|
-----------------------------|---0-0------------0--0-0---|
-----------------------------|---------------------------|

-----------------------------|-----------------------------|
--14---14-14-----------------|--14---14-14------------14---|
---0----0--0-------12-----0--|---0----0--0-------0--0--0---|
-----------------------------|-----------------------------|

----------------------------|--------------------------|
--14---14-14----------------|--------------------------|
---0----0--0-------0--------|--0---0-0-----------------|
------------------------3---|-----------------3----3---|

--------------------------|--------------------------|-----------------------|
--------------------------|--------------------------|----------7------------|
--0---0-0-----------------|--0---0-0-----------------|--0----0-----0----2----|
-----------------3----3---|-----------------3----3---|-----------------------|

---------------------------|----------------------------|
---------------------------|--5g7---7-7-------5---7-----|
--5---5-5--------5----5----|--------------------------5-|
---------------------------|----------------------------|

--------7-----------7------|--7---7-7------------------|
------7----------7----7----|--------------7-7---5-5----|
--5---------------------5--|-------------------------5-|
---------------------------|---------------------------|

--------------------------|--7-------------------------|
----------------------7---|------7---------5-5----7-7--|
--5---5-5--------5--5-----|--------5-------------------|
--------------------------|----------------------------|

--------------------------|--------------------------|
--------------------5-7---|--------------------7-7---|
--5---5-5--------5--------|--5---5-5--------5--------|
--------------------------|--------------------------|

--10------------------------|--10------------------------|
-------7---------------7----|-------7---------------7----|
---------5--------5---------|---------5--------5---------|
----------------------------|----------------------------|

--10------------------------|--10------------------------|
-------7---------------7----|-------7---------------7----|
---------5--------5---------|---------5--------5---------|
----------------------------|----------------------------|

--10------------------------|--10------------------------|
-------7---------------7----|-----------------------7----|
---------5--------5---------|------4--5--------5---------|
----------------------------|----------------------------|

--10------------------------|--10--(4)--------------10-----|
-----------------------7----|---------------------------7--|
------4--5--------5---------|-------4---5--------5---------|
----------------------------|------------------------------|

--------9-----------7-----|--------------------------|
-----------------7-----7--|--------------------------|
-----5-----5--5-----------|--5--5--5--5--5--5--5--5--|
--------------------------|--------------------------|

--------------------------|----------------------------|
--7--7--7--7--7--7--7--7--|----------------------------|
--5--5--5--5--5--5--5--5--|--5--5--5--5-5-5--5--5--5-5-|
--------------------------|----------------------------|

---------------------------|--------------------------|
---------------------------|--------------------------|
--5--5-5-5--5--5--5--5--5--|--------------------------|
---------------------------|--3--3--3--3--3--3--3--3--|

----------------------------|-----------------------|--------------------9--9--|
----------------------------|------------------7----|-------------5g7----------|
--------------------5g7-----|----------7------------|-----7--------------------|
--3--3--3--3--3--3-------7--|--5--------------------|--------------------------|

-----------------------|--------------------------|------------------2----|
-----------------------|--------------------2-----|----------2------------|
-----------------------|-----------------------2--|--0--------------------|
--3---------3--3--3----|--3-----3--3--3--3--------|-----------------------|

-------------------------|----------0---------------|
-----2-------------------|------------------7g10----|
-------------0-----0--2--|--3-----------------------|
----------------3--------|--------------------------|

-----12---------------------|------------------------------|
--------------10------------|------------------------------|
--------------------10--10--|--10-------(0)--------8g10----|
----------------------------|------------8------8----------|

-----12-------------------|--------------------------|
--------------10----------|--------------------------|
--------------------10----|--3--3--3--2--2--2--0-----|
--------------------------|--------------------------|

--------------------------|-------------------|--------------------|
--------------------------|-------------------|--------------------|
-----0--0--0--------------|-------------------|--------------------|
--------------3--3--2--0--|--0----------------|--------------------|

--9---9-9----------------|--9---9-9----------------|--9---9-9----------------|
--7---7-7----------------|--7---7-7----------------|--7---7-7----------------|
----------------0--0-0---|----------------0--0-0---|----------------0--0-0---|
-------------------------|-------------------------|-------------------------|

--9---9-9----------------|--9---9-9----------------|--9---9-9------------------|
--7---7-7----------------|--7---7-7----------------|--7---7-7------------------|
----------------0--0-0---|----------------0--0-0---|---------------------------|
-------------------------|-------------------------|-----------------3----3----|

--9---9-9------------------|--9---9-9-----------------|
--7---7-7------------------|--7---7-7-----------------|
---------------------------|--------------------------|
-----------------3----3----|-----------------3----3---|

---------------------------|----------------------------|
---------------------------|--5g7---7-7-------5---7-----|
--5---5-5--------5----5----|--------------------------5-|
---------------------------|----------------------------|

---------------------------|----------------------------|
-----------------7---------|----------------7-7--5-5----|
--5---5-5-------------5----|--5---5-5-----------------5-|
---------------------------|----------------------------|

--------------------7h-9---|--7-------------------------|
-----------------7---------|------7---------5-5--7-7----|
--5---5-5------------------|--------5-----------------5-|
---------------------------|----------------------------|

--------------------7------|------7-7------------------|----------7------------|
-----------------7----7----|---------------------------|------------------5----|
--5---5-5---------------5--|--5--------------5----5----|--5--------------------|
---------------------------|---------------------------|-----------------------|

-----7g9-------7-------12--|-------------------------|-------------------------|
---------------------------|-------14-------12-------|--5----------------------|
---------------------------|-------------------------|----------12-----0--2----|
---------------------------|-------------------------|-------------------------|

---------------2--------|--9---9-9----------------|--9---9-9-----------------|
------------------------|--7---7-7----------7-----|--7---7-7-----------7-----|
--0----0----------0-0---|-------------0-0-----0---|-----------------0------0-|
------------------------|-------------------------|--------------------------|

                                   |--3--|
--9---9-9-----------2-----|--9---9-9--9-----------------|
--7---7-7-----------------|--7---7-7--7-----------------|
-----------------0--------|-----------------------------|
------------------------3-|--------------------3----3---|

--9---9-9------------------|--9---9-9------------------|
--7---7-7------------------|--7---7-7------------------|
---------------------------|---------------------------|
-----------------3----3----|-----------------3----3----|

--9---9-9----------------|-----------------------------|
--7---7-7----------------|-------------7-7-7-----7-----|
-------------0--1--3-4---|--5---5-5----------5-5---5---|
-------------------------|-----------------------------|

--------------------------|--------------------7-----|
--7---7-7------5-----5----|-----------------7--------|
------------------------5-|--5---5-5-------------5---|
--------------------------|--------------------------|

--------------------------7-|--7-----------------------|
----------------7-7--5-5----|--------------------5-7---|
--5---5-5-------------------|------5-5--------5--------|
----------------------------|--------------------------|

--7---7-7------------------|--------------------7-----|
----------------5---7-7----|-----------------7--------|
-------------------------5-|--5---5-5-------------5---|
---------------------------|--------------------------|

---------------------------|--10------------------------|
----------------------7----|-----------------------7----|
--5---5-5--------5---------|-------5-5--------5---------|
---------------------------|----------------------------|

--10-------------------------|--10-------------------------|
--------7---------------7----|--------7---------------7----|
----------5--------5---------|----------5--------5---------|
-----------------------------|-----------------------------|

--10------------------------|--10------------------------|
-----------------------7----|-----------------------7----|
------5--5--------5---------|------4--5--------5---------|
----------------------------|----------------------------|

--10------------------------|--10-------------------------|
-----------------------7----|----------------------7g9----|
------4--5--------5---------|------4--5-------5-----------|
----------------------------|-----------------------------|

--10----------------------|--------------------------|-------------------||
--------------------------|--------------------------|-------------------||
------4--5----5--5--5--5--|--5--5--5--5--5--5--5--5--|--5----------------||
--------------------------|--------------------------|-------------------||
****************************************************************************

2. The Rain Song

G|----------------|0---------------|0-------------0-|----------0-0---|
D|----------------|----------------|----------------|----------------|
A|----------------|----------------|----------------|----------------|
E|----------------|----------------|----------------|--------------3-|

G|--------------0-|--0---0---0---0-|--8-8---------0-|--0---0---0---0-|
D|----------------|----------------|----------------|----------------|
A|----------------|----------------|----------------|----------------|
E|----------------|----------------|----------------|----------------|

G|--8---------0-0-|0---------------|
D|----------------|----------------|
A|----------------|----------------|
E|----------------|----------------|

  When bass comes back in at approx. 1:35
G|0---------------|0---------------|0-------------0-|--------------0-|
D|----------------|----------------|----------------|----------------|
A|----------------|----------------|----------------|----------------|
E|----------------|----------------|----------------|----------------|

G|--0-0-----------|--0---0---0---0-|--0-0-----------|--0---0---0---0-|
D|--------2-0-----|----------------|----------------|----------------|
A|----------------|----------------|----------------|----------------|
E|--------------3-|----------------|--------------3-|----------------|

G|--0-0-------1-0-|--------0-0-0-0-|----------------|----------------|
D|----------------|-------0--------|----------------|----------------|
A|----------------|----------------|------------3-3-|--3---3---3---3-|
E|----------------|----------------|----------------|----------------|

G|------------1-0-|--------0-0---0-|----------------|----------------|
D|----------------|-------0--------|----------------|----------------|
A|--3---3---------|----------------|-------------33-|--3---3---3333--|
E|----------------|----------------|----------------|----------------|

G|------------1-0-|--------------0-|----------------|----------------|
D|----------------|----------------|----------------|----------------|
A|--3---3---------|----------------|------------333-|--3---3---3-3-3-|
E|----------------|----------------|----------------|----------------|

G|--------------0-|--0-0---0-----0-|--0-0---0-----0-|--0-0---0-----0-|--0-0-0---0-0-0-|
D|----------------|----------20----|----------10----|----------20----|----------------|
A|--3---3-3-3-3---|----------------|----------------|----------------|----------------|
E|----------------|------------3---|------------3---|------------3---|----------------|

G|5------05-0-5-4-|--4-----------4-|5-------5-----7-|---57--7557-7777|
D|----------------|----4-----------|----------5-----|-7--------------|
A|----------------|-------22-2-2---|------------7---|----------------|
E|----------------|----------------|----------------|----------------|

G|5-----0-5-0-5-4-|----4-----------|2---------------|2---------------|----------------|
D|----------------|-----4----------|----------------|----------------|----------------|
A|----------------|------2---2-----|----------------|----------------|----------------|
E|----------------|----------------|----------------|----------------|----------------|

G|0-------------0-|--------9-7-9-0-|--------------0-|----0-----0-0---|
D|----------------|----------------|------------1---|--1-------------|
A|----------------|----------------|----------------|----------------|
E|----------------|----------------|----------------|--------------3-|

G|----------------|----------------|----------------|----------------|----------------|
D|----------2-0---|----------------|------------1---|----------------|----------------|
A|----------------|----------------|----------------|----------------|----------------|
E|--------------3-|--3---3---3---3-|--3-3---------3-|--3---3---3---3-|--3-3---------3-|

G|--------0-0---0-|--------7-0-----|----------------|----------------|
D|-------0--------|------------00--|----------------|----------------|
A|----------------|--------------3-|--3---3---333-3-|--3---3---------|
E|----------------|----------------|----------------|------------4-3-|

G|---------0----0-|--------7-------|----------------|----------------|
D|-----0----------|----------------|----------------|----------------|
A|----------------|------------533-|--3---3-3-3---3-|--3---3---3-----|
E|----------------|----------------|------------3---|------------4-3-|

G|----------------|----3-----------|----------------|----------------|
D|--------535-535-|-----35-5-535---|----------------|----------------|
A|------5---------|-------------53-|--3---3---3---3-|--33333---3-3---|
E|----------------|----------------|------------3---|--------------3-|

G|----------------|----------------|----------------|----------------|
D|--5555--5-3202--|--------5-------|------------02--|----------------|
A|----------------|----------5-4-3-|--3---3-3-3---3-|--3---3-3-3-3---|
E|--------------3-|----------------|----------------|--------------3-|

G|----------------|----------------|----------------|-----9-77-4-2---|
D|----------------|--------55-55---|--------5--55---|-------------20-|
A|----------7575--|----------------|----------------|----------------|
E|--3-3---------3-|--3-3---------3-|--------------3-|----------------|

G|----------------|----------------|----------------|----------------|
D|----------------|----------------|----------------|----------------|
A|3-------3---3-2-|------222---2-0-|0---------------|(0)-------------|
E|----------3--3--|----------2-----|----------------|----------------|

G|----------------|----------------|----------------|--44420---------|
D|--------5---5-5-|--------5---5---|----------------|--------20-0----|
A|-------5--5--5--|-------------755|3---3---3-2-0---|------------2020|
E|3---3-----------|----------------|-------3------3-|----------------|

G|----1212129-420-|--0-00------0---|------979-5-220-|-0--0-----------|
D|----------------|------3-3333--20|----------------|--2--0-20-------|
A|----------------|----------------|3---------------|----------3-20--|
E|3---------------|----------------|----------------|--------------30|

G|--------12912912|---------------4|5---5-3---3-----|------40--------|
D|----5-----------|----5-3---3-357-|--------5---5---|--5-5---20----02|
A|----------------|----------------|-------------5--|---5-5----20-2--|
E|3---------------|----------------|--------------3-|------------3---|

G|0---121212121210|--0-------------|----------------|----------------|
D|----------------|----3-3-3-3-3-20|----------------|----------------|
A|----------------|----------------|3---3--33-2-0---|----------------|
E|----------------|----------------|--------------3-|------------4-3-|

G|----------------|----------------|----------55-5--|----------------|
D|-------5-5------|--------5-55----|------------5---|----------------|
A|------5---------|------------533-|--3---3-------3-|--3---3---------|
E|----------------|3---------------|----------------|------------43--|
  These are the seasons of emotions....

G|------------7---|------------7-5-|--5---5-32-20---|----------------|
D|-------55-5---5-|----------------|-------------0--|--------------5-|
A|--2-55----------|----------3-----|--------------3-|--3---3-3---3---|
E|----------------|3---------------|----------------|----------------|

G|----------------|----------------|----------------|----------------|
D|-------5-5--5-5-|----------------|----------------|--------------5-|
A|------5---------|--------5-55553-|--3---3333333-3-|--3-3--33-3333--|
E|----------------|----------------|----------------|----------------|

G|----------------|----------------|--------55555555|5---------------|
D|--------------5-|--5-5-----------|----------------|--------------5-|
A|----5-5-5-5-5---|-------53--5333-|--3---3---------|--3---3-----5---|
E|3-3-------------|----------------|----------------|----------------|

G|----------------|----------------|----------------|----------------|
D|--5-5-----5-5-5-|--5-5---55555-5-|--5-5-555-55----|----------------|
A|----------------|----------------|------------53--|------------0-2-|
E|----------------|----------------|--------------3-|--3---3---3-----|

G|----------------|--4-4-----------|----------------|----------------|
D|--------2--5----|--------4-0-----|----------------|----------------|
A|3------3--3--32-|------------2---|0---------------|(0)-------------|
E|----------------|----------------|----------------|----------------|

G|----------------|----------------|----------------|----------------|
D|5---------------|(5)-------------|----------------|--------------0-|
A|----------------|----------------|3-------------2-|--------2-3-----|
E|----------------|----------------|----------------|----------------|

G|----------------|----------------|----------------|----------------|
D|----------1---3-|----3-----------|----------------|----------------|
A|----------------|----------------|----------------|----------------|
E|----------------|----------------|----------------|----------------|

G|----------------|----------------|----------------|----------------|
D|----------------|----------------|----------------|----------------|
A|----------------|----------------|----------------|----------------|
E|----------------|----------------|----------------|----------------|
****************************************************************************

3. Over The Hills and Far Away

Gtr I (E A D G) - 'Bass'

 Intro               1st Verse
  Moderate Rock Q=96
 1/4  4/4
  Gtr I
  Q    Wx19           Wx13          H    S E. S E.
|----|-------------||-------------|----------------||
|----|-------------||-------------|-----------7----||
|----|-------------||-------------|--------5-------||
|----|-------------||-------------|-------------5--||


 2nd Verse
  S S S S Q  S S S S S S S S   S S S S q  S E. S E.
|----------------------------|----------------------|
|------------------------4-2-|------------7----7----|
|--------------0---0---0-----|--------------5-------|
|-3-3-3-3-3------------------|-3-3-3-3-3---------5--|


  S S S S q  S S S S S S S S   S S S S q  S S S S S S E
|----------------------------|--------------------------|
|------------------------4-2-|--------------------------|
|--------------0---0---0-----|--------------------------|
|-3-3-3-3-3------------------|-3-3-3-3-3----5---5---7---|


  E S S S a S E S S S S S S E
|------------------------------|
|------------------------------|
|-5-x---5-5s7------------------|
|-----7-----------5---5---7----|


  E S S S a S E S S S S S S E
|-----------------------------|
|-----------------------------|
|-5-x---5---------------------|
|-----7---5s7-----5---5---7---|


  E S S S a S E S S S S S S E   E S S S a S E S E. S E.
|-----------------------------|-------------------------|
|-----------------------------|---------------7----7----|
|-5-x---5-5s7-----------------|-5-x---5---------5-------|
|-----7-----------5---5---7---|-----7---5s7----------5--|


  S S S S Q  S S S S S S S S
|----------------------------|
|------------------------4-2-|
|--------------0---0---0-----|
|-3-3-3-3-3------------------|


  S S S S q  S E. S E.   S S S S q  S S S S S S S S
|----------------------|-----------------------------|
|------------7----7----|------------------------4-2--|
|--------------5-------|--------------0---0---0------|
|-3-3-3-3-3---------5--|-3-3-3-3-3-------------------|


  S S S S q  S S S S S S E   E S S S a S E S S S S S S E
|--------------------------|-----------------------------|
|--------------------------|-----------------------------|
|--------------------------|-5-x---5-5s7-----------------|
|-3-3-3-3-3----5---5---7---|-----7-----------5---5---7---|


  E S S S a S E S S S S S S S S
|-------------------------------|
|-------------------------------|
|-5-x---5-------------------5---|
|-----7---5s7-----5---5---7---7-|


  E S S S a S E S S S S S S S S
|-------------------------------|
|-------------------------------|
|-5-x---5-5s7---------------5---|
|-----7-----------5---5---7---7-|


                            3rd Verse
  E S S S a S E S E. S E.    S S S S q  S S S S S S S S
|-------------------------||------------------------------|
|---------------7----7----||------------------------4-2---|
|-5-x---5---------5-------||--------------0---0---0-------|
|-----7---5s7----------5--||-3-3-3-3-3--------------------|


  S S S S q  S E. S E.   S S S S q  S S S S S S S S
|----------------------|----------------------------|
|------------7----7----|------------------------4-2-|
|--------------5-------|--------------0---0---0-----|
|-3-3-3-3-3---------5--|-3-3-3-3-3------------------|


  S S S S q  S S S S S S S S
|-----------------------------||
|-----------------------------||
|------------------------5----||
|-3-3-3-3-3----5---5---7---7--||


 Interlude
                                         |-3-|
  E. S e S S E. S e s s   E E E E E S S  E E E   E. S e S S E. S e S S
|-----------------------|----------------------|------------------------|
|-5--5-5-7-x------------|--------------------2-|-5--5-5-4---------------|
|------------5--5-5-7-7-|-5---5------------2---|----------7-5--5-5---5--|
|-----------------------|---5---0-0-0-0-/4-----|------------------------|


  E S S S S E +E  S S S S E   E. S S E S E. S S E S   E E S S E +H
|---------------------------|-----------------------|------------------||
|---------------------------|-5--5-5h7--------------|------------------||
|-5-4---------------------7-|------------5--5-5h7---|------------------||
|-----7-5-4-0-(0)-4-4---7---|-----------------------|-5-5-7-4-0-(0)----||


 Guitar Solo
  E S S S S E E S S S S S S   E S S S S E H
|---------------------------|------------------|
|---------x-4---2-----------|---------x-4------|
|---x-4-----------4---------|---x-4------------|
|-2-------------------2---0-|-2----------------|


  E S S S S E E S S S S E   E S S S S E H
|-------------------------|------------------|
|---------x-4---2---------|---------x-4------|
|---x-4-----------4-------|---x-4------------|
|-2-------------------2---|-2----------------|


    E S S S S E E S S S S E   E S S S S E H     3x
||--------------------------|-------------------||
||o---------x-4---2---------|---------x-4------o||
||o---x-4-----------4-------|---x-4------------o||
||--2-------------------2---|-2-----------------||


                           3/4
  E S S S S E E S S S S E   E S S S S E Q
|-------------------------|------------------|
|---------x-4---2---------|---------x-4------|
|---x-4-----------4-------|---x-4------------|
|-2-------------------2---|-2----------------|


                                                    2/4
  E. E S E. E.   S S S E. E. E.   a  E S E.  E. E.    e E Q
|--------------|-------3--6--9--|-9s11----------9--|-11------||
|-----------2--|-4-4-4----------|--------8--11-----|---------||
|----1-1-4-----|----------------|------------------|---------||
|-2------------|----------------|------------------|---------||


 4/4
  E S S S a S E S S S S S S S S   E S S S a S E S S S S S S S S
|-------------------------------|-------------------------------|
|-------------------------------|-------------------------------|
|-5-x---5-5s7---------------5---|-5-x---5-------------------5---|
|-----7-----------5---5---7---7-|-----7---5s7-----5---5---7---7-|


  E S S S a S E S S S S S S S S   E S S S a S E S E. S E.
|-------------------------------|----------------------------||
|-------------------------------|---------------7----7-------||
|-5-x---5-5s7-------------5-----|-5-x---5---------5----------||
|-----7-----------5---7-------7-|-----7---5s7----------5-----||


 4th Verse
  S S S S Q  S S S S S S S S   S S S S q  S E. S E.
|----------------------------|----------------------|
|------------------------4-2-|------------7----7----|
|--------------0---0---0-----|--------------5-------|
|-3-3-3-3-3------------------|-3-3-3-3-3---------5--|


  S S S S Q  S S S S S S S S   S S S S q  S S S S S S E
|----------------------------|--------------------------|
|------------------------4-2-|--------------------------|
|--------------0---0---0-----|--------------------------|
|-3-3-3-3-3------------------|-3-3-3-3-3----5---5---7---|


  E. S S a S E S S S S S S S S   E S S S a S E S S S S S S S S
|------------------------------|-------------------------------|
|------------------------------|-------------------------------|
|-5----5-5s7---------------5---|-5-x---5-------------------5---|
|----7-----------5---5---7---7-|-----7---5s7-----5---5---7---7-|


  E S S S a S E S S S a S S S S S   E. S S a S E S E. S E.
|---------------------------------|-------------------------|
|---------------------------------|--------------7----7-----|
|-5-x---5-5s7---------------5-----|-5----5---------5--------|
|-----7-----------5---5s7-------7-|----7---5s7----------5---|


  S S S S Q  S S S S S S S S   S S S S q  S E. S E.
|----------------------------|----------------------|
|------------------------4-2-|------------7---------|
|--------------0---0---0-----|--------------5--5----|
|-3-3-3-3-3------------------|-3-3-3-3-3---------5--|


  S S S S Q  S S S S S S S S   S S S S q  S S S E S S S
|----------------------------|--------------------------|
|------------------------4-2-|--------------------------|
|--------------0---0---0-----|------------------------5-|
|-3-3-3-3-3------------------|-3-3-3-3-3----3---3-5-7---|


    S S S S Q  S S S E S S S   S S S S Q  S S S E S S S  6x
||---------------------------|---------------------------||
||o--------------------------|--------------------------o||
||o-7-5-----5--------------5-|-7-5--------------------5-o||
||------7-5------3---3-5-7---|-----7-5-3----3---3-5-7----||


 Keyboard Outro
  Wx8          Wx3          W
|------------|------------|------*|
|------------|------------|------*|
|------------|------------|------*|
|------------|------------|------*|
****************************************************************************

4. The Crunge

intro/chorus/outro riff
       s  p  s
G|-------------|
D|-----7--5--7-|
A|-------------|
E|7655---------|

 verse
                  (x2)
G|-------------------------------------------|--------------------------------------|
D|-------------------------------------------|--------------------------------------|
A|5-55---3-5---353-6---5-55---3-5---3535-3-4-|5-55---3-5---353-6---5-55---3-5---3535|
E|-------------------------------------------|--------------------------------------|
****************************************************************************

5.Dancing Days
    H  e  e  H  e  e     H  q  H  e  e     H  e  e  H  e  e
G---|------------------------|-----------------|------------------------|
D---|--8:--------------------|-----------------|------------------------|
A---|--4:--------1--------1--|--------------1--|--------1--------1------|
E---|------3--3-----3--3-----|--3--0--3--3-----|--3--3-----3--3---------|


       H  q  H  e  e       q  h  e  e  q  h  e  e     q  h  e  e  q
G---|-----------------||---------------------------|--------------------|
D---|-----------------||*--------------------------|--------------------|
A---|--------------1--||*--3--3-----3--4--4-----1--|--3--3-----1--3-----|
E---|--3--0--3--3-----||---------3-----------3-----|--------3-----------|


    h  e  e     q  h  e  e  q  h  e  e     q  h  e  e  q  h  e  e
G------------|--------------------------|--------------------------|----|
D------------|--------------------------|--------------------------|----|
A---3-----1--|--3--3-----3--4--4-----1--|--3--3-----1--3--3-----1--|----|
E------3-----|--------3-----------3-----|--------3-----------3-----|----|


    q  q  q  e  e  q  q  q  e  e     q  q  e  e  e  q  e  e  e  q  e
G---------------------------------|-------------------------------------|
D---------------------------------|-------------------------------------|
A---3--3--3-----3--1--1--1-----1--|--0--0--0-----0--0-----0-----0-------|
E------------3--------------3-----|-----------3--------3-----3-----3----|


    e     q  q  q  e  e  q  q  q  e  e     q  q  e  e  e  q  e  e  e
G------|--------------------------------|-------------------------------|
D------|--------------------------------|-------------------------------|
A---1--|--3--3--3-----3--1--1--1-----1--|--0--0--0-----0--0-----0-------|
E------|-----------3--------------3-----|-----------3--------3-----3----|


    q  e  e   2x  H  e  e  H  e  e     H  q  H  e  e     H  e  e  H
G-------------||--------------------|-----------------|-----------------|
D------------*||--------------------|-----------------|-----------------|
A---0-----1--*||--------1--------1--|--------------1--|--------1--------|
E------3------||--3--3-----3--3-----|--3--0--3--3-----|--3--3-----3-----|


    e  e     H  q  H  e  e       q  h  e  e  q  h  e  e     q  h  e
G---------|-----------------||---------------------------|--------------|
D---------|-----------------||*--------------------------|--------------|
A------1--|--------------1--||*--3--3-----3--4--4-----1--|--3--3--------|
E---3-----|--3--0--3--3-----||---------3-----------3-----|--------3-----|


    e  q  h  e  e     q  h  e  e  q  h  e  e     q  h  e  e  q  h  e
G------------------|--------------------------|-------------------------|
D------------------|--------------------------|-------------------------|
A---1--3--3-----1--|--3--3-----3--4--4-----1--|--3--3-----1--3--3-------|
E------------3-----|--------3-----------3-----|--------3-----------3----|


    e     q  q  q  e  e  q  q  q  e  e     q  q  e  e  e  q  e  e  e
G------|--------------------------------|-------------------------------|
D------|--------------------------------|-------------------------------|
A---1--|--3--3--3-----3--1--1--1-----1--|--0--0--0-----0--0-----0-------|
E------|-----------3--------------3-----|-----------3--------3-----3----|


    q  e  e     q  q  q  e  e  q  q  q  e  e     q  q  e  e  e  q  e
G------------|--------------------------------|-------------------------|
D------------|--------------------------------|-------------------------|
A---0-----1--|--3--3--3-----3--1--1--1-----1--|--0--0--0-----0--0-------|
E------3-----|-----------3--------------3-----|-----------3--------3----|


    e  e  q  e  e   2x  H  e  e  H  e  e     H  q  H  e  e     H  e
G-------------------||--------------------|-----------------|-----------|
D------------------*||--------------------|-----------------|-----------|
A---0-----0-----1--*||--------1--------1--|--------------1--|-----------|
E------3-----3------||--3--3-----3--3-----|--3--0--3--3-----|--3--3-----|


    e  H  e  e     H  q  H  e  e         q  e  q  e  e  e     q  e
G---------------|-----------------|------------------------|------------|
D---------------|-----------------|--4:--------------------|------------|
A---1--------1--|--------------1--|--4:--3--3--3--3--3--3--|--4--4------|
E------3--3-----|--3--0--3--3-----|------------------------|------------|


    q  e  e  e     q  e  q  e  e  e     q  e  q  e  e  e     q  e  q
G---------------|--------------------|--------------------|-------------|
D---------------|--------------------|--------------------|-------------|
A---4--4--4--4--|--6--6--6--6--6--6--|--6--6--6--6--6--6--|--6--6--6----|
E---------------|--------------------|--------------------|-------------|


    e  e  e     w       H  e  e     H  e  e     H  q  H  e  e   3x
G------------|-----||------------|-----------|------------------||------|
D------------|-----||*-----------|-----------|-----------------*||------|
A---6--6--6--|--8--||*--------1--|--------1--|--------------1--*||------|
E------------|-----||---3--3-----|--3--3-----|--3--0--3--3------||------|


    w
G------||---------------------------------------------------------------|
D------||---------------------------------------------------------------|
A------||---------------------------------------------------------------|
E---3--||---------------------------------------------------------------|
****************************************************************************

7. D'yer Mak'er

Main Riff:

G|---------------------------|-----------------------|
D|-------2-3-5---------------|-----------------------|
A|-3--3---------0--0---0-3-2-|-----------------------|
E|---------------------------|-1--1-----3-3-3-3--3-5-|


Second Part:

G|--------------------------|-------------------------|
D|--------------------------|-------------------------|
A|--------------------------|-------------------------|   X3
E|--5-5---5-5----5-5---5-5--|--3-3---3-3----3-3---3-3-|


G|----------|----------|
D|----------|----------|
A|----------|----------|
E|--1-------|--3-------|
****************************************************************************

8. No Quater
               Intro
G---|-----------------------------------------------|-------------------------------------|
D---|------------------7--6--4-----6/7--------7-----|-------------------------------------|
A---|-------6/7-----------------5-------4--5-----5--|--2/4--4--4--4--2/4--4--4--4^--------|
E---|--7\5-------5--5-------------------------------|-------------------------------------|


    Verse (I guess)                                      During Vocals
G------------------------------------------||------------------------------------------|
D------------------------------------2-----||*-----------------------------------------|
A---4--------------------------2--------4--||*-----------------------------------------|
E------0--2--2--2--2--0--2--4-----4--------||---5-----------5-----------5-----------5--|

G----||---------------------------------------------------------------------||------------|
D---*||---------------------------------7--6--4--------6--7--------7--------||*-----------|
A---*||---------------6--7--------7--------------7--5--------5--5-----5--4--||*-----------|
E----||--5/7--7\5-----------4--5-----5--------------------------------------||------------|


    Piano Solo
G-------------------------------------||--------------------------------------------------|
D------------------------------------*||--------------------------------------------------|
A---------4-----------4-----------4--*||--4-----4-----2--4-----2-----2--4-----------------|
E-------------------------------------||-----4-----4--------4-----4-----------4-----------|
                                                                            Groove
G-----------------------6-------6-----6--------------4h6--4h6--4h6--4h6--------|----------|
D------------------4h6-----4h6-----------------4--6----------------------6-----|----------|
A---------4-----4------------------4-----4----------------------------------4--|----------|
E---2--4-----4-----------------------------------------------------------------|--2--4----|


          Improvise
G---------------4--6--|-------------------------------------------------------------------|
D---------4--6--------|-------------------------------------------------------------------|
A---2--4--------------|-------------------------------------------------------------------|
E---------------------|-------------------------------------------------------------------|
****************************************************************************

8.The Ocean

Intro Riff: 4x
 |1 + 2 + 3 + 4 + 5 + 6 + 7 + 8 + |1 + 2 + 3 + 4 + 5 + 6 + 7 + |
G|--------------------------------|----------------------------|
D|5h7-5h7-5-----------------------|----5-------7-------7-------|
A|----------7---------------------|5-7-----5-7-----4-----5---7-|
E|------------8-------------------|--------------------------^-|
								* omit on 4th x
(0:20) Verse 1: 4x
 |1 + 2 + 3 + 4 + 5 + 6 + 7 + 8 + |1 + 2 + 3 + 4 + 5 + 6 + 7 + 8 + |
G|--------------------------------|--------------------------------|
D|--------------------------------|--------------------------------|
A|5-5-5-5-----3-3-3-3-----0-------|0--3/5-5-5-5--------------------|
E|----------------------------3---|--------------------------------|

(0:50) Chorus: 4x
 |1 + 2 + 3 + 4 + 5 + 6 + 7 + 8 + |1 + 2 + 3 + 4 + 5 + 6 + 7 + |
G|--------------------------------|----------------------------|
D|5h7-5h7-5-----------------------|----5-------7-------7-------|
A|----------7---------------------|5-7-----5-7-----4-----5---7-|
E|------------8---8-8-8-8-8-7-7-7-|----------------------------|
                  PM..............|
                                        
comments
We did not receive enough feedback on this tab! Please rate:
print report bad tab
1 2 3 4 5
2 comments total.
-1 reply
Maitinin wrote on December 3 2008, 11:49 am

you know, it's great with some LedZep bass tabs and especially for whole albums, but this is really a mess. Or last least lots of the songs are a mess, like The Song Remains the Same or The Rain Song. It's just bar up, bar down. You don't indicate that any part is played as the previous part, you'll have to figure that out for yourself, and you don't indicate Chorus, Verse or anything, so if you loose you orientation in this tab, you'll almost have to start over from the top.
Sorry dude, but layout means a lot when you're to read anything!

0 reply
frenchabortion wrote on December 3 2008, 11:31 pm

this is just a copypasta from all the 5 star tabs

I want to post or [tab]
guest
You may want to rate the tab now too:
select rating
Please do not post tabs as comments. Select "correction" instead!