Oops, an error
Loading. Please wait.

Houses Of The Holy Tab

ver1
ver1

Album

Whole song

Interactive

More versions @911Tabs.com
52,524 views 79 this week
6 commentsread comments
1 2 3 4 5
accurate
x 6
Autoscroll
+/-
esc
set tempo
stop
Contributor
Difficulty
advanced
Hey! There's an official Ultimate Guitar app which is ideal
for learning songs when you're away from computer. Get the app
WARNING: You are trying to view
                                    content from Ultimate-Guitar.com
                                    in an unauthorized application,
                                    which is prohibited.

                                    Please use an official Ultimate
                                    Guitar Tabs application for iPhone,
                                    iPad or Android to access legitimate
                                    chords, guitar, bass, and drum tabs
                                    from Ultimate-Guitar.com database.

                                    Type "ultimate guitar tabs" in Apple
                                    App Store's or Android Market's
                                    search to find the application.
ok lets get this clear, i didn't make these tabs i just use them to make this album
collection - thanks to all the guys who made the power tabs


                           THE SONG REMAINS THE SAME
                           As recorded by Led Zeppelin
                    (From the 1973 Album HOUSES OF THE HOLY)

Words and Music by Jimmy Page and Robert Plant
Transcribed by rocktabber

           D                   F/D                  G/D                  A/D
      x x 0 2 3 2          x x 0 5 6 5          x x 0 7 8 7         x x 0 9 10 9

         DXIV                 Asus4             A7sus4add6               Dm9
    x x 0 14 15 14         x 0 2 x 3 0          x 0 2 0 3 2          x x 3 2 1 0

          G13                  C/D                  DV                 F/DVIII
      x x 3 2 0 0          x x 0 5 5 3          x x 0 7 7 5         x x 0 10 10 8

           C                   G6                    G                   Em
      x 3 2 0 1 0          3 x 0 0 3 0          3 x 0 0 0 x          x x x 9 8 7

          GX                   Am                   D6                  Cadd9
    x x x 12 12 10       x x x 14 13 12       x x x 16 15 14         x 3 x 0 3 0

        E7sus4
      x x 2 2 3 0

Gtr I (E A D G B E) - 'Elec. w/dist.'
Gtr II (E A D G B E) - '12 String Elec. w/dist'
Gtr III (E A D G B E) - '12 String Effect'
Gtr IV (E A D G B E) - 'Elec. w/dist.'

 Intro (0:00)
  Moderately Fast Q=148
  N.C.                  D    N.C.                  G/D
 4/4
  Gtr I
  H             Q       q    H             Q       q
|-----------------------2--|-----------------------7--|
|-----------------------3--|-----------------------8--|
|-----------------------2--|-----------------------7--|
|-----------------------0--|--------------------------|
|--------------------------|--------------------------|
|--------------------------|--------------------------|
|
| Gtrs II, III
| E S S +S  S E S S S S Q    E S S +S  S E S S S S Q
|-----------------------2--|-----------------------5--|
|-----------------------3--|-----------------------6--|
|-----------------------2--|-----------------------5--|
|-0-0-0-(0)-0-0-0-0-0-0-0--|-0-0-0-(0)-0-0-0-0-0-0-0--|
|--------------------------|--------------------------|
|--------------------------|--------------------------|


  N.C.                  Em/G  N.C.                  Em/G
  H             Q        q    H             Q        q
|-----------------------12--|-----------------------12---|
|-----------------------12--|-----------------------12---|
|-----------------------12--|-----------------------12---|
|---------------------------|----------------------------|
|---------------------------|----------------------------|
|---------------------------|----------------------------|
|
| E S S +S  S E S S S S  Q    E S S +S  S E S S S S  Q
|------------------------7--|------------------------9---|
|------------------------8--|-----------------------10---|
|------------------------7--|------------------------9---|
|-0-0-0-(0)-0-0-0-0-0-0--0--|-0-0-0-(0)-0-0-0-0-0-0--0---|
|---------------------------|----------------------------|
|---------------------------|----------------------------|


                        DXIV
  H             Q        Q     +H.                      Q
|-----------------------14--|-(14)---------------------14\--||
|-----------------------15--|-(15)---------------------15\--||
|-----------------------14--|-(14)---------------------14\--||
|---------------------------|-------------------------------||
|---------------------------|-------------------------------||
|---------------------------|-------------------------------||
|
| E S S +S  S E S S S S  Q      E  S S +S  S E S S S S  Q
|-----------------------14--|--------------------------14\--||
|-----------------------15--|--------------------------15\--||
|-----------------------14--|--------------------------14\--||
|-0-0-0-(0)-0-0-0-0-0-0--0--|---0--0-0-(0)-0-0-0-0-0-0--0---||
|---------------------------|-------------------------------||
|---------------------------|-------------------------------||


 (0:10)
  Asus4     A7sus4add6      Asus4
  H..       S S   H..       S S
|-0---------2-2-|-2---------0-0---|
|-3---------3-3-|-3---------3-3---|
|-x---------0-0-|-0---------x-x---|
|-2---------2-2-|-2---------2-2---|
|---------------|-----------------|
|---------------|-----------------|
|
| H..       S S   H..       S S
|-0---------2-2-|-2---------0-0---|
|-3---------3-3-|-3---------3-3---|
|-x---------0-0-|-0---------x-x---|
|-2---------2-2-|-2---------2-2---|
|---------------|-----------------|
|---------------|-----------------|


  Asus4     A7sus4add6      Asus4           A7sus4add6      Asus4
  Gtrs I, II, III
  H..       S S   H..       S S   H..       S S   H..       S S
|-0---------2-2-|-2---------0-0-|-0---------2-2-|-2---------0-0-|
|-3---------3-3-|-3---------3-3-|-3---------3-3-|-3---------3-3-|
|-x---------0-0-|-0---------x-x-|-x---------0-0-|-0---------x-x-|
|-2---------2-2-|-2---------2-2-|-2---------2-2-|-2---------2-2-|
|---------------|---------------|---------------|---------------|
|---------------|---------------|---------------|---------------|


                              (0:23)
            A7sus4add6         D                     Dsus4
  H..       S S   W            E. S q   E E  S e S   E. S Q   E  E  S  e  S
|-0---------2-2-|-2--------||--2--2-2-----2----2-2-|-3--3-3------5-----3--x--|
|-3---------3-3-|-3--------||o-3--3-3-----3----3-3-|-3--3-3------7-----5--x--|
|-x---------0-0-|-0--------||--2--2-2-----2----2-2-|-2--2-2------------------|
|-2---------2-2-|-2--------||--0--0-0-----0----0-0-|-0--0-0-----(0)---(0)----|
|---------------|----------||o---------------------|-------------------------|
|---------------|----------||----------------------|-------------------------|
                               Q    Q.    E.   E S   E. S Q.    +E.   +E  S


  D                     Dsus4                      Dm9
                                                   Gtrs II, III
                                                          |-3-|
  E. S q   E E  S e S   E. S Q   E  E  S  e  S     E E Q  Q Q Q
|-2--2-2-----2----2-2-|-3--3-3------5-----3--x--||---0----0---0-|
|-3--3-3-----3----3-3-|-3--3-3------7-----5--x-o||---1-1----1---|
|-2--2-2-----2----2-2-|-2--2-2------------------||--------------|
|-0--0-0-----0----0-0-|-0--0-0-----(0)---(0)----||-3------------|
|---------------------|------------------------o||--------------|
|---------------------|-------------------------||--------------|
  Q    Q.    E.   E S   E. S Q.    +E.   +E  S


  G13          Dm9             G13
  |-3-| |3|    |-3-|
  Q Q Q Q H    Q Q Q E E E E   E E +S   E.  Q   Q
|-0-0---0----|-----0---------|-0-------!0--^0--^0--||
|-0---0---0--|-1-3---3---1-3-|---0-(0)-!0--^0--^0--||
|-----x------|---------------|---------!2--^2--^2--||
|-----3------|---------3-----|---------------------||
|------------|---------------|---------------------||
|------------|---------------|---------------------||


 (0:43)
  Asus4     A7sus4add6      Asus4           A7sus4add6     N.C.
  Gtr IV
  W               W               W               H     E  E      +S   S E
|---------------|---------------|---------------|------------------------------|
|---------------|---------------|---------------|------------------------------|
|---------------|---------------|---------------|------------------------------|
|---------------|---------------|---------------|------------------------------|
|---------------|---------------|---------------|------------------------------|
|---------------|---------------|---------------|----------3b3.5==(3)r-0-3b3.5-|
|
| Gtrs II, III
| H..       S S   H..       S S   H..       S S   H    +E  E      +S   S E
|-0---------2-2-|-2---------0-0-|-0---------2-2-|-2----(2)---------------------|
|-3---------3-3-|-3---------3-3-|-3---------3-3-|-3----(3)---------------------|
|-x---------0-0-|-0---------x-x-|-x---------0-0-|-0----(0)---------------------|
|-2---------2-2-|-2---------2-2-|-2---------2-2-|-2----(2)---------------------|
|-0---------0-0-|-0---------0-0-|-0---------0-0-|-0----(0)---------------------|
|---------------|---------------|---------------|----------3------(3)--0-3-----|


     Asus4                       A7sus4add6
  H     +E  E      +S   S E   H     +E  E      +S   S E
|---------------------------|---------------------------|
|---------------------------|---------------------------|
|---------------------------|---------------------------|
|---------------------------|---------------------------|
|-0-----(0)-----------------|-0-----(0)-----------------|
|-0-----(0)-3b3.5==(3)r-0-3-|-0-----(0)-3b3.5==(3)r-0-3-|
|
| Q  Q  +E  E      +S   S E   Q  Q  +E  E      +S   S E
|----0--(0)-----------------|----2--(2)-----------------|
|----3--(3)-----------------|----3--(3)-----------------|
|----x----------------------|----0--(0)-----------------|
|----2--(2)-----------------|----2--(2)-----------------|
|-0--0--(0)-----------------|-0--0--(0)-----------------|
|-0---------3------(3)--0-3-|-0---------3------(3)--0-3-|


     Asus4                       A7sus4add6
  H     +E  E      +S   S E   H     +E  E      +S   S E
|---------------------------|---------------------------||
|---------------------------|---------------------------||
|---------------------------|---------------------------||
|---------------------------|---------------------------||
|-0-----(0)-----------------|-0-----(0)-3b3.5==(3)r-0-3-||
|-0-----(0)-3b3.5==(3)r-0-3-|---------------------------||
|
| Q  Q  +E  E      +S   S E   Q  Q  +E  E      +S   S E
|----0--(0)-----------------|----2--(2)-----------------||
|----3--(3)-----------------|----3--(3)-----------------||
|----x----------------------|----0--(0)-----------------||
|----2--(2)-----------------|----2--(2)-----------------||
|-0--0--(0)-----------------|-0--0--(0)-----------------||
|-0---------3------(3)--0-3-|-0---------3------(3)--0-3-||


 1st Guitar Solo (0:56)
  D                                 Dsus4
  Gtr IV
  Q    E.    S S  S S S  S  S S S   Q   S E. E S S S S E
|---------------------------------|------------------------|
|---------------------------------|------------------------|
|-----------------2-4p2-----4p2---|-2---2-2--------9p7-----|
|-0----0-----3s4---------4------4-|-0--------0-7h9-----9---|
|---------------------------------|------------------------|
|---------------------------------|------------------------|
|
| Gtrs I, II, III
| E E +S  E.   E.     S +E    E     E E Q    E E   S E   S
|---2-(2)------2--------------2---|---3--------5-----3---x-|
|---------3-----------3-(3)-------|-3---3------7-----5---x-|
|-2-------------------------------|-2----------------------|
|-0-------------------------------|------------------------|
|---------------------------------|------------------------|
|---------------------------------|------------------------|


  D                             Dsus4
  ~
  Q    E     E Q      +E.   S    S S S S S S S S S S S S S S E
|---------------------------7-|-----------------------------------|
|-----------------------------|-10p7------------------------------|
|-7----------7-9b11---(9)-----|------9p7---9p7---7-9p7---7-7------|
|------9----------------------|----------9-----9-------9-----9----|
|-----------------------------|-----------------------------------|
|-----------------------------|-----------------------------------|
|
| E E +S  E.   E.   S +E  E      E   E   Q       E   E   S E   S
|---2-(2)------2----------2---|------3---------------5-----3---x--|
|---------3---------3-(3)-----|--3-------3-----------7-----5---x--|
|-2---------------------------|--2--------------------------------|
|-0---------------------------|-----------------------------------|
|-----------------------------|-----------------------------------|
|-----------------------------|-----------------------------------|


  D                                     Dsus4
                                                ~~~~~~
  E E     +E      E   +E  S +S  +E  E   Q     E E +E  S S S S S S
|----------------10--(10)-------------|---------------------------|
|-------------------------------------|-7b8---7-------------------|
|-7-9b11==(9)----(9)--(9)-9r(9)-(9)-7-|---------7-(7)-----7-9p7---|
|-------------------------------------|---------------7h9-------9-|
|-------------------------------------|---------------------------|
|-------------------------------------|---------------------------|
|
| E E     +S  E.       E.    S  +E  E   E   E Q    E  E   S E   S
|---2-----(2)----------2------------2-|-----3---------5-----3---x-|
|-------------3--------------3--(3)---|-3-----3-------7-----5---x-|
|-2-----------------------------------|-2-------------------------|
|-0-----------------------------------|---------------------------|
|-------------------------------------|---------------------------|
|-------------------------------------|---------------------------|


  D                             Dsus4                C     DV
  Q    E     E Q      +E.   S    S S S S S S S S  E.   S E    E
|---------------------------7-|-----------------------------------|
|-----------------------------|-10p7------------------------------|
|-7----------7-9b11---(9)-----|------9p7---9p7----7\---2s5----4---|
|------9----------------------|----------9-----9------------------|
|-----------------------------|-----------------------------------|
|-----------------------------|-----------------------------------|
|
| E E +S  E.   E.   S +E  E      E   E   Q       +E  E   S e.
|---2-(2)------2----------2---|------3---------------3-----5------|
|---------3---------3-(3)-----|----------3-------(3)-5-----7------|
|-2---------------------------|----------2-------(2)-5-----7------|
|-0---------------------------|--0--------------------------------|
|-----------------------------|-----------------------------------|
|-----------------------------|-----------------------------------|


  F/D          C   DV      F/D              C   DV
   E.  S  q  E Q     E      S  S S  S  q  E Q     E
|------------------------|----------0--0--------------|
|------------------------|----------------------------|
|--2------2----5-----4---|--2----2----------5-----4---|
|------3-----------------|-----3----------------------|
|------------------------|----------------------------|
|------------------------|----------------------------|
|
|  E.  S  q  E E S E   S    E.      S  q  E E S E   S
|--8---8--8----3---5---x-|--8-------8--8----3---5---x-|
|-10--10-10----5---7---x-|-10------10-10----5---7---x-|
|-10--10-10----5---7-----|-10------10-10----5---7-----|
|--0---0--0--------------|--0-------0--0--------------|
|------------------------|----------------------------|
|------------------------|----------------------------|


  F/D          C   DV      F/D              C   DV
   E.  S  q  E Q     E      S  S S  S  q  E Q     E
|------------------------|----------0--0--------------|
|------------------------|----------------------------|
|--2------2----5-----4---|--2----2----------5-----4---|
|------3-----------------|-----3----------------------|
|------------------------|----------------------------|
|------------------------|----------------------------|
|
|  E.  S  q  E E S E   S    E.      S  q  E E S E   S
|--8---8--8----3---5---x-|--8-------8--8----3---5---x-|
|-10--10-10----5---7---x-|-10------10-10----5---7---x-|
|-10--10-10----5---7-----|-10------10-10----5---7-----|
|--0---0--0--------------|--0-------0--0--------------|
|------------------------|----------------------------|
|------------------------|----------------------------|


  F/D             C   DV      F/D            C   DV
   E.     S  q  E Q     E      S S S S  q  E Q     E
|---------------------------|--------0--0--------------|
|---------------------------|--------------------------|
|--2---------2----5-----4---|--2---2---------5-----4---|
|---------3-----------------|----3---------------------|
|---------------------------|--------------------------|
|---------------------------|--------------------------|
|
|  S  S S S  Q  E E S E   S    S S S S  Q  E E S E   S
|--8--7-7-7--8----3---5---x-|--8-7-7-7--8----3---5---x-|
|-10--9-9-9-10----5---7---x-|-10-9-9-9-10----5---7---x-|
|-10--9-9-9-10----5---7-----|-10-9-9-9-10----5---7-----|
|--0--0-0-0--0--------------|--0-0-0-0--0--------------|
|---------------------------|--------------------------|
|---------------------------|--------------------------|


  F/D             C   DV      F
                               ~~~
   E.     S  q  E Q     E      Q.       E +Q    Q
|---------------------------|----------------------|
|---------------------------|----------------------|
|--2---------2----5-----4---|--2--------0-(0)------|
|---------3-----------------|-------------------3--|
|---------------------------|----------------------|
|---------------------------|----------------------|
|
|  S  S S S  Q  E E S E   S    E   E  Q    Q    Q
|--8--7-7-7--8----3---5---x-|--8---8--8----8----8--|
|-10--9-9-9-10----5---7---x-|-10--10-10---10---10--|
|-10--9-9-9-10----5---7-----|-10--10-10---10---10--|
|--0--0-0-0--0--------------|---------0----0----0--|
|---------------------------|----------------------|
|---------------------------|----------------------|


                                        Verse (1
                                         Half-ti
                                         C
                                        2/4
       ~~~
  +E   Q.      Q     E  E    W           H
|-------------------------|-----------||-------|
|-------------------------|-----------||-------|
|-------------------------|-----------||-------|
|-(3)--2-------0----------|-----------||-------|
|--------------------3--2-|--0--------||-------|
|-------------------------|-----------||-------|
|
|  E   E   Q   E  E  E  E    W           Q  Q
|--8---8---8---8--8--8--8-|--8--------||-0--0--|
|-10--10--10--10-10-10-10-|-10--------||-1--1--|
|-10--10--10--10-10-10-10-|-10--------||-0--0--|
|--0---0---0---0--0--0--0-|--0--------||-2--2--|
|-------------------------|-----------||-3--3--|
|-------------------------|-----------||-------|


 :26)
 me Q=74
  G6
 4/4
  E.   S +S  S   +E    +E.     S +S  S S S
|------3-(3)-------------------------------|
|--------------------------------------1---|
|------------2b4r(2)---(2)-----------------|
|------------------------------0-(0)-2---2-|
|------------------------------------------|
|------------------------------------------|
|
| E  S S +S  S    S  S +S  S S S  S  S S S
|------0-(0)---------0-(0)-----0--0------0-|
|----3-------3-------------3---------3-----|
|-----------------0----------0---------0---|
|-0----------------------------------------|
|------------------------------------------|
|------------------------------------------|


            C       G6
  S E.   Q  H       S E S +Q         S  S S S  S  E.
|---2-------------|-----------------------3--------------|
|-----------------|---------------------3---------0------|
|-----------------|-----0-(0)--------6------3h=4---------|
|-0---------------|---0----------------------------------|
|-----------------|--------------------------------------|
|-----------------|--------------------------------------|
|
| S S  E Q  Q  Q    S E S +S  S S S +S  S S S +S  S  S S
|-0---------0--0--|-----0-(0)-----0-(0)-----0-(0)------0-|
|---3----0--1--1--|-----------3---------3---------3------|
|------0----0--0--|-------------0---------0----------0---|
|-----------2--2--|---0----------------------------------|
|-----------3--3--|--------------------------------------|
|-----------------|-3------------------------------------|


                    C       F#7
  +S  S S S  S  S E H       E   E    S  E S S E   S +S  S E
|-------------------------|-------------------7---6-(6)---6----|
|-(0)---------------------|-----------------------------7------|
|---------0---------------|----------3----4s7------------------|
|-------------------------|-----4------------------------------|
|-----4s5----1s=2---------|-------------4----------------------|
|-----------------3-------|------------------------------------|
|
| +S  S E   +Q      Q  Q    S E   S +S  E S S S S S  S  S S S
|-(0)---------------0--0--|-0-----0-(0)-------0---------0------|
|-----3-------------1--1--|---2---------2-0h2---2-0h=2----2-0--|
|-------0---(0)-----0--0--|------------------------------------|
|-------------------2--2--|------------------------------------|
|-------------------3--3--|------------------------------------|
|-------------------------|------------------------------------|


  Fmaj7                                        G
  E   S S Q        S S E    E    a  S  S        +S    E.  +S   S  +e  Q   e  E
|-----5---5-------10---8S==13---13p12--------|-------15--(15)------------------|
|-------6------------------------------------|---------------------------------|
|--------------------9----------------14b16==|=(14)-(14)-(14)-14r(14)----14-12-|
|--------------------------------------------|---------------------------------|
|--------------------------------------------|---------------------------------|
|--------------------------------------------|---------------------------------|
|
| S S S S S S S S  S S S S  S S     E            W
|---0-------0--------0--------0--------------|---------------------------------|
|-1---1-0h1---1-0h=1---1-0h=1-------1--------|---0-----------------------------|
|--------------------------------------------|---0-----------------------------|
|--------------------------------------------|---0-----------------------------|
|--------------------------------------------|---x-----------------------------|
|--------------------------------------------|---3-----------------------------|


                     C                         G6
          ~~                                    ~~
   S   S  E  S  S  E  S  S  S  S  S  S  S  S    Q      Q         H
|--------------------------------------------|-------------------------------------|
|--------------------------------------------|-------------------------------------|
|--------12----------------12----------------|-------------------------------------|
|-----------------12----------------12-------|-------------------------------------|
|-13h=14----13-14----13-14----13-14----13h14-|-10----------------------------------|
|--------------------------------------------|-------------------------------------|
|
| +H                  Q           Q             E S S +S  S S S +S  S S S S S S S
|---------------------0-----------0----------|------0-(0)-----0-(0)-----0-0-----0--|
|-(0)-----------------1-----------1----------|----3-------3---------3-------3------|
|-(0)-----------------0-----------0----------|--------------0---------0-------0----|
|-(0)-----------------2-----------2----------|--0----------------------------------|
|---------------------3-----------3----------|-------------------------------------|
|-(3)----------------------------------------|-------------------------------------|


           C       G6                                                   C
  W                Q      S  S S S  E    S S +S  S S S   +E    S S +Q   H
|----------------|-------------3-----------------------|----------------------|
|----------------|-----------3-------------------------|----------------------|
|----------------|--------0------3h=4----------------0-|-(0)------------------|
|----------------|-----------------------4h5-(5)-------|----------------------|
|----------------|-------------------------------4h5---|-------2--------------|
|----------------|-------------------------------------|---------3-(3)--------|
|
| S S E Q  Q  Q    S E S +S  S S S +S  S S S +S  S S S   +S  S E   +Q   Q  Q
|-0--------0--0--|-----0-(0)-----0-(0)-----0-(0)-----0-|-(0)------------0--0--|
|---3---0--1--1--|-----------3---------3---------3-----|-----3----------1--1--|
|-----0----0--0--|-------------0---------0---------0---|-------0---(0)--0--0--|
|----------2--2--|---0---------------------------------|----------------2--2--|
|----------3--3--|-------------------------------------|----------------3--3--|
|----------------|-3-----------------------------------|----------------------|


  F#7                                      Fmaj7
                               PM
  e     e      S  S E   E.     S S S E     S S S S S S S S S S  S  S E   S  S
|----------------------------------------|---------------5---5s10----8---8----||
|----------------------------------------|-----1-0-1-----0-----------------10s||
|----------------------------------------|-1-2-------3s5-----5s10-10----------||
|-6b8---6b8-------6-4------------6-4-----|------------------------------------||
|------------------------------0---------|------------------------------------||
|----------------------------------------|------------------------------------||
|
| S   E     S +S  E   S S  S S S S S S S   S S S S S S S S S S  S  S S S E
|-0---------0-(0)----------0-------0-----|---0-------0-------0---------0------||
|-----2-----------2---0h2----2-0h2---2-0h|=1---1-0h1---1-0h1----1--0h1---1----||
|----------------------------------------|------------------------------------||
|----------------------------------------|------------------------------------||
|----------------------------------------|------------------------------------||
|----------------------------------------|------------------------------------||


 (2:18)
  Original Tempo Q=148
                                                     Asus4
         ~~~~~~~~
   E  E  Q   +Q   Q     S   E    S E    S S E e S E.
|----10--------------|--------------------------------------||
|-12----12--(12)-----|--------------------------------------||
|--------------------|------5pb7---5pb6-x-5---5---4---------||
|--------------------|--------------------------------------||
|--------------------|--------------------------------------||
|--------------------|--------------------------------------||
|
|  W                   +H..                          S S
|--------------------|-------------------------------0-0----||
|--0-----------------|-(0)---------------------------3-3----||
|--0-----------------|-(0)---------------------------x-x----||
|--0-----------------|-(0)---------------------------2-2----||
|--------------------|-------------------------------0-0----||
|--------------------|--------------------------------------||


            A7sus4add6      Asus4           A7sus4add6
  H..       S S   H..       S S   W               H     E  E      +S   S E
|-----------2-2-|-2---------0-0-|-0-------------|------------------------------|
|-----------3-3-|-3---------3-3-|-3-------------|------------------------------|
|-----------0-0-|-0---------0-0-|-0-------------|------------------------------|
|-2---------2-2-|-2---------2-2-|-2-------------|------------------------------|
|-0---------0-0-|-0---------0-0-|-0-------------|------------------------------|
|---------------|---------------|---------------|----------3b3.5==(3)r-0-3b3.5-|
|
| H..       S S   H..       S S   H..       S S   H    +E  E      +S   S E
|-0---------2-2-|-2---------0-0-|-0---------2-2-|-2----(2)---------------------|
|-3---------3-3-|-3---------3-3-|-3---------3-3-|-3----(3)---------------------|
|-x---------0-0-|-0---------x-x-|-x---------0-0-|-0----(0)---------------------|
|-2---------2-2-|-2---------2-2-|-2---------2-2-|-2----(2)---------------------|
|-0---------0-0-|-0---------0-0-|-0---------0-0-|-0----(0)---------------------|
|---------------|---------------|---------------|----------3------(3)--0-3-----|


     Asus4                           A7sus4add6
  H     +E  E      +S   S E       H     +E  E      +S   S E
|-------------------------------|-------------------------------|
|-------------------------------|-------------------------------|
|-------------------------------|-------------------------------|
|-------------------------------|-------------------------------|
|-0-----(0)---------------------|-0-----(0)---------------------|
|-0-----(0)-3b3.5==(3)r-0-3b3.5-|-0-----(0)-3b3.5==(3)r-0-3b3.5-|
|
| Q  Q  +E  E      +S   S E       Q  Q  +E  E      +S   S E
|----0--(0)---------------------|----2--(2)---------------------|
|----3--(3)---------------------|----3--(3)---------------------|
|----x--------------------------|----0--(0)---------------------|
|----2--(2)---------------------|----2--(2)---------------------|
|-0--0--(0)---------------------|-0--0--(0)---------------------|
|-0---------3------(3)--0-3-----|-0---------3------(3)--0-3-----|


     Asus4                           A7sus4add6
  H     +E  E      +S   S E       Q  H.
|-------------------------------|----------------------||
|-------------------------------|----------------------||
|-------------------------------|----------------------||
|-------------------------------|----------------------||
|-0-----(0)---------------------|-0--------------------||
|-0-----(0)-3b3.5==(3)r-0-3b3.5-|----0-----------------||
|
| Q  Q  +E  E      +S   S E       Q  Q   +E  E +S  S E
|----0--(0)---------------------|----2---(2)-----------||
|----3--(3)---------------------|----3---(3)-----------||
|----x--------------------------|----0---(0)-----------||
|----2--(2)---------------------|----2---(2)-----------||
|-0--0--(0)---------------------|-0--0---(0)-----------||
|-0---------3------(3)--0-3-----|-0----------3-(3)-0-3-||


 2nd Guitar Solo (2:34)
  D                               Dsus4
  Q      Q     S S S  S S S E     Q    E  E E  E    E     E
|-------------------------------|-------------------------7---|
|-7------7----------------------|-------------------7---------|
|-9b11---9b11--9p7----9p7---7---|-7------------9b11-----------|
|------------------9------9-----|------9----------------------|
|-------------------------------|-----------------------------|
|-------------------------------|-----------------------------|
|
| E.   S q     E   E    S e   S   E. S Q    E  E    S  e    S
|-2----2-2---------2------2---2-|-3--3-3-------5-------3----x-|
|-3----3-3---------3------3---3-|-3--3-3-------7-------5----x-|
|-2----2-2---------2------2---2-|-2--2-2----------------------|
|-0----0-0---------0------0---0-|-0--0-0------(0)-----(0)-----|
|-------------------------------|-----------------------------|
|-------------------------------|-----------------------------|
  Q      Q.        E.     E   S   E. S Q.     +E.     +E    S


  D                          Dsus4
   Q     E. S S S E  S E S   Q    q   E  E    S  S   S S
|--------------------------|---------------------7---------|
|-10----10--7--------------|------------------7-----10p7---|
|-------------9p7----9p7---|-7-----------9b11--------------|
|------------------------9-|------9------------------------|
|--------------------------|-------------------------------|
|--------------------------|-------------------------------|
|
|  E. S  q    E   E  S e S   E. S Q   E  E    S  e     S
|--2--2--2--------2----2-2-|-3--3-3------5-------3-----x---|
|--3--3--3--------3----3-3-|-3--3-3------7-------5-----x---|
|--2--2--2--------2----2-2-|-2--2-2------------------------|
|--0--0--0--------0----0-0-|-0--0-0-----(0)-----(0)--------|
|--------------------------|-------------------------------|
|--------------------------|-------------------------------|
   Q     Q.       E.   E S   E. S Q.    +E.     +E     S


  D                                 Dsus4
  S E S S  S S S S S S  S S S S S   E  S S S S S S S S  E  S  S  E
|---------------------------------|----------------------------------|
|---------------------------------|----------------------------------|
|-9p7-9p7----7-9p7---7------------|----------------------------------|
|----------9-------9----9p7---7-9p|=7--7-9-7h9---9-7----7------------|
|---------------------------9-----|------------0-----9-----9s=7--5---|
|---------------------------------|----------------------------------|
|
| E.  S q        E   E    S e   S   E.   S Q       E    E  S  e    S
|-2---2-2------------2------2---2-|-3----3-3------------5-----3----x-|
|-3---3-3------------3------3---3-|-3----3-3------------7-----5----x-|
|-2---2-2------------2------2---2-|-2----2-2-------------------------|
|-0---0-0------------0------0---0-|-0----0-0-----------(0)---(0)-----|
|---------------------------------|----------------------------------|
|---------------------------------|----------------------------------|
  Q     Q.           E.     E   S   E.   S Q.          +E.   +E    S


  D                             Dsus4
  Q    E  S S S S S S S S S S   E  S  S  Q    S  S  S   S  E           E
|-----------------------------|---------10----------------------------------||
|-----------------------------|--------------13p10-----10-------------------||
|-----------------9p7---9p7---|-7--9s11------------12-----10b10.5-----------||
|---------------7-----9-----9-|---------------------------------------12----||
|-5----5\---7s9---------------|---------------------------------------------||
|-----------------------------|---------------------------------------------||
|
| E. S q      E   E   S e   S   E.    S  Q    E     E      S       e     S
|-2--2-2----------2-----2---2-|-3-----3--3----------5--------------3-----x--||
|-3--3-3----------3-----3---3-|-3-----3--3----------7--------------5-----x--||
|-2--2-2----------2-----2---2-|-2-----2--2----------------------------------||
|-0--0-0----------0-----0---0-|-0-----0--0---------(0)------------(0)-------||
|-----------------------------|---------------------------------------------||
|-----------------------------|---------------------------------------------||
  Q    Q.         E.    E   S   E.    S  Q.        +E.            +E     S


  Dm9                            G13
  Q   E.  S  E  E    E       E    +E   E   Q   S  a  E    S  +S   E  S
|------------------------------|------------------------------------------|
|--------------13---15b17---15-|-(15)--------------------13-(13)-15-15b17-|
|--------10s14-----------------|------12---------12s14--------------------|
|------------------------------|------------------------------------------|
|------------------------------|------------------------------------------|
|------------------------------|------------------------------------------|
|
|            |-----3------|        |----3----| |---3---|
| E E Q      Q    Q       Q        Q     Q   Q Q       H
|---0--------0------------0----|---0-----0-----0--------------------------|
|---1-1-----------1------------|---0---------0---------0------------------|
|------------------------------|-------------x----------------------------|
|-3----------------------------|-------------3----------------------------|
|------------------------------|------------------------------------------|
|------------------------------|------------------------------------------|


  Dm9                                   G13
   +E   E    E       E Q   E.    S       +E   Q          E  +E.  S      +Q
|------15-----------------------------|----------------------------------------||
|-(15)------15b17---15----------15b17-|-(15)-15--------------------------------||
|-------------------------------------|-----------------12-(12)-14b16==(14)r---||
|-------------------------------------|----------------------------------------||
|-------------------------------------|----------------------------------------||
|-------------------------------------|----------------------------------------||
|
|   |------3------|
|   Q     Q       Q    E E E  E           E   E +S   E.      Q           Q
|-----------------0-------------------|---0---------!0-----^-0---------^-0-----||
|---1-----3------------3---1--3-------|-------0-(0)-!0-----^-0---------^-0-----||
|-------------------------------------|-------------!2-----^-2---------^-2-----||
|------------------------3------------|----------------------------------------||
|-------------------------------------|----------------------------------------||
|-------------------------------------|----------------------------------------||


  Asus4       A7sus4add6                           Asus4
                               ~~~~~~~~~
   H      H          E.    S  +Q    +E.  S  +S   E    S
|-----------------|----------------------------------------|
|-----------------|----------------------------------------|
|-----------------|-12b14-----------------------12---15b17-|
|-14--------------|-------14-(14)--(14)-14-(14)------------|
|-----------------|----------------------------------------|
|-----------------|----------------------------------------|
|
|  H..        S S    H..                           S  S
|--0----------2-2-|--2-----------------------------0--0----|
|--3----------3-3-|--3-----------------------------3--3----|
|--x----------0-0-|--0-----------------------------x--x----|
|--2----------2-2-|--2-----------------------------2--2----|
|--0----------0-0-|--0-----------------------------0--0----|
|-----------------|----------------------------------------|


                            A7sus4add6
                                                  ~~~~~~~
    |---3---|
   +Q    Q  Q     E  E    E  E          +S   +S   E  +Q    Q     S   S  S  S
|-------15---------------------------|---------------------------------------|
|----------15b17-15------------------|---------------------------------------|
|-(15)--------------16b17---16b18====|=(16)r(16)-14-(14)------------16p14----|
|------------------------------------|------------------------------------16-|
|------------------------------------|---------------------------------------|
|------------------------------------|---------------------------------------|
|
|   H..                      S     S     H                +E  E +S   S  E
|---0------------------------2-----2-|---2----------------(2)----------------|
|---3------------------------3-----3-|---3----------------(3)----------------|
|---x------------------------0-----0-|---0----------------(0)----------------|
|---2------------------------2-----2-|---2----------------(2)----------------|
|---0------------------------0-----0-|---0----------------(0)----------------|
|------------------------------------|------------------------3-(3)--0--3----|


      Asus4                        A7sus4add6
   ~~                           ~
   Q   E  E  E  S S  S  S S S   Q   q   E  S S  S  S S S
|-----------------------------|--------------------------|
|-----------------------------|--------------------------|
|-14-----------------2--5p2---|-2---------------2--5p2---|
|-----16\-------2-4---------5-|----/7------2-4---------5-|
|-----------------------------|--------------------------|
|-----------------------------|--------------------------|
|
|  Q   Q    +E  E   +S  S E     Q   Q  +E  E   +S  S E
|------0----(0)---------------|-----2--(2)---------------|
|------3----(3)---------------|-----3--(3)---------------|
|------x----------------------|-----0--(0)---------------|
|------2----(2)---------------|-----2--(2)---------------|
|--0---0----(0)---------------|-0---0--(0)---------------|
|--0------------3---(3)-0-3---|-0----------3---(3)-0-3---|


     Asus4                      A7sus4add6
  Q   q   E  S S  S  S S S   Q  Q   H
|--------------------------|-----------------------||
|--------------------------|-----------------------||
|-2------------------5p2---|-2---------------------||
|----/7------2h4---------5-|-----------------------||
|--------------------------|-----------------------||
|--------------------------|-----------------------||
|
| Q   Q  +E  E   +S  S E     Q  Q  +E  E +S  S E
|-----0--(0)---------------|----2--(2)-------------||
|-----3--(3)---------------|----3--(3)-------------||
|-----x--------------------|----0--(0)-------------||
|-----2--(2)---------------|----2--(2)-------------||
|-0---0--(0)---------------|-0--0--(0)-------------||
|-0----------3---(3)-0-3---|-0---------3-(3)-0-3---||


 Chorus (3:08)
  $
  D                       Dsus4
  E E +S  E. E. S +E  E   E E E. S E E S E S
|---2-(2)----2--------2-|---3----3---5---3-x-|
|---------3-----3-(3)---|-----3------7---5-x-|
|-----------------------|--------------------|
|-0---------------------|-0------------------|
|-----------------------|--------------------|
|-----------------------|--------------------|


  D                         Dsus4
  E E +S  E. E. S +S  S E   E E +S  E S E E E S S
|---2-(2)----2--------2-2-|---3-(3)---3---5-3-----|
|---3-(3)-3--3--3-(3)---3-|-3-3-(3)---3---7-5p3-0-|
|-------------------------|---------------7-------|
|-0-----------------------|---------0-----0-------|
|-------------------------|-----------------------|
|-------------------------|-----------------------|


  E E E E E. S S E.   E E +S  E S E E S E S
|---2-2---2----2-2--|---3-(3)---5---5---3---|
|---3-3-3-3--3-3-3--|---3-(3)-3-3---7---5-0-|
|---2-----2--2------|---------------7-------|
|-0-----------------|-0-----------0---------|
|-------------------|-----------------------|
|-------------------|-----------------------|


  E E +S  E. E. S +S  S E   E E E. S +E  E S S E
|---2-(2)----2--------2---|---3----3-(3)-3---5---||
|---------3--3--3-(3)-----|-----3--------5---7---||
|-------------------------|--------------5---7---||
|-0-----------------------|-0--------------------||
|-------------------------|----------------------||
|-------------------------|----------------------||


 (3:21)
  F/D              C     DV     F/D              C     DV     F/D          C     DV
   S  S S  S  q  E E +S  E.      S  S S  S  Q  E E +S  E.      E.  S  Q  E E +S  E.
|-------------0---------------|-------------0---------------|-------------------------|
|----------1------------------|----------1------------------|-------------------------|
|--2----2----------5-(5)-4----|--2----2----------5-(5)-4----|--2------2----5-(5)-4----|
|-----3-----------------------|-----3-----------------------|------3------------------|
|-----------------------------|-----------------------------|-------------------------|
|-----------------------------|-----------------------------|-------------------------|
|
| Gtrs I, II, III
|  E.      S  q  E E  S  E  S    E.      S  q  E E  S  E  S    E.  S  q  E E  S  E  S
|--8-------8--8----3-----5--x-|--8-------8--8----3-----5--x-|--8---8--8----3-----5--x-|
|-10------10-10----5-----7--x-|-10------10-10----5-----7--x-|-10--10-10----5-----7--x-|
|-10------10-10----5-----7----|-10------10-10----5-----7----|-10--10-10----5-----7----|
|--0-------0--0---------------|--0-------0--0---------------|--0---0--0---------------|
|-----------------------------|-----------------------------|-------------------------|
|-----------------------------|-----------------------------|-------------------------|


  F/D              C     DV     F/D             C     DV
   S  S S  S  q  E E +S  E.      E.  S  S S E E E +S  E.
|-------------0---------------|-------------------------------|
|----------1------------------|-----------1-------------------|
|--2----2----------5-(5)-4----|--2------2-------5-(5)-4-------|
|-----3-----------------------|------3------------------------|
|-----------------------------|-------------------------------|
|-----------------------------|-------------------------------|
|
|  E.      S  q  E E  S  E  S    E.  S  q     E E  S  E  S
|--8-------8--8----3-----5--x-|--8---8--8-------3-----5--x----|
|-10------10-10----5-----7--x-|-10--10-10-------5-----7--x----|
|-10------10-10----5-----7----|-10--10-10-------5-----7-------|
|--0-------0--0---------------|--0---0--0---------------------|
|-----------------------------|-------------------------------|
|-----------------------------|-------------------------------|


                                                To Coda
   S S S S  q  E E +S  E.      E.     S  q  E E +S  E.
|-----------0---------------|----------------------------|
|--------1------------------|----------------------------|
|--2---2---------5-(5)-4----|--2---------2----5-(5)-4----|
|----3----------------------|---------3------------------|
|---------------------------|----------------------------|
|---------------------------|----------------------------|
|
|  S S S S  Q  E E  S  E  S    S  S S S  Q  E E  S  E  S
|--8-7-7-7--8----3-----5--x-|--8--7-7-7--8----3-----5--x-|
|-10-9-9-9-10----5-----7--x-|-10--9-9-9-10----5-----7--x-|
|-10-9-9-9-10----5-----7----|-10--9-9-9-10----5-----7----|
|--0-0-0-0--0---------------|--0--0-0-0--0---------------|
|---------------------------|----------------------------|
|---------------------------|----------------------------|


  F         Em      GX          F         Am        GX
   Q.       E +Q     Q      +E   Q.        Q.        E
|-------------------------|----------------------------|
|-------------------------|----------------------------|
|--2--------0-(0)---------|----------------------------|
|--------------------3----|-(3)--2---------0-----------|
|-------------------------|--------------------------3-|
|-------------------------|----------------------------|
|
|  E   E  e E  E  e  E  E    E   E   E  E  E   E  E  E
|--8---8--8-7--7--7-10-10-|-10---8---8--8-12--12-12-10-|
|-10--10-10-8--8--8-12-12-|-12--10--10-10-13--13-13-12-|
|-10--10-10-9--9--9-12-12-|-12--10--10-10-14--14-14-12-|
|-------------------------|----------------------------|
|-------------------------|----------------------------|
|-------------------------|----------------------------|


         D6
  +Q      Q        H                  +H                  H
|-----------------------------------|--------------------------------------|
|-----------------------------------|--------------------------------------|
|-----------------------------------|--------------------------------------|
|-----------------------------------|--------------------------------------|
|-(3)-----2--------0----------------|-(0)----------------------------------|
|-----------------------------------|--------------------------------------|
|
|  E   e  E  S  S  E  S  S  E  S  S    E   S  S  E  S  S  E  S  S  E  S  S
|-10--10-14----14-14----14-14----14-|-14-----14-14----14-14----14-14----14-|
|-12--12-15-15-15-15-15-15-15-15-15-|-15--15-15-15-15-15-15-15-15-15-15-15-|
|-12--12----16-------16-------16----|-----16-------16-------16-------16----|
|-----------------------------------|--------------------------------------|
|-----------------------------------|--------------------------------------|
|-----------------------------------|--------------------------------------|


   W                                     W
|-------------------------------------|-----------------------------------||
|-------------------------------------|-----------------------------------||
|-------------------------------------|-----------------------------------||
|-------------------------------------|-----------------------------------||
|-------------------------------------|-----------------------------------||
|-------------------------------------|-----------------------------------||
|
|  E  S  S  E  S  S  E  S  S  E  S  S    E  S  S  E  S  S  E  S  S  E  e
|-14----14-14----14-14----14-14----14-|-14----14-14----14-14----14-14-----||
|-15-15-15-15-15-15-15-15-15-15-15-15-|-15-15-15-15-15-15-15-15-15-15-15--||
|----16-------16-------16-------16----|----16-------16-------16-------16--||
|-------------------------------------|-----------------------------------||
|-------------------------------------|-----------------------------------||
|-------------------------------------|-----------------------------------||


 Interlude (3:42)
  (G6)
                                              ~~~
   Q.     a      +E   +Q    E     +E     +E   Q.      E  E  E       E
|-15----------------------------------|-------------------------------|
|--------15pb17r(15)-(15)-------------|-------------------------------|
|--------------------------14b16r(14)-|-(14)-12------------12b12.5----|
|-------------------------------------|--------------12-14---------12-|
|-------------------------------------|-------------------------------|
|-------------------------------------|-------------------------------|
|
|  E  Q           E    Q    E      E      E   E  E E  E  Q          E
|-----3-----------3-------------------|------------3------------------|
|--5-------------------3-----------3--|----------0-------0------------|
|---------------------------4---------|---4---2-------0---------------|
|-------------------------------------|-------------------------------|
|-------------------------------------|-----------------------------2-|
|-------------------------------------|-------------------------------|


  A7sus4
                 ~~~~
   H            +H           +E   E  E  +E   +H
|-------------------------|----------------------------|
|-------------------------|----------------------------|
|-------------------------|------12--------------------|
|-12b14========(12)-------|-(12)----12r(12)-(12)-------|
|-------------------------|----------------------------|
|-------------------------|----------------------------|
|
|  E     E E E   E  E E E     E   E  E   E    E  E E E
|----------------2------3-|----------2-----------0-----|
|--------3----------3-----|---3----------3---------3---|
|----------0--------------|----------------------------|
|-------------------------|----------------------------|
|--0---------0--------0---|-------0-----------0------0-|
|-------------------------|----------------------------|


  (G6)
   Q.     a      +E   +Q    Q      E  S     +S   +Q     Q    Q
|-15----------------------------|--------------------------------|
|--------15pb17r(15)-(15)--15---|-15-----------------------------|
|-------------------------------|----14b16r(14)-(14)---12--------|
|-------------------------------|---------------------------12---|
|-------------------------------|--------------------------------|
|-------------------------------|--------------------------------|
|
|  E  Q           E    Q    E E    E  E           E  E  E Q    E
|-----3-----------3-------------|--------------------3-----------|
|--5-------------------3------3-|-----------------0-------0------|
|---------------------------4---|--4--2-----------------0--------|
|-------------------------------|--------------------------------|
|-------------------------------|------------------------------2-|
|-------------------------------|--------------------------------|


  A7sus4
                 ~~~~~~~~~~~~~~~~~
   H            +H           +Q     Q   H
|-------------------------|-----------------------|
|-------------------------|-----------------------|
|-------------------------|-----------------------|
|-14b16========(14)-------|-(14)r-----------------|
|-------------------------|-----------------------|
|-------------------------|-----------------------|
|
|  E     E E E   E  E E E     E   E E E E E E E
|----------------2------3-|---------2-----0-------|
|--------3----------3-----|---3-------3-----3-----|
|----------0--------------|-----------------------|
|-------------------------|-----------------------|
|--0---------0--------0---|-------0-----0-----0---|
|-------------------------|-----------------------|


  Cadd9
  PM|
  E E E E E E E E   E E E E E Q.
|-----------------|-----------------|
|-----------------|-6---5-----------|
|-----------5-5-7-|---7---5-7-5-----|
|-----5-5-7-------|-----------------|
|-5-7-------------|-----------------|
|-----------------|-----------------|
|
| Q   E E E E E E   E E E E Q    Q
|-------------0---|---1-----0-------|
|-------3-------1-|--------------3--|
|---------0-------|-----0-----------|
|-----------------|-----------------|
|-3---3-----3-----|-3-----3---------|
|-----------------|-----------------|


  E.  S +E  E E. S    +E   E   H       E   +S  S +E  E
|----/8-(8)-7-5--------------|---------7b8r(7)p5-(5)---|
|----------------7b8==(7)r-7-|-5-----------------------|
|----------------------------|-------------------------|
|----------------------------|-------------------------|
|----------------------------|-------------------------|
|----------------------------|-------------------------|
|
| Q      E  E Q        E   E   E E E E Q          Q
|----------------------0-----|---2-----0---------------|
|-1---------3--------------1-|--------------------3----|
|-------------0--------------|-----0-------------------|
|----------------------------|-------------------------|
|--------3-------------------|-3-----3-----------------|
|----------------------------|-------------------------|


  (C5)  (G/B) (A5)    A     (G5)
  E E E E E E E E   E E E E E E E E
|-----------------|-----------------|
|-----------------|-----------------|
|-----------------|-----------------|
|-----------------|-----------------|
|-3-3-3-2-2-2-0---|---0-0-0---------|
|-----------------|---------3-3-2-0-|
|
| E E E E E E q     E E E E E E E E
|-----------------|-----------------|
|-----------------|---2-2-2---------|
|-----------------|---2-2-2---------|
|-----------------|---2-2-2---------|
|-3-3-3-2-2-2-0---|---0-0-0---------|
|-----------------|---------3-3-2-0-|


  E7sus4                                Asus4
  W             +Q    Q  S    +E  S +Q
|-------------|-------------------------------||
|-3b5=========|=(3)r-----3pb4r(3)p1-(1)-------||
|-------------|-------------------------------||
|-------------|-------------------------------||
|-------------|-------------------------------||
|-------------|-------------------------------||
|
| W             +H.                  E  S S
|-0-----------|-(0)---------------------0-0---||
|-3-----------|-(3)---------------------3-3---||
|-2-----------|-(2)---------------------x-x---||
|-2-----------|-(2)---------------------2-2---||
|-------------|-------------------------0-0---||
|-------------|-------------------------------||


 3rd Guitar Solo (4:09)
             A7sus4add6                Asus4
  ~~~                              ~
  H.       Q       E   S S S S S S H
|----------------|-------------------------|
|----------------|-------------------------|
|-2--------------|---------2-4p2---2-------|
|----------------|-----2-4-------4---------|
|----------------|-------------------------|
|----------------|-------------------------|
|
| H..        S S   H..                 S S
|-0----------2-2-|-2-------------------0-0-|
|-3----------3-3-|-3-------------------3-3-|
|-x----------0-0-|-0-------------------x-x-|
|-2----------2-2-|-2-------------------2-2-|
|-0----------0-0-|-0-------------------0-0-|
|----------------|-------------------------|


            A7sus4add6
                                 ~~~
  W               E S S S S S S  H
|---------------|-------------------------------|
|---------------|-------------------------------|
|---------------|-------2h4p2----2--------------|
|---------------|---2h4-------4-----------------|
|---------------|-------------------------------|
|---------------|-------------------------------|
|
| H..       S S   H             +E  E +S  S E
|-0---------2-2-|-2-------------(2)-------------|
|-3---------3-3-|-3-------------(3)-------------|
|-x---------0-0-|-0-------------(0)-------------|
|-2---------2-2-|-2-------------(2)-------------|
|-0---------0-0-|-0-------------(0)-------------|
|---------------|-------------------3-(3)-0-3---|


                                          ~
  |-3-|
  S S S S S S S E +H              S S S S E E  H
|-------------------------------|---------------------------|
|-------------------------------|---------------------------|
|-------------------------------|---------2-----------------|
|-------------------------------|---2-4-2---4---------------|
|-0h2-0---2p0---0-(0)-----------|---------------------------|
|-------4-----4-----------------|---------------------------|
|
| Q         Q     +E  E +S  S E   Q       Q   +E  E +S  S E
|-----------0-----(0)-----------|---------2---(2)-----------|
|-----------3-----(3)-----------|---------3---(3)-----------|
|-----------x-------------------|---------0---(0)-----------|
|-----------2-----(2)-----------|---------2---(2)-----------|
|-0---------0-----(0)-----------|-0-------0---(0)-----------|
|-0-------------------3-(3)-0-3-|-0---------------3-(3)-0-3-|


                                            ~
  E.  S S S S S  S  S S S  q        a a S S E +E. S  E   q          E
|-----2---------------------------|-----5h8-5-(5)---10--10b12-------8---||
|-------5p2-----------------------|---x-----------0---------------------||
|-4b6-------4p2-----4p2----2------|-x-----------------------------------||
|----------------4------4---------|-------------------------------------||
|---------------------------------|-------------------------------------||
|---------------------------------|-------------------------------------||
|
| Q     Q       +E    E   +S  S E       Q      Q    +E   E    +S  S E
|-------0-------(0)---------------|------------2----(2)-----------------||
|-------3-------(3)---------------|------------3----(3)-----------------||
|-------x-------------------------|------------0----(0)-----------------||
|-------2-------(2)---------------|------------2----(2)-----------------||
|-0-----0-------(0)---------------|-----0------0----(0)-----------------||
|-0-------------------3---(3)-0-3-|-----0----------------3----(3)-0-3---||


 (4:22)
  D                                  Dsus4
   Q    Q   E  a  E   +S   S  S  S   Q     S  S E E  S   S  +S   S   S  S
|-------8--------------------------|--------------------------------------|
|-10-------------------------------|--------------------------------------|
|-------------------------14-16----|------12h14-----------------14--16-14-|
|-------------14s16--(16)-------16-|----------------12s=16-(16)-----------|
|----------------------------------|--------------------------------------|
|----------------------------------|--------------------------------------|
|
|  E. S q   E     E    S   e     S   E. S  Q      E  E       S   e      S
|--2--2-2---------2--------2-----2-|-3--3--3---------5-----------3------x-|
|--3--3-3---------3--------3-----3-|-3--3--3---------7-----------5------x-|
|--2--2-2---------2--------2-----2-|-2--2--2------------------------------|
|--0--0-0---------0--------0-----0-|-0--0--0--------(0)---------(0)-------|
|----------------------------------|--------------------------------------|
|----------------------------------|--------------------------------------|
   Q    Q.        E.       E     S   E. S  Q.       +E.         +E      S


  D                                       Dsus4
   +Q     E    E E  a  E   +S   S  S  S    Q     Q   E  Q        E
|---------------------------------------|---------------5--------------|
|---------------------------------------|------------------------5b7r==|
|-(14)---16b17-----------------14-16----|-14---------------------------|
|------------------14s16--(16)-------16-|-------16\--------------------|
|---------------------------------------|------------------------------|
|---------------------------------------|------------------------------|
|
|   E. S  q      E     E    S   e     S    E. S  Q   E  E  S  e      S
|---2--2--2------------2--------2-----2-|--3--3--3------5-----3------x-|
|---3--3--3------------3--------3-----3-|--3--3--3------7-----5------x-|
|---2--2--2------------2--------2-----2-|--2--2--2---------------------|
|---0--0--0------------0--------0-----0-|--0--0--0-----(0)---(0)-------|
|---------------------------------------|------------------------------|
|---------------------------------------|------------------------------|
    Q     Q.           E.       E     S    E. S  Q.    +E.   +E      S


  D                           Dsus4
  +E  E   E  E +H             S S S S S S S S S S  S  S S  S  S S
|---------------------------|-------------------------------------|
|-(5)-3------3-(3)----------|-------------------------------------|
|---------x-----------------|-2p0---0-2p0---0---------------------|
|---------------------------|-----4-------4---2p0-----0-2p=0----0-|
|---------------------------|----------------------4----------4---|
|---------------------------|-------------------------------------|
|
|  E.   S q     E  E  S e S   E.    S Q       E    E    S  e    S
|--2----2-2--------2----2-2-|-3-----3-3------------5-------3----x-|
|--3----3-3--------3----3-3-|-3-----3-3------------7-------5----x-|
|--2----2-2--------2----2-2-|-2-----2-2---------------------------|
|--0----0-0--------0----0-0-|-0-----0-0-----------(0)-----(0)-----|
|---------------------------|-------------------------------------|
|---------------------------|-------------------------------------|
   Q      Q.       E.   E S   E.    S Q.          +E.     +E    S


  D                                Dsus4
  S S S S S S S S S S E  S S S S   S S E   S S S S Q     +E.     S
|--------------------------------|------------------------------------||
|--------------------------------|------------------------------------||
|-2p0---0---------2p0-0----------|-2p0-0-------------------------6s===||
|-----4---2p0---0--------2p0---0-|---------2p0---0-0-----(0)----------||
|-------------4--------------4---|-------------4----------------------||
|--------------------------------|------------------------------------||
|
| E.    S q       E   E  S e   S   E.    S Q       E  E   S   e  S
|-2-----2-2-----------2----2---2-|-3-----3-3----------5-------3--x----||
|-3-----3-3-----------3----3---3-|-3-----3-3----------7-------5--x----||
|-2-----2-2-----------2----2---2-|-2-----2-2--------------------------||
|-0-----0-0-----------0----0---0-|-0-----0-0---------(0)-----(0)------||
|--------------------------------|------------------------------------||
|--------------------------------|------------------------------------||
  Q       Q.          E.   E   S   E.    S Q.        +E.     +E  S


  Dm9                                G13
   E  E  E  E    E  E    E       E    +Q    Q   Q    E  E
|------------------15--------------|----------------------|
|----13-15-15b17--------15b17---15-|-(15)--------------13-|
|-14-------------------------------|----------------14----|
|----------------------------------|----------------------|
|----------------------------------|----------------------|
|----------------------------------|----------------------|
|
|                |-----3------|        |--3---| |3|
|  E  E  Q       Q    Q       Q        Q  Q   Q Q H
|-----0----------0------------0----|---0--0-----0---------|
|-----1--1------------1------------|---0------0---0-------|
|----------------------------------|----------x-----------|
|--3-------------------------------|----------3-----------|
|----------------------------------|----------------------|
|----------------------------------|----------------------|


  Dm9                               G13
   |---3----|
   Q     Q  Q  E S  S      +Q        Q    E       E  Q   +E   E
|-------13-14-15------------------|------------------------------||
|-15b17------------15b17==(15)r---|-15---13---------13--(13)\----||
|---------------------------------|--------------14--------------||
|---------------------------------|------------------------------||
|---------------------------------|------------------------------||
|---------------------------------|------------------------------||
|
|  |---3----|
|  Q     Q  Q  E E          E   E    E E +S   E.     Q    Q
|-----------0---------------------|--0-------!0-----^0--^-0------||
|--1-----3-----3------------1---3-|----0-(0)-!0-----^0--^-0------||
|---------------------------------|----------!2-----^2--^-2------||
|----------------3----------------|------------------------------||
|---------------------------------|------------------------------||
|---------------------------------|------------------------------||


  Asus4             A7sus4add6                  Asus4
  Q    E. S S S E E S S   Q    E. S S S S S S S S S
|-----------------------|---------------------------|
|-----------------------|---------------------------|
|-----------------2-----|-------------------4p2-----|
|-2-----------2-4---4p2-|-------------2-4p2-----4p2-|
|-0----2--3h4-----------|-0----0--3h4---------------|
|-0----0----------------|---------------------------|
|
| H..               S S   H..                   S S
|-0-----------------2-2-|-2---------------------0-0-|
|-3-----------------3-3-|-3---------------------3-3-|
|-x-----------------0-0-|-0---------------------x-x-|
|-2-----------------2-2-|-2---------------------2-2-|
|-0-----------------0-0-|-0---------------------0-0-|
|-----------------------|---------------------------|


                      A7sus4add6
  Q    E. S S S S S E S S   Q  E. S  S  S S S  E    S S
|-------------------------|-------------------------------|
|-------------------------|-------------------------------|
|-------------------0-----|--------------------2----------|
|-------------2-4p2---4-2-|-------------4-2h4-------4p2---|
|-0----0--3h4-------------|-0--0--3h=4--------------------|
|-------------------------|-------------------------------|
|
| H..                 S S   H       +E    E   +S  S E
|-0-------------------2-2-|-2-------(2)-------------------|
|-3-------------------3-3-|-3-------(3)-------------------|
|-x-------------------0-0-|-0-------(0)-------------------|
|-2-------------------2-2-|-2-------(2)-------------------|
|-0-------------------0-0-|-0-------(0)-------------------|
|-------------------------|---------------3---(3)-0-3-----|


     Asus4                         A7sus4add6
  Q  E. S  S  S S S  E    S S   Q  E. S  S  S S S  S  S S S
|-----------------------------|-----------------------------|
|-----------------------------|-----------------------------|
|--------------------2--------|--------------------4p=2-----|
|-------------4-2h4-------4p2-|-------------2-4p2-------4p2-|
|-0--0--3h=4------------------|-0--0--3h=4------------------|
|-----------------------------|-----------------------------|
|
| Q  Q    +E    E   +S  S E     Q  Q    +E    E   +S  S E
|----0----(0)-----------------|----2----(2)-----------------|
|----3----(3)-----------------|----3----(3)-----------------|
|----x------------------------|----0----(0)-----------------|
|----2----(2)-----------------|----2----(2)-----------------|
|-0--0----(0)-----------------|-0--0----(0)-----------------|
|-0-------------3---(3)-0-3---|-0-------------3---(3)-0-3---|


                                                  D.S. al Coda
     Asus4                         A7sus4add6
  Q  E. S  S  S S S  E    S S   Q  E. S  S  S S S  S  S S S
|-----------------------------|--------------------------------||
|-----------------------------|--------------------------------||
|--------------------2--------|--------------------4p=2--------||
|-------------4-2h4-------4p2-|-------------2-4p2-------4p2----||
|-0--0--3h=4------------------|-0--0--3h=4---------------------||
|-----------------------------|--------------------------------||
|
| Q  Q    +E    E   +S  S E     Q  Q    +E    E   +S  S E
|----0----(0)-----------------|----2----(2)--------------------||
|----3----(3)-----------------|----3----(3)--------------------||
|----x------------------------|----0----(0)--------------------||
|----2----(2)-----------------|----2----(2)--------------------||
|-0--0----(0)-----------------|-0--0----(0)--------------------||
|-0-------------3---(3)-0-3---|-0-------------3---(3)-0-3------||


 Outro (5:19)
  &
  F/D
   Q.      E +Q      Q      +E   Q.        Q     Q       W           +W
|-------------------------|---------------------------|-----------|-------*|
|-------------------------|---------------------------|-----------|-------*|
|--2-------0-(0)----------|---------------------------|-----------|-------*|
|--------------------3----|-(3)--2---------0----------|-----------|-------*|
|-------------------------|----------------------3----|--0--------|--(0)--*|
|-------------------------|---------------------------|-----------|-------*|
|
|  Q    E  E  E   E  E  E    E   E   E  E  E  E  E  E    W           +W
|--8----8--8--8---8--8--8-|--8---8---8--8--8--8--8--8-|--8--------|--(8)--*|
|-10---10-10-10--10-10-10-|-10--10--10-10-10-10-10-10-|-10--------|-(10)--*|
|-10---10-10-10--10-10-10-|-10--10--10-10-10-10-10-10-|-10--------|-(10)--*|
|--0----0--0--0---0--0--0-|--0---0---0--0--0--0--0--0-|--0--------|--(0)--*|
|-------------------------|---------------------------|--0--------|--(0)--*|
|-------------------------|---------------------------|-----------|-------*|




                                  THE RAIN SONG
                           As recorded by Led Zeppelin
                    (From the 1973 Album HOUSES OF THE HOLY)

Words and Music by Jimmy Page and Robert Plant
Transcribed by rocktabber

          G5                  Gmaj7                 G7                  G7b13
      x 0 7 0 7 0          x 0 6 0 6 0          x 0 5 4 5 0          x 0 5 4 3 x

       Ebadd2/G              Gsus2II               G6II                   G
      x 0 3 3 3 3          x 0 2 2 2 x          x 0 2 4 2 2         x 0 11 0 11 0

         Gsus2                Gsus4                 G6                Ebmaj7b5
      x 0 9 0 9 0         x 0 12 0 12 0         x 0 4 0 4 x          x 8 9 0 9 0

          Ab9                  G9                   Gm9                 Csus4
    x x 12 11 10 0        x 0 11 10 9 0        x 0 10 10 9 0         x x 5 0 0 5

           C                 G+sus2                G6+5                G6sus2
      0 5 4 0 0 5          x 0 3 2 2 x          x 0 3 2 2 2          x 0 4 2 2 2

        G7sus2               G7add6                Cmaj7                 Bm7
      x 0 5 2 2 x          x 0 5 4 2 2          x 5 4 4 4 5          x 4 2 2 2 4

          Dm7                 Am11                 Fsus2                 C5
      x 7 5 5 5 7          x 2 0 0 0 0          3 5 5 5 5 5          x 5 0 0 0 5

         G5II               G(type 2)               F/G                Ebmaj7
      x 0 2 0 2 0          x 0 7 7 7 9          x 0 5 5 5 7          x 8 7 7 7 8

          Fm7                G7sus4              Csus2sus4              Cadd4
     x 10 8 8 8 10         x 0 7 6 5 0          x x 0 7 6 5          x x 0 5 4 3

       Csus2add4              G6/B                A7sus4
      x 5 x 0 5 0          x 4 x 0 4 0          x 2 x 0 2 0

Gtr I (D G C G C D) - 'Acoustic Guitar'
Gtr II (D G C G C D) - 'Electric Guitar'

 Intro
  Moderately Slow Q=74
            G5                    Gmaj7
 4/4
  Gtr I
  H    Q.    E      Q   E E E E E  E    Q   E E E E E E
|-----------^0-||---------0---0---^0-|--------0---0---0--|
|-----------^7-||o------7-7-7-7-7-^6-|------6-6-6-6-6-6--|
|-----------^0-||-------0-0-0-0-0-^0-|------0-0-0-0-0-0--|
|-----------^7-||-------7---7---7-^6-|------6---6---6----|
|--------------||o--0----------------|--0----------------|
|--------------||--------------------|-------------------|
|
| Gtr II
| H    Q.    E     +H.          E  E   +W
|-----------^0-||--(0)------------^0-|-(0)---------------|
|-----------^7-||o-(7)------------^6-|-(6)---------------|
|-----------^0-||--(0)------------^0-|-(0)---------------|
|-----------^7-||--(7)------------^6-|-(6)---------------|
|-----------^0-||o-(0)------------^0-|-(0)---------------|
|--------------||--------------------|-------------------|


  G7       G7b1Eb/G                  Gsus2   G6II         G
  Q  E E E E E  E   +Q   E E  E  E E E   +E  E Q   E  E E  E
|------0--------3-|--------------------|-----2--------2----0-|
|----5-5-3-2----3-|-(3)--3-3---------2-|-(2)-2-2---2--2---11-|
|----4-4-4-4----3-|-(3)--3----3------2-|-(2)-4-4---4--4-x--0-|
|----5---5-5----3-|-(3)--3----3------2-|-(2)---2---2----x-11-|
|-0--------0-0--0-|-(0)----------0-0---|-------------------0-|
|-----------------|--------------------|---------------------|
|
| Q  E E E E E  E   +H       +E  E E E   +E  E Q  +Q    E  E
|-----------------|--------------------|-------2--(2)------0-|
|----5-5-3-2---^3-|-(3)------(3)-----2-|-(2)---2--(2)-----11-|
|----4-4-4-----^3-|-(3)------(3)-----2-|-(2)-4-4--(4)------0-|
|----5---------^3-|-(3)------(3)-----2-|-(2)-2-2--(2)-----11-|
|-0------------^0-|-(0)------(0)-0-0---|-------------------0-|
|-----------------|--------------------|---------------------|


      Gsus2 Gsus4  G      G6       Ebmaj7b5     G        Gsus2 Gsus4  G      G6
  +E  E +E   E +E   E +E  E   +E   E Q  E E  E   E   +E  E +E   E +E   E +E  E
|-(0)-0-(0)--0-(0)--0-(0)-0-|-(0)--0-0----0------0-|-(0)-0-(0)--0-(0)--0-(0)-0-|
|-----9-----12-----11-----4-|-(4)/-9-9----9-----11-|-----9-----12-----11-----4-|
|-(0)-0-(0)--0-(0)--0-(0)-0-|-(0)--0-0--0-0--0---0-|-(0)-0-(0)--0-(0)--0-(0)-0-|
|-----9-----12-----11-----4-|-(4)/-9-9--9----9--11-|-----9-----12-----11-----4-|
|-(0)-0-(0)--0-(0)--0-(0)-0-|-(0)--8-8--8----8---0-|-(0)-0-(0)--0-(0)--0-(0)-0-|
|---------------------------|----------------------|---------------------------|
|
| +E  E +E   E +E   E +E  E   +E   E Q  Q   +E   E   +E  E +E   E +E   E +E  E
|-(0)-0-(0)--0-(0)--0-(0)-0-|-(0)--0-0--0---(0)--0-|-(0)-0-(0)--0-(0)--0-(0)-0-|
|-----9-----12-----11-----4-|-(4)/-9-9--9-------11-|-----9-----12-----11-----4-|
|-(0)-0-(0)--0-(0)--0-(0)-0-|-(0)--0-0--0---(0)--0-|-(0)-0-(0)--0-(0)--0-(0)-0-|
|-----9-----12-----11-----4-|-(4)/-9-9--9-------11-|-----9-----12-----11-----4-|
|-(0)-0-(0)--0-(0)--0-(0)-0-|-(0)--8-8--8--------0-|-(0)-0-(0)--0-(0)--0-(0)-0-|
|---------------------------|----------------------|---------------------------|


                          Verse
       Ebmaj7b5   Ab9G9                      Gm9                           Csus4
  +E   E Q   E  E  E  E     +Q    Q   E  E E  E       +E   E  Q   E  E  E  E
|-(0)--0-0---0-----0--0-||--(0)---0---0--0-0--0----|--(0)--0--0---0--0-----5-|
|-(4)/-9-9---9--0-10--9-||--(9)---9---9--9-x--9----|--(9)--9--9---9--9-----0-|
|-(0)--0-0---0----11-10-||-(10)--10--10-10-x-10----|-(10)-10-10--10-10-----0-|
|-(4)/-9-9---9----12-11-||-(11)--11--11-11-x-10----|-(10)----10--10----10\-5-|
|-(0)--8-8---8-----0--0-||--(0)---------------0----|--(0)--------------------|
|-----------------------||-------------------------|-------------------------|
|
| +E   E Q  +Q     E  E     +H.            E  S  S     H.              +E  E
|-(0)--0-0--(0)----0----||-------------------------|---0---------------(0)-5-|
|-(4)/-9-9--(9)---10s=9-||--(9)--------------------|---9---------------(9)---|
|-(0)--0-0--(0)---11s10-||-(10)-----------------10-|-------------------------|
|-(4)/-9-9--(9)---12s11-||-(11)--------------10----|-----------------------5-|
|-(0)--8-8--(8)---------||-------------------------|-------------------------|
|-----------------------||-------------------------|-------------------------|


      C            Csus4     C      CsAb9G9                        Gm9
  +E  Q  E +E  E E  E    +E  Q  E E E  E  E    +Q    Q    E   E  E   E
|-(5)----5-(5)-5----5--|-(5)-5------------0-|--(0)---0----0------------|
|-(0)-0--0-(0)-0----0--|-(0)-0--0-0-0-10--9-|--(9)---9----9----------9-|
|-(0)-0--0-(0)-0-0--0--|-(0)-0--0-0-0-11-10-|-(10)--10---10--10-----10-|
|-(5)-4--4-(4)-4-4--5--|-(5)-4--4-4-5-12-11-|-(11)--11---11--11-11--10-|
|-----0--5-(5)-----(0)-|-(0)----5------0--0-|--(0)------------0------0-|
|----------------------|--------------------|--------------------------|
|
| +E  Q  E +Q.      E    +E  Q  E E E  E  E    +H        +Q.         E
|-(5)-5--5-(5)------5--|-(5)-5--5-5-5--0----|--------------------------|
|----------------------|--------------10s=9-|--(9)-------(9)-------!-9-|
|----------------------|--------------11s10-|-(10)------(10)-------!10-|
|-(5)-4-------------5--|-(5)-4----4-5-12s11-|-(11)------(11)-------!10-|
|--------5-(5)---------|--------5-----------|--------------------------|
|----------------------|--------------------|--------------------------|


                          Csus4   C            Csus4     Cadd2    Ab9G9
   +E   E  Q   E  E   E   E   +E  Q  E +E  E E  E    +E  Q  E E E  E  E
|-------0--0---0--0-------5-|-(5)-5--5-(5)------5--|-(5)-0------0-----0-|
|--(9)--9--9---9--9-------0-|-(0)-0--0-(0)-0-0--0--|-(0)-0--0-0-0-10--9-|
|-(10)-10-10--10-10--10\--0-|-(0)-0--0-(0)-0-0--0--|-(0)-0--0-0---11-10-|
|-(10)----10--10-----10\--5-|-(5)-4--4-(4)-4-4--5--|-(5)-4--4-4---12-11-|
|--(0)----------------0---0-|-(0)-0--5-(5)-5---(0)-|-(0)-0--5---------0-|
|---------------------------|----------------------|--------------------|
|
|  +H.               +E   E   +E  Q  E +Q.      E    +E  Q  E E E  E  E
|-------------------------5-|-(5)-5--5-(5)------5--|-(5)-5--5-5-5--0--0-|
|--(9)----------------------|----------------------|--------------10s=9-|
|-(10)--------------(10)\---|----------------------|--------------11s10-|
|-(10)--------------(10)\-5-|-(5)-4-------------5--|-(5)-4----4-5-12s11-|
|---------------------------|--------5-(5)---------|--------5-----------|
|---------------------------|----------------------|--------------------|


                         Gm9                           Csus4   C            Csus4
   +E   E  Q    E   E  E   E    +E   E  Q   E  E   E   E   +E  Q  E +E  E E E
|--(0)----------0---0------0-|--(0)--0--0------0---0---5-|-(5)-5--5-(5)-5---5-|
|--(9)--9--9----9---9------9-|--(9)--9--9------9---0---0-|-(0)-0--0-(0)-0---0-|
|-(10)-10-10---10--10-----10-|-(10)-10-10--10-10---0---0-|-(0)-0--0-(0)-0---0-|
|-(11)-11-11---11--11-11--10-|-(10)-10-10--10-10-(10)\-5-|-(5)-4--4-(4)-4-4-5-|
|--(0)--0--0-----------0---0-|--(0)-----0---0----------0-|-(0)-0--5-(5)-----0-|
|----------------------------|---------------------------|--------------------|
|
|  +H          +Q.         E    +H.               +E   E   +E  Q  E +Q.     E
|----------------------------|-------------------------5-|-(5)-5--5-(5)-----5-|
|--(9)---------(9)-------!-9-|--(9)----------------------|--------------------|
|-(10)--------(10)-------!10-|-(10)--------------(10)\---|--------------------|
|-(11)--------(11)-------!10-|-(10)--------------(10)\-5-|-(5)-4------------5-|
|------------------------!-0-|--(0)----------------------|--------5-(5)-------|
|----------------------------|---------------------------|--------------------|


                      Bridge
         C   Csus4Gsus2II  G6II              G+sus2  G6+5              G6sus2
  +E  Q  E E E E  E    +E  E Q     E   E   E E   +E  E Q     E   E   E  E
|-(5)-5--5-5-5------||-----2-------2---2---2---|-----2-----------2---2------|
|-(0)-0--0-0-0----2-||-(2)-2-2-----2---2---2-2-|-(2)-2-------2---2---2--2---|
|-(0)-0--0-0-0----2-||-(2)-4-4-----4---4---4-2-|-(2)-4-4-----4---4---4--2---|
|-(5)-4--4-4-5-7\-2-||-(2)-2-2-----2---2---2-3-|-(3)-3-3-----3-------3--4---|
|-(0)-0--5--------0-||-(0)---0-----0-------0-0-|-(0)---0-----0----------0---|
|-------------------||-------------------------|-----------------------(0)--|
|
| +E  Q  E E E E  E    +E  E E S S S S S S E E   +E  E E S S S S S S E  E
|-(5)-5--5-5--------||-------------------------|----------------------------|
|-------------------||-------------------------|----------------------------|
|-----------------2-||-(2)-4-4-2-4-0-2---0---2-|-(2)-4-4-2-4-0-2---0----2---|
|-(5)-4----4-5-7\-2-||-(2)-2-----------4---2-3-|-(3)-------------4---2--4---|
|--------5--------0-||-(0)---------------------|----------------------------|
|-------------------||-------------------------|----------------------------|


                                                 1.
      G6                G7sus2  G7  G7add6        Cmaj7                Bm7
  +E  E Q     E   E   E E   +E  E E E +E  E E E   Q  E E   E   E    E  E
|-----2-------------------|---------2-(2)-------|-5--5-5---5---5-------4--|
|-(2)-2-2-----2---2-----2-|-(2)-2---2-(2)-2-----|-4--4-4---4---4----0--2--|
|-(2)-4-4-----4---4-----2-|-(2)-4-4-4-(4)-4-4-0-|-4--4-4---4---4----0--2--|
|-(4)---4-----4---4-----5-|-(5)-5-5-------5-5-0-|-4--4-4---4---4----0--2--|
|-(0)---0-------------0-0-|-(0)---0-------0-0-0-|-5--5-----5---5-------4--|
|-(0)---------------------|---------------------|-------------------------|
|
|                                                 ~
| +E  E E S S S S S S E E   +E  E E E +E  E E E   Q  E S S S S S S +E  E
|-------------------------|---------2-(2)-------|------5-----5---------2--|
|-------------------------|---------------2-----|----------4---4----------|
|-(2)-4-4-2-4-0-2---0---2-|-(2)-4-4---------4---|----4---4-------4-(4)----|
|-(4)-------------4---2-5-|-(5)-5-5---------5-5-|-4--------------------2--|
|-------------------------|---------------------|-5----5------------------|
|-------------------------|---------------------|-------------------------|


                     D7sus4                                  Gsus2II
                             |-3-|                 |-3-|
  +E  E Q   E E Q     Q.   E S S S E E E    Q.   E S S S E E  E
|-(4)-2-4---4-4-4--|-!0----2-0h2p0-------|-!0----2-0h2p0---------|
|-(2)-2-2---2-2-2--|-!0------------0-----|-!0------------0----2--|
|-(2)-2-2---2-2-2--|-!0--------------0---|-!0--------------0--2--|
|-(2)-2-2---2-2-2--|-!0----------------0-|-!0-----------------2--|
|-(4)---4-------4--|-!2------------------|-!2-----------------0--|
|------------------|-!0------------------|-!0--------------------|
|
|                            |-3-|                 |-3-|
| +E  E E E E E Q     Q.   E S S S E Q      Q.   E S S S E E  E
|-(2)---4---4------|--0----2-0h2p0-------|-!0----2-0h2p0---------|
|-----2---2---2----|--0------------0-----|-!0------------0----2--|
|------------------|--0--------------0---|-!0--------------0--2--|
|-(2)-------0---4--|--0------------------|-!0----------------(2)-|
|------------------|--2------------------|-----------------------|
|------------------|---------------------|-----------------------|


                          2.
      G6II         G5     Cmaj7     Cmaj7+11  Bm7     BmBm7
  +E  E Q   E  E E  E     Q     E E E     E E E   +E  E Q  E E E E
|-----2------------^0--||-5-----5-5-4-----5---4-|-(4)-2-4--4-2-4---|
|-(2)-2-2----------^7-o||-4-----4-4-4-----4---2-|-(2)-2-2--2-2-2---|
|-(2)-4-4---4--4-0-^0--||-4-----4-4-4-----4-0-2-|-(2)-2-2--2-2-2---|
|-(2)-2-2---2--2-0-^7--||-4-----4---4-------0-2-|-(2)-2-2--2-2-2---|
|-(0)-0-0---0----0----o||-5---------5---------4-|-(4)----------4-0-|
|----------------------||-----------------------|------------------|
|
|                                   |-3-|
| +E  E Q  +Q    E  E     E S S E E S S S E E E   +E  E Q  E E E E
|-------2--(2)-----^0--||-----5-----4h5p4-----2-|-(2)---4--4-----4-|
|-(2)---2--(2)-----^7-o||---4---4---------4-----|-----2------2-2---|
|-(2)-4-4--(4)-----^0--||---------4---------4---|------------------|
|-(2)---2--(2)-----^7--||-----------------------|------------------|
|-----0------------^0-o||-5-------------------4-|-(4)--------------|
|----------------------||-----------------------|------------------|


  Cmaj7       Cmaj7+11  Dm7     DmDm7         Cmaj7                     Bm7
  Q       E E E     E E E   +E  E E E  E  E E E   +Q    E E E   E   E   E
|-5-------5-5-4-----5---7-|-(7)-5-7-7--5--7---5-|-(5)---5-5-4---5-------4-|
|-4-------4-4-4-----4---5-|-(5)-5-5-5--5--5-0-4-|-(4)---4-4-4---4-------2-|
|-4-------4-4-4-----4---5-|-(5)-5-5-5--5--5-0-4-|-(4)---4-4-4---4-------2-|
|-4-------4---4---------5-|-(5)-5-5-------5---4-|-(4)---4-4-4---4---x---2-|
|-5-----------5---------7-|-------7-------7---5-|-(5)-----------5-------4-|
|-------------------------|---------------------|-------------------------|
|
|             |-3-|
| S S S S E E S S S E E E   +Q    E E +Q    Q      E  E E E S S S S S S E
|-------5-----4h5p4-------|---------7-(7)-------|-----------------5-----2-|
|-----4---4---------4---5-|-(5)-------------5---|---------4-----4---4-----|
|---4-------4---------4---|-------5-------------|-------4-----4-------4---|
|-------------------------|---------------------|-------------------------|
|-5---------------------7-|-(7)-----------------|-----5-----5-----------4-|
|-------------------------|---------------------|-------------------------|


      BmBm7            Am11                                    Gsus2II
                               |-3-|                 |-3-|
  +E  E Q  Q   E S S    Q.   E S S S E E E    Q.   E S S S E E E
|-(4)-2-4--4---4-----|--0----2-0h2p0-------|-!0----2-0h2p0-------|
|-(2)-2-2--2---2-----|--2------------0-----|-!0------------0---2-|
|-(2)-2-2--2---2-x-x-|--0--------------0---|-!0--------------0-2-|
|-(2)---2--2---2-----|--0----------------0-|-!0----------------2-|
|-(4)---4------------|--2------------------|-!2----------------0-|
|--------------------|-(0)-----------------|---------------------|
|
|                              |-3-|                 |-3-|
| +E  E Q  E E Q        Q.   E S S S E Q      Q.   E S S S E E E
|-(2)---4--4---------|-!0----2-0h2p0-------|--0----2-0h2p0-------|
|-----2------2-------|-!0------------0-----|--0------------0-----|
|--------------------|-!0--------------0---|--0--------------0-2-|
|--------------------|-!0------------------|--0----------------2-|
|-(4)----------------|-!2------------------|--2----------------0-|
|--------------------|---------------------|---------------------|


                         Pre-Verse
      G G6II        G5                   Gmaj7
  +E  E Q    E  E E  E     Q   E E E E E  E    Q   E E E E E E
|-------2-----------^0-||--------0---0---^0-|--------0---0---0-|
|-(2)-2-2----2--2---^7-||------7-7-7-7-7-^6-|------6-6-6-6-6-6-|
|-(2)-4-4----4--4-0-^0-||------0-0-0-0-0-^0-|------0-0-0-0-0-0-|
|-(2)-2-2----2--2-0-^7-||------7---7---7-^6-|------6---6---6---|
|-(0)-0-0----0----0----||--0----------------|--0---------------|
|----------------------||-------------------|------------------|
|
|       ~
| +E  E E E +E  E E  E    +H.          E  E   +W
|-------------------^0-||-(0)---------------|------------------|
|-------2-----------^7-||-(7)------------^6-|-(6)--------------|
|-(2)-4-4---------0-^0-||-(0)------------^0-|-(0)--------------|
|-(2)-2-2-----------^7-||-(7)------------^6-|-(6)--------------|
|-(0)-0-0-0-(0)-0---^0-||-(0)------------^0-|-(0)--------------|
|----------------------||-------------------|------------------|


  G7           Eb/G                  Gsus2II G6II         G
  Q  E E E E E  E   +Q   E E  E  E E E   +E  E Q   E  E E  E
|-----------------|--------------------|-----2--------2-0--0-|
|----5-5-3-2----3-|-(3)--3-3---------2-|-(2)-2-----2--2-0-11-|
|----4-4-4-4----3-|-(3)--3-3--3------2-|-(2)-4-4---4--4-0--0-|
|----5---5-5----3-|-(3)--3-3--3------2-|-(2)---2---2------11-|
|-0------0-0-0--0-|-(0)--0-------0-0-0-|-(0)---------------0-|
|-----------------|--------------------|---------------------|
|
| Q  E E E E E  E   +H       +E  E E E   +E  E Q  +Q    E  E
|-----------------|--------------------|-------2--(2)------0-|
|----5-5-3-2---^3-|-(3)------(3)-----2-|-(2)---2--(2)-----11-|
|----4-4-4-----^3-|-(3)------(3)-----2-|-(2)-4-4--(4)------0-|
|----5---------^3-|-(3)------(3)-----2-|-(2)-2-2--(2)-----11-|
|-0------------^0-|-(0)------(0)-0-0---|-------------------0-|
|-----------------|--------------------|---------------------|


      Gsus2 Gsus4  G      G6       Eb/G         G        Gsus2 Gsus4  G      G6
  +E  E +E   E +E   E +E  E   +E   E Q  E E  E   E   +E  E +E   E +E   E +E  E
|-(0)-0-(0)--0-(0)--0-(0)-0-|-(0)---------0------0-|-(0)-0-(0)--0-(0)--0-(0)-0-|
|-----9-----12-----11-----4-|-(4)/-9-9----------11-|-----9-----12-----11-----4-|
|-(0)-0-(0)--0-(0)--0-(0)-0-|-(0)--0-0--8--------0-|-(0)-0-(0)--0-(0)--0-(0)-0-|
|-----9-----12-----11-----4-|-(4)/-9-9--9-------11-|-----9-----12-----11-----4-|
|-(0)-0-(0)--0-(0)--0-(0)-0-|-(0)--0-0--0--------0-|-(0)-0-(0)--0-(0)--0-(0)-0-|
|---------------------------|----------------------|---------------------------|
|
| +E  E +E   E +E   E +E  E   +E   E Q  Q   +E   E   +E  E +E   E +E   E +E  E
|-(0)-0-(0)--0-(0)--0-(0)-0-|-(0)--0-0--0---(0)--0-|-(0)-0-(0)--0-(0)--0-(0)-0-|
|-----9-----12-----11-----4-|-(4)/-9-9--9-------11-|-----9-----12-----11-----4-|
|-(0)-0-(0)--0-(0)--0-(0)-0-|-(0)--0-0--0---(0)--0-|-(0)-0-(0)--0-(0)--0-(0)-0-|
|-----9-----12-----11-----4-|-(4)/-9-9--9-------11-|-----9-----12-----11-----4-|
|-(0)-0-(0)--0-(0)--0-(0)-0-|-(0)--8-8--8--------0-|-(0)-0-(0)--0-(0)--0-(0)-0-|
|---------------------------|----------------------|---------------------------|


                          2nd Verse
       Eb/G       Ab9G9                       Gm9                           Csus4
  +E   E Q   E  E  E  E     +Q    Q   E  E  E  E       +E   E  Q   E  E  E  E
|-(0)--------------0--0-||--(0)-------0--0--0--0----|--(0)--0--0---0--0-----5-|
|-(4)/-9-9--------10--9-||--(9)---9---9--9--9--9----|--(9)--9--9---9--9-----0-|
|-(0)--8-8------0-11-10-||-(10)--10--10-10-10-10----|-(10)-10-10--10-10-----0-|
|-(4)/-9-9---9--9-12-11-||-(11)--11--11-------10----|-(10)----10--10----10--5-|
|-(0)--0-0---0-----0--0-||--(0)----------------0----|--(0)--------------------|
|-----------------------||--------------------------|-------------------------|
|
| +E   E Q  +Q     E  E     +H.             E  S  S     H.              +E  E
|-(0)--0-0--(0)----0----||--------------------------|---0---------------(0)-5-|
|-(4)/-9-9--(9)---10s=9-||--(9)---------------------|---9---------------(9)---|
|-(0)--0-0--(0)---11s10-||-(10)------------------10-|-------------------------|
|-(4)/-9-9--(9)---12s11-||-(11)---------------10----|-----------------------5-|
|-(0)--8-8--(8)---------||--------------------------|-------------------------|
|-----------------------||--------------------------|-------------------------|


      C/GC         Csus4   C        Ab9G9                      Gm9
  +E  Q  E +E  E E E   +E  Q  E E E  E  E    +Q    E E  E  E E  E
|-(5)-5--5-(5)-5---5-|-(5)-5---------0--0-|--(0)-----------0----0----|
|-(0)-0--0-(0)-0-0-0-|-(0)-0--0-----10--9-|--(9)-----------9----9----|
|-(0)-0--0-(0)-0-0-0-|-(0)-0--0-0---11-10-|-(10)--10---10-10---10----|
|-(5)-4--4-(4)---4-5-|-(5)-4--4-4---12-11-|-(11)--11---11------10----|
|-----0--5-(5)-------|--------5-5-0--0--0-|--(0)---0-0--0----0--0----|
|--------------------|--------------------|--------------------------|
|
| +E  Q  E +Q.     E   +E  Q  E E E  E  E    +H.             E  S  S
|-(5)-5--5-(5)-----5-|-(5)-5--5-5-5--0----|--------------------------|
|--------------------|--------------10s=9-|--(9)---------------------|
|--------------------|--------------11s10-|-(10)------------------10-|
|-(5)-4------------5-|-(5)-4----4-5-12s11-|-(11)---------------10----|
|--------5-(5)-------|--------5-----------|--------------------------|
|--------------------|--------------------|--------------------------|


                        Csus4   C           Csus4   C        Ab9G9
   +E   E  Q   E  E  E  E   +E  Q  E +Q   E E   +E  Q  E E E  E  E
|--(0)------------0-------|-----5-----------5-|-(5)-5---------0--0-|
|--(9)------------9-----0-|-(0)-0--0-(0)----0-|-(0)-0--0-----10--9-|
|-(10)-10-10--10-10-----0-|-(0)-0--0-(0)----0-|-(0)-0--0-----11-10-|
|-(10)-10-10--10-10-----5-|-(5)-4--4-(4)----5-|-(5)-4--4-4-5-12-11-|
|--(0)--0--0---0--0-----0-|-(0)----5-(5)------|--------5------0--0-|
|-------------------------|-------------------|--------------------|
|
|   H.              +E  E   +E  Q  E +Q.    E   +E  Q  E E E  E  E
|---0---------------(0)-5-|-(5)-5--5-(5)----5-|-(5)-5--5-5-5--0----|
|---9---------------(9)---|-------------------|--------------10s=9-|
|-------------------------|-------------------|--------------11s10-|
|-----------------------5-|-(5)-4-----------5-|-(5)-4----4-5-12s11-|
|-------------------------|--------5-(5)------|--------5-----------|
|-------------------------|-------------------|--------------------|


                    Gm9                           Csus4   C            Csus4
   +Q    Q   E  E E  E       +E   E  Q   E  E  E  E   +E  Q  E +E  E E E
|--(0)-------0--0-0--0----|--(0)------------------5-|-(5)-5--------------|
|--(9)---9---9--9-9--9----|--(9)------------------0-|-(0)-0--0-(0)-----0-|
|-(10)--10--10-10-x-10----|-(10)-10-----10-----0--0-|-(0)-0--0-(0)-----0-|
|-(11)--11--11------10----|-(10)-10-10--10-10--0--5-|-(5)-4--4-(4)-4-4-5-|
|--(0)---------------0----|--(0)--0--0---0-----0----|--------5-(5)-5-5---|
|-------------------------|-------------------------|--------------------|
|
|  +H.            E  S  S     H.              +E  E   +E  Q  E +Q.     E
|-------------------------|---0---------------(0)-5-|-(5)-5--5-(5)-----5-|
|--(9)--------------------|---9---------------(9)---|--------------------|
|-(10)-----------------10-|-------------------------|--------------------|
|-(11)--------------10----|-----------------------5-|-(5)-4------------5-|
|-------------------------|-------------------------|--------5-(5)-------|
|-------------------------|-------------------------|--------------------|


      C        Ab9G9                       Gm9                          Csus4
  +E  Q  E E E  E  E    +E  E Q    E   E E   E    +E  E  Q   E  E   E   E
|---------------0--0-|--(0)------------0-------|------0---------0---------|
|-(0)-0--0-----10--9-|--(9)------------9-----9-|--(9)-9---------9-------0-|
|-(0)-0--0-----11-10-|-(10)-------10--10----10-|-(10)----------10-------0-|
|-(5)-4--4-4-5-12-11-|-(11)-------11--11----10-|-(10)---10--10----------5-|
|--------5-0-0--0--0-|--(0)-0-0----0-----0---0-|--(0)----0---0------------|
|--------------------|-------------------------|--------------------------|
|
| +E  Q  E E E  E  E    +H        +Q.        E    +H.              +E   E
|-(5)-5--5-5-5--0----|-------------------------|------------------------5-|
|--------------10s=9-|--(9)-------(9)------!-9-|--(9)---------------------|
|--------------11s10-|-(10)------(10)------!10-|-(10)-------------(10)\---|
|-(5)-4----4-5-12s11-|-(11)------(11)------!10-|-(10)-------------(10)\-5-|
|--------5-----------|---------------------!-0-|--(0)---------------------|
|--------------------|-------------------------|--------------------------|


                                         Bridge
                 Csus4   C           Gsus2      G6II              G+sus2
  +E  Q  E +Q.   E   +E  Q  E E E E  E    +E  E Q     +E    Q     E
|------------------|-------------------||-------2-----(2)-----------|
|-(0)-0--0-(0)---0-|-(0)-0--0--------2-||-(2)-2-2-----(2)---2-------|
|-(0)-0--0-(0)---0-|-(0)-0--0--------2-||-(2)-4-4-----(4)---------2-|
|-(5)-4--4-(4)---5-|-(5)-4--4-4-5-7\-2-||-(2)-2-2-----(2)---------3-|
|--------5-(5)---0-|-(0)------0-0-0--0-||-(0)---0-----(0)---------0-|
|------------------|-------------------||---------------------------|
|
| +E  Q  E +Q.   E   +E  Q  E E E E  E    +E  E E S S  S  S S S E E
|-(5)-5--5-(5)---5-|-(5)-5--5-5--------||---------------------------|
|------------------|-------------------||---------------------------|
|------------------|-----------------2-||-(2)-4-4-2-4--0--2---0---2-|
|-(5)-4----------5-|-(5)-4----4-5-7\-2-||-(2)-2-------------4---2-3-|
|--------5-(5)-----|--------5--------0-||-(0)-----------------------|
|------------------|-------------------||---------------------------|


      G6+5              G6sus2  G6                G7sus2  G7  G7add6
  +E  E Q     E   S S E E   +E  E Q     E   E   E E   +E  E E E +E  E E E
|-------------------------|-------------------------|---------2-(2)--------|
|-----2-----------2-2-----|-----2-2---------2-------|---------2-(2)-2------|
|-(2)-4-4---------4-----2-|-(2)-4-4-----4---4-----2-|-(2)-4-4-------4------|
|-(3)-3-3-----3---------4-|-(4)-4-4-----4---4-----5-|-(5)-5-5-------5-5-0--|
|-(0)---0-----0---------0-|-(0)---0---------0---0-0-|-(0)-0-0---------0-0--|
|-------------------------|-------------------------|----------------------|
|
| +E  E E S S S S S S E E   +E  E E S S S S S S E E   +E  E E E +E  E E E
|-------------------------|-------------------------|---------2-(2)--------|
|-------------------------|-------------------------|---------------2------|
|-(2)-4-4-2-4-0-2---0---2-|-(2)-4-4-2-4-0-2---0---2-|-(2)-4-4---------4----|
|-(3)-------------4---2-4-|-(4)-------------4---2-5-|-(5)-5-5---------5-5--|
|-------------------------|-------------------------|----------------------|
|-------------------------|-------------------------|----------------------|


  Cmaj7    Cmaj7+11    Bm7                    Am11
                                                      |-3-|
  Q  E E   E   E    E  E   +E  E Q   E E Q     Q.   E S S S E E E
|-5--5-5---4---5-------4-|-(4)-2-4-------2--|-!0----2-0h2p0-------|
|-4--4-4---4---4-------2-|-(2)-2-2-------2--|-!0------------0-----|
|-4--4-4---4---4-------2-|-(2)-2-2---2-2----|-!0--------------0---|
|-4--4-----4---4-------2-|-(2)---2---2-2----|-!0------------------|
|-5------------5----0--4-|-(4)---4---4------|-!2----------------2-|
|------------------------|------------------|---------------------|
|
| ~
|                                                     |-3-|
| Q  E S S S S S S +E  E   +E  E E E E E Q     Q.   E S S S E Q
|------5-----5---------2-|-(2)---4---4------|--0----2-0h2p0-------|
|----------4---4---------|-----2---2---2----|--0------------0-----|
|----4---4-------4-(4)---|------------------|--0--------------0---|
|-4--------------------2-|-(2)-------0---4--|--0------------------|
|-5----5-----------------|------------------|--2------------------|
|------------------------|------------------|---------------------|


                       Chorus
                        G5              Fsus2
         |-3-|
  Q.   E S S S E E E    Q  E  E   E E E E   +E  E Q    E  E E E
|-0----2-0h2p0-------||-0-----0---0-0-0-5-|-(5)-5-5----5--5-5-5-|
|-0------------0-----||-2-----2---2-2-2-5-|-(5)-5-5----5--5-5-5-|
|-0--------------0---||-0--0------0-0---5-|-(5)-5-5----5--5-5-5-|
|-0----------------0-||-2--2------2-2---5-|-(5)-5-5----5--5-5-5-|
|-2------------------||-0--0------0-----5-|-(5)-5-5----5--5-5-5-|
|--------------------||-----------------3-|-(3)-3-3----3--3-3-3-|
|
|        |-3-|
| Q.   E S S S E E E    Q  E.   S E E E E   +E  E E E +Q    Q
|-0----2-0h2p0-------||-------------------|---------------------|
|-0------------0-----||-------------------|---------------------|
|-0--------------0---||-------------------|---------------------|
|-0----------------0-||-2-------2---------|---------------------|
|-2------------------||-0--0----0-0-2-4-5-|-(5)---4-5-(5)---0---|
|--------------------||-------------0-2-3-|-(3)-0-2-3-(3)-------|


  C5              G5                          Csus2     G5              Fsus2
  Q  E. S E E E   E   +E  E   Q       E   E   Q         Q  E  E   E E E E
|-------5-----------|-------------------------0-------|-0-----0---0-0-0-5-|
|-0--0--0-----------|---------------------2---0-------|-2-----2---2-2-2-5-|
|-0--0----0-------0-|-(0)-0---0-------0---0---0-------|-0--0------0-0---5-|
|---------0-------2-|-(2)-2---2-------2---2---0-------|-2--2------2-2---5-|
|-5--5----5-4-2---0-|-(0)-0---0-------0---------------|-0--0------0-----5-|
|-------------------|---------------------------------|-----------------3-|
|
| Q  E. S E E E   E   +E  S S S S S S S S S S S S E     Q  E.   S E E E E
|-------------------|---------------------------------|-------------------|
|-------------------|---------------------------------|-------------------|
|-------------------|---------0-----------0-----------|-------------------|
|-7--7--7-7---------|---------------2-----------2-----|-2-------2---------|
|-5--5--5-5-0-3b4-0-|-(0)-3-4---3-4---3-4---3-4---3b4-|-0--0----0-0-2-4-5-|
|-------------------|---------------------------------|-------------0-2-3-|


                       C5              G5                          Csus2
  +E  E Q    E  E Q    Q  E. S E E E   E   +Q      Q       E   E   Q
|-(5)-5-5----5--5-5--|-5--5--5-----------|-------------------------0--------|
|-(5)-5-5----5--5-5--|-0--0--0-----------|---------------------2---0--------|
|-(5)-5-5----5--5-5--|-0--0----0-------0-|-(0)-----0-------0---0---0--------|
|-(5)-5-5----5--5-5--|-0--0----0-------2-|-(2)-----2-------2---2---0--------|
|-(5)-5-5----5--5-5--|-5--5----5-4-2---0-|-(0)-----0-------0----------------|
|-(3)-3-3----3--3-3--|-------------------|----------------------------------|
|
| +E  E E E +Q    Q    Q  E. S E E E   E   +E  S S S S S S S S S S S S E
|--------------------|-------------------|----------------------------------|
|--------------------|-------------------|----------------------------------|
|--------------------|-------------------|---------0-----------0------------|
|--------------------|-7--7--7-7---------|---------------2-----------2------|
|-(5)---4-5-(5)---0--|-5--5--5-5-0-3b4-0-|-(0)-3-4---3-4---3-4---3-4---3b4--|
|-(3)-0-2-3-(3)------|-------------------|----------------------------------|


  G5              Fsus2                     C5              G5
  Q  E  E   E E E E   +E  E Q    E  E E E   Q  Q    E E E   E
|-0-----0---0-0-0-5-|-(5)-5-5----5--5-5---|-5--5--------------|
|-2-----2---2-2-2-5-|-(5)-5-5----5--5-5---|-0--0--------------|
|-0--0------0-0---5-|-(5)-5-5----5--5-5---|-0--0------0-0---0-|
|-2--2------2-2---5-|-(5)-5-5----5--5-5---|-0--0------------2-|
|-0--0------0-----5-|-(5)-5-5----5--5-5-4-|-5--5----5-4-2---0-|
|-----------------3-|-(3)-3-3----3--3-3---|-------------------|
|
| Q  E.   S E E E E   +E  E E E +Q    Q     Q  E. S E E E   E
|-------------------|---------------------|-------------------|
|-------------------|---------------------|-------------------|
|-------------------|---------------------|-------------------|
|-2-------2---------|---------------------|-7--7--7-7---------|
|-0--0----0-0-2-4-5-|-(5)---4-5-(5)---0---|-5--5--5-5-0-3b4-0-|
|-------------0-2-3-|-(3)-0-2-3-(3)-------|-------------------|


                          Csus2     G5           Fsus2
  +E  E   Q       E   E   Q         Q  E E E E E E   +E  E Q    E  E E   E
|---------------------0---0-------|-0----0-0-0-0-5-|-(5)-5-5----5--5-5------|
|---------------------2---0-------|-2----2-2-2-2-5-|-(5)-5-5----5--5-5------|
|-(0)-0---0-------0---0---0-------|-0--0---0-0---5-|-(5)-5-5----5--5-5------|
|-(2)-2---2-------2---2---0-------|-2--2---2-2---5-|-(5)-5-5----5--5-5------|
|-(0)-0---0-------0---------------|-0--0---0-----5-|-(5)-5-5----5--5-5---4--|
|---------------------------------|--------------3-|-(3)-3-3----3--3-3------|
|
| +E  S S S S S S S S S S S S E     Q  E E E E E E   +E  E E E +E  E Q
|---------------------------------|----------------|------------------------|
|---------------------------------|----------------|------------------------|
|---------0-----------0-----------|----------------|------------------------|
|---------------2-----------2-----|-2----2---------|------------------------|
|-(0)-3-4---3-4---3-4---3-4---3b4-|-0--0-0-0-2-4-5-|-(5)---4-5-(5)-0-3b4----|
|---------------------------------|----------0-2-3-|-(3)-0-2-3-(3)----------|


                                           3rd Verse
  C5              Gsus2            Ab9G9                     Gm9
  Q  Q    E E E   E   +Q   E E E E  E  E     +Q   Q   E  Q     E
|-5--5--------------|------------------0-||--(0)-------------^-0----|
|-0--0--------------|--------------10--9-||--(9)-------------^-9----|
|-0--0------0-0---2-|-(2)------0---11-10-||-(10)-----10-10---^10----|
|-0--0------------2-|-(2)--2---0---12-11-||-(11)-----11-11---^10----|
|-5--5----5-4-2---0-|-(0)--0-0---0-----0-||--(0)--0---0--0---^-0----|
|-------------------|--------------------||-------------------------|
|
| Q  E. S E E E   E   +H       Q    E  E     +H.           E   S  S
|-------------------|--------------------||-------------------------|
|-------------------|--------------10s=9-||--(9)--------------------|
|-------------------|--------------11s10-||-(10)-----------------10-|
|-7--7--7-7---------|--------------12s11-||-(11)--------------10----|
|-5--5--5-5-0-3b4-0-|-(0)----------------||-------------------------|
|-------------------|--------------------||-------------------------|


                      Csus4   C            Csus4            Ab9G9
   +Q    Q   E  E  E  E   +E  Q  E +E  E E E   +E  Q  E E E  E  E
|--(0)-------0--0-----5-|-(5)-5--5-(5)-----5-|-(5)-5---------0--0-|
|--(9)---9---9--9-----0-|-(0)-0--0-(0)-0-0-0-|-(0)-0--0-----10--9-|
|-(10)--10--10-10-----0-|-(0)-0--0-(0)-0---0-|-(0)-0--0-----11-10-|
|-(10)--10--10-----0--5-|-(5)-4--4-(4)-----5-|-(5)-4--4-4---12-11-|
|--(0)-------0----------|-----0--5-(5)-------|--------5------0--0-|
|-----------------------|--------------------|--------------------|
|
|   H.            +E  E   +E  Q  E +Q.     E   +E  Q  E E E  E  E
|---0-------------(0)-5-|-(5)-5--5-(5)-----5-|-(5)-5--5-5-5--0----|
|---9-------------(9)---|--------------------|--------------10s=9-|
|-----------------------|--------------------|--------------11s10-|
|---------------------5-|-(5)-4------------5-|-(5)-4----4-5-12s11-|
|-----------------------|--------5-(5)-------|--------5-----------|
|-----------------------|--------------------|--------------------|


                      Gm9                       Csus4   C          Csus4
   +Q    Q   +E   Q     E       +Q   Q  E E  E  E   +E  Q  E +Q.   E
|--(0)----------------^-0----|--(0)-------------5-|-(5)-5--5-(5)---5-|
|--(9)------------9---^-9----|--(9)-------------0-|-(0)-0--0-(0)---0-|
|-(10)-----------10---^10----|-(10)-------------0-|-(0)-0--0-(0)---0-|
|-(11)--11--(11)-11---^10----|-(10)----------0--5-|-(5)-4--4-(4)---5-|
|--(0)---0---(0)--0---^-0----|--(0)--0--0-3-------|-----0--5-(5)-----|
|----------------------------|--------------------|------------------|
|
|  +H.              E   S  S     H.         +E  E   +E  Q  E +Q.   E
|----------------------------|---0----------(0)-5-|-(5)-5--5-(5)---5-|
|--(9)-----------------------|---9----------(9)---|------------------|
|-(10)--------------------10-|--------------------|------------------|
|-(11)-----------------10----|------------------5-|-(5)-4----------5-|
|----------------------------|--------------------|--------5-(5)-----|
|----------------------------|--------------------|------------------|


      C          Ab9G9                   Gm9                          Csus4
  +E  Q  E +E  E  E  E    +E  E Q  Q.      E       +H      +E   E  E  E
|-(5)-5--5-(5)----0--0-|--(0)------------^-0----|--(0)-----(0)--------5-|
|-(0)-0--0-(0)---10--9-|--(9)------------^-9----|--(9)-----(9)--------0-|
|-(0)-0--0-(0)---11-10-|-(10)------------^10----|-(10)----(10)--------0-|
|-(5)-4--4-(4)---12-11-|-(11)------------^10----|-(10)----(10)-10-----5-|
|-----0--5-(5)----0--0-|--(0)-0-0--0-----^-0----|--(0)-----(0)--0-------|
|----------------------|------------------------|-----------------------|
|
| +E  Q  E  E  E  E  E    +H.          E   S  S     H.            +E  E
|-(5)-5--5--5--5--0----|------------------------|---0-------------(0)-5-|
|----------------10s=9-|--(9)-------------------|---9-------------(9)---|
|----------------11s10-|-(10)----------------10-|-----------------------|
|-(5)-4-----4--5-12s11-|-(11)-------------10----|---------------------5-|
|--------5-------------|------------------------|-----------------------|
|----------------------|------------------------|-----------------------|


      C          Csus4   C        Ab9G9                    Gm9
  +E  Q  E +Q.   E   +E  Q  E Q    E  E    +Q   Q  E  E  E   E
|-(5)-5--5-(5)---5-|-(5)-5--5-5----0--0-|--(0)-------------^-0-|
|-(0)-0--0-(0)---0-|-(0)-0--0-0---10--9-|--(9)-------------^-9-|
|-(0)-0--0-(0)---0-|-(0)-0--0-----11-10-|-(10)-------------^10-|
|-(5)-4--4-(4)---5-|-(5)-4--4-----12-11-|-(11)-------11-11-^10-|
|--------5-(5)-----|--------5------0--0-|--(0)--0--0--0--0-^-0-|
|------------------|--------------------|----------------------|
|
| +E  Q  E +Q.   E   +E  Q  E E E  E  E    +H.           E   E
|-(5)-5--5-(5)---5-|-(5)-5--5-5-5--0----|----------------------|
|------------------|--------------10s=9-|--(9)-------------^-9-|
|------------------|--------------11s10-|-(10)-------------^10-|
|-(5)-4----------5-|-(5)-4----4-5-12s11-|-(11)-------------^10-|
|--------5-(5)-----|--------5-----------|----------------------|
|------------------|--------------------|----------------------|


                             Csus4   C          Csus4   C           Gsus2
   +Q    Q        E    E  E  E   +E  Q  E +Q.   E   +E  Q  E E E E  E
|--(0)-----------------0-----5-|-(5)-5--5-(5)---5-|-(5)-5--5-----------||
|--(9)-----------------9-----0-|-(0)-0--0-(0)---0-|-(0)-0--0--------2--||
|-(10)-----------10----------0-|-(0)-0--0-(0)---0-|-(0)-0--0--------2--||
|-(10)--10-------10-------0--5-|-(5)-4--4-(4)---5-|-(5)-4--4-4-5-7\-2--||
|--(0)---0--------0-------0----|--------5-(5)-----|--------5--------0--||
|------------------------------|------------------|--------------------||
|
|                      ~
|  +Q.      S  S  S  S E +E  E   +E  Q  E +Q.   E   +E  Q  E E E E  E
|----------------------------5-|-(5)-5--5-(5)---5-|-(5)-5--5-5---------||
|--(9)------------9-12-9-(9)---|------------------|--------------------||
|-(10)--------10---------------|------------------|-----------------2--||
|-(10)-----10----------------5-|-(5)-4----------5-|-(5)-4----4-5-7\-2--||
|------------------------------|--------5-(5)-----|--------5--------0--||
|------------------------------|------------------|--------------------||


 Bridge
      G                 G+sus2  G+                G6sus2  G6                G7sus2
  +E  E E S S E   S S E E   +E  E E S S E   S S E E   +E  E E S S E   S S E E
|-------------------------|-------------------------|-------------------------|
|-(2)-2-------------------|-----------------------2-|-(2)-2-------------------|
|-(2)-4-4-----------4---2-|-(2)-4-----------------2-|-(2)-4-4---------------2-|
|-(2)-2-2---2-----2-2---3-|-(3)-3-3---3-3-----3---4-|-(4)-4-4-4---4---------5-|
|-(0)-0-0-0---0---0---0-0-|-(0)-0-0-0-0-0---0---0---|-----0-0-0-0-0---0-0---0-|
|-------------------------|-------------------------|---------------------0---|
|
| +E  E E S S S S S S E E   +E  E E S S S S S S E E   +E  E E S S S S S S E E
|-------------------------|-------------------------|-------------------------|
|-------------------------|-------------------------|-------------------------|
|-(2)-4-4-2-4-0-2---0---2-|-(2)-4-4-2-4-0-2---0---2-|-(2)-4-4-2-4-0-2---0---2-|
|-(2)-2-----------4---2-3-|-(3)-------------4---2-4-|-(4)-------------4---2-5-|
|-(0)---------------------|-------------------------|-------------------------|
|-------------------------|-------------------------|-------------------------|


      G7  G7add6        Cmaj7    Cmaj7+11    Bm7
  +E  E E E +E  E E E   Q  E S S E   E    E  E   +E  E Q   E E Q
|---------2-(2)-------|-5--5-5-5-4---5-------4-|-(4)-2-4---4-4-4--|
|---------2-(2)-2-----|-4--4-4-4-4---4----4--2-|-(2)---2---2-2-2--|
|-(2)-4---4-(4)-4---0-|-4--4-4---4-----------2-|-(2)---2---2-2-2--|
|-(5)-5-5---------5-0-|-4----4---4-----------2-|-(2)-------2-2----|
|-(0)-0-0---------0---|-5----5---------------4-|-(4)-------4-4----|
|---------------------|------------------------|------------------|
|
| +E  E E E +E  E E E   Q  E S S S S S S +E  E   +E  E E E E E Q
|---------2-(2)-------|------5-----5---------2-|-(2)---4---4------|
|---------------2-----|----------4---4---------|-----2---2---2----|
|-(2)-4-4---------4---|----4---4-------4-(4)---|------------------|
|-(5)-5-5---------5-5-|-4--------------------2-|-(2)-------0---4--|
|---------------------|-5----5-----------------|------------------|
|---------------------|------------------------|------------------|


                                             Outro
  Am7                   Am11                  G(type 2)       F/G
          |-3-|                 |-3-|
   Q.   E S S S E E E    Q.   E S S S E Q      Q  E S S E E E E
|-------2-0h2p0-------|-!0----2-0h2p0------||--9--9-----9-7---7-|
|-!0------------0-----|-!0------------0----||--7--7-7-7-7-7-7-5-|
|-!0--------------0---|-!0--------------0--||--7--7-7-7-7-7---5-|
|-!0----------------0-|-!0-----------------||--7--7-7-7-7-----5-|
|-!2------------------|-!2-----------------||--0--------0-----0-|
|---------------------|--------------------||-------------------|
|
|         |-3-|                 |-3-|
|  Q.   E S S S E Q      Q.   E S S S E Q      Q  Q     E E E E
|--0----2-0h2p0-------|-!0----2-0h2p0------||-/9--9-----9-7---7-|
|--0------------0-----|-!0------------0----||---------------7-5-|
|--0--------------0---|-!0--------------0--||-------------------|
|--0------------------|-!0-----------------||-/7--7-----7-------|
|--2------------------|--------------------||-----------------0-|
|---------------------|--------------------||-------------------|


      Fsus2   F/G       Cmaj7                Bm7             CmajDm7
  +E  E E E E E E S S    Q     E   S S E E E E   +Q    E E E E E E
|-(7)-5-5---5-7-------|--5-----5---5-5-5-4---4-|-(4)---4-2-4-5---7-|
|-(5)-5-5---5-5-------|--4-----4---4-4-4-4-0-2-|-(2)---2-2-4-4---5-|
|-(5)-5---7-5-5---0---|--4-----4-------4-4-0-2-|-(2)---2---4-4---5-|
|-(5)-5---5---5---0---|--4-----4-------4-4---2-|-(2)---2---4-4---5-|
|-(0)-----0-----0---0-|--5-------------------4-|-(4)-------4-5-x-7-|
|---------------------|------------------------|-------------------|
|
| +E  Q   E E E Q        E S S S S S S E E E E   +E  E E E E E E E
|-(7)-5-----5-7-------|-/5-----5-------5-4---4-|-(4)-------4-5---7-|
|-(5)-5-------5-------|------4---4---4-----4---|-----2---2---4---5-|
|---------7-----------|----4-------4-----------|-------2-----------|
|---------------------|------------------------|-------------------|
|-(0)-----------------|-/5-------------------4-|-(4)---------------|
|---------------------|------------------------|-------------------|


                      EbmaFm7
  +Q        E   E   E E E  E
|-(7)-------7---5---7-8---10-|
|-(5)-------5---5---5-7----8-|
|-(5)-------5---5---5-7----8-|
|-(5)-------5---5---5-7-x--8-|
|-(7)-------7-------7-8---10-|
|----------------------------|
|
| +S  S S S S S S S E E E  E
|-(7)-------7---------8---10-|
|-(5)-----5---5-------7----8-|
|-------5-------5---5-7------|
|-----------------5----------|
|-----7----------------------|
|----------------------------|


                                  G7sus4
   +Q     E   E    E  E  +E   E   E E E E E E E E
|-(10)---10---8---10-12-(12)\---|---------0--------|
|--(8)----8---8----8------------|-------5---5---5--|
|--(8)----8---8----8------------|-----6-------6----|
|--(8)----8--------8------------|---7--------------|
|-(10)--------------------------|-0----------------|
|-------------------------------|------------------|
|
|  +E  E  S S S S  E  E  +Q       E E E E E E E E
|-(10)---10-----8-10-12-(12)\---|---------0--------|
|--(8)------8-------------------|-------5---5---5--|
|------8------8-----------------|-----6-------6----|
|-------------------------------|---7--------------|
|-------------------------------|-0----------------|
|-------------------------------|------------------|


                    Csus2add4             Cadd4           Csus2addG6/B
  E E E E E E E E   S S E E E S S E E E   S S S S S S S S S S S S S S S S
|---------0-------|-7p5-------2p0-------|-5p3-------3-----------0-------0-|
|-------5---5---5-|-----6---6-----0---0-|-----4---4---4-------5-------4---|
|-----6-------6---|-------7---------0---|-------5-------5---0-------0-----|
|---7-------------|-0---------0---------|-0-------------------------------|
|-0---------------|---------------------|-----------------5-------4-------|
|-----------------|---------------------|---------------------------------|
|
| E E E E E E E E   S S E E E S S E E E   S S S S S S S S S S S S S S S S
|---------0-------|-7p5-----5-2p0-----0-|-5p3-------3-----------0-------0-|
|-------5---5---5-|-----6---------0-----|-----4---4---4-------5-------4---|
|-----6-------6---|-------7---------0---|-------5-------5---0-------0-----|
|---7-------------|-0---------0---------|-0-------------------------------|
|-0---------------|---------------------|-----------------5-------4-------|
|-----------------|---------------------|---------------------------------|


  A7sus4               Gsus2II
  S S S S E E E Q.      W           +W
|-------0-------0----|-^0--------|-^(0)----*|
|-----2---2---2------|-^2--------|-^(2)----*|
|---0-------0--------|-^2--------|-^(2)----*|
|--------------------|-^2--------|-^(2)----*|
|-2------------------|-^0--------|-^(0)----*|
|--------------------|-----------|---------*|
|
| S S S S E E E Q.      W           +W
|-------0-------0----|-^0--------|-^(0)----*|
|-----2---2---2------|-^2--------|-^(2)----*|
|---0-------0--------|-^2--------|-^(2)----*|
|--------------------|-^2--------|-^(2)----*|
|-2------------------|-^0--------|-^(0)----*|
|--------------------|-----------|---------*|



VER THE HILLS AND FAR AWAY
                           As recorded by Led Zeppelin
                    (From the 1973 Album HOUSES OF THE HOLY)

Words and Music by Page and Plant
Arranged by Led Zeppelin
Transcribed by rocktabber

          G5                   D5                   E5                   A5
      3 5 5 x x x          x 5 7 7 x x          0 2 x x x x          5 7 x x x x

Gtr I (E A D G B E) - 'Acoustic'
Gtr II (E A D G B E) - 'Electric'
Gtr III (E A D G B E) - 'Solo Gtr.'
Gtr IV (E A D G B E) - 'Extra dubbed in gtr.'
Gtr V (E A D G B E) - 'Untitled'

 Intro
  Moderate Rock Q=96
                G                                D
 1/4           4/4
  Gtr I
  |-3-|                     |-3-|       |-3-|              |-3-|
  S S S S S     Q  E. E S E S S S S S   S S S Q  E S S S S S S S S S
|-----------||--------3---------------|----------2-2-2-2-2------------|
|-----------||o----0--0-0-------------|----------3-3-3-3-3------------|
|-0h2p0-----||--0--0----0-0-0h2p0---0-|-4p2p0----2-2-2-2-2-0h2p0------|
|-------4p0-||-----0------0-------4---|-------0--0---------------4p0--|
|-----------||o----2------2-----------|-------------------------------|
|-----------||-----3------3-----------|-------------------------------|


  G                                D
              |-3-|       |-3-|
  Q  E. E S E S S S S S   S S S Q  E S S S S S S S S
|----3--3-3-------------|----------2-----------------|
|----0--0-0-------------|----------3-----------------|
|-0--0--------0h2p0---0-|-4p2p0----2-----------------|
|----0--------------4---|-------0--0-0-0-----2---0-2-|
|----2------------------|----------0-----0-2---2-----|
|----3------3-----------|----------------------------|


     G
                 |-3-|
  Q  E S E S S S S S S S S
|------3-3-3----------------|
|----0-0-0-0---0------------|
|----0-------0---0h2p0---0--|
|-0--0-------0---------4----|
|----2----------------------|
|----3----------------------|


                             1.
           D                  C  Cadd9   G/B         Bb6
  |-3-|           |-3-|
  S S S Q  E. S E S S S S S   Q   E  S S E E E S S   E. S E E +S  E S S S S S
|----------2--2-2-----------|----------------------|--------------------------|
|----------3--3-3-----------|-----3--3-3-3-3-3-3---|----3-3-3-(3)-3-3-3-3-3-3-|
|-4p2p0----2--2-2-0h2p0-----|-----0------0-0-0-0---|-0--0-0-0-(0)-0-0-0-0-0-0-|
|-------0--0--0-0-------4p0-|-2--(2)-----0---0-0---|-3--3-3-3-(3)-3-3-3-3-3-3-|
|---------------------------|-3--(3)-----2---2-2-0-|-1--1-1-1-(1)-1-1-1-1-1-1-|
|---------------------------|----------------------|--------------------------|


                                 2.
    C                                 Cadd9
                    |-3-|
  S S S S E E S E S S S S S S     E E E. S +H
|-------------0----------------||----------------------------|
|-3s5-5-5-5-5-5---5-----------o||-----3----------------------|
|-0---0-0-0-0-------0h2p0------||---x-0--0-(0)---------------|
|-3s5-5-5-5-5---5-5-------4p0--||-----2----------------------|
|-1s3-1-1-3-3---3-3-----------o||-3---3--2---------------2-0-|
|------------------------------||--------------3-3-(3)-3-----|
                                  Q   E. S  S  e S +S  S S S


          D
  S S S S S S S S +S  E S +S  S S S
|---------2-2-2-0-(0)-----------------|
|---------3-3-3-3-(3)-----------------|
|-----x-2-2-2-2-0-(0)-0---------------|
|-2p0-----------0-(0)-----------------|
|-----------------------------0-2p0---|
|---------------------3-3-(3)---------|


          D
  S S S S S S S S +S  E S +S  S S S
|---------2-2-2-0-(0)---------------|
|---------3-3-3-3-(3)---------------|
|-----x-2-2-2-2-0-(0)-0-------------|
|-2p0-----------0-(0)---------------|
|-----------------------------0-2p0-|
|---------------------3-3-(3)-------|


                                      1st Verse
          D                            G
                          |-3-|                           |-3-|
  S S S S E S S +S  S S S S S S S S    Q  E S S +S  S S S S S S S S
|---------2-2-2-(2)-2---------------||----3-3-3-(3)-3---------------|
|-----3-3-3-3-3-(3)-3-3-3-----------||----0-0-0-(0)-0---0-----------|
|-----2-2-2-2-2-(2)-2-2---0h2p0-----||-0--0-0-0-(0)-0-0---0h2p0---0-|
|-2p0---------------------------4p0-||----0-0-0-(0)-0-----------4---|
|-----------------------------------||----2-2-2-(2)-2---------------|
|-----------------------------------||----3-3-3-(3)-3---------------|


           D
  |-3-|              |-3-|
  S S S Q  E +S  E S S S S S S
|----------2-(2)-2-------------|
|----------3-(3)-3-3-----------|
|-4p2p0----2-(2)-2---0h2p0-----|
|-------0--0-(0)-0---------4p0-|
|------------------------------|
|------------------------------|


  G                          D
                                               |-3-|
  Q  E. S +S   E S S S S S   S S S S E S E S E S S S S S
|----3--3-(3)--------------|-----------------------------|
|----0--0-(0)-/3-3-5-3-3-3-|-5s7-7-7-7-7-7-7-7-----------|
|-0--0--0-(0)-/4---4-4-4-4-|-5s7-7-7-7-7-7-7-7-0h2p0-----|
|----0--0-(0)--------------|-0-------0---------------4p0-|
|----2--2-(2)--------------|-----------------------------|
|----3--3-(3)--------------|-----------------------------|


  G
                     |-3-|
  Q  E S S +S  S S S S S S S S
|------3-3-(3)-3---------------|
|----0-0-0-(0)-0---0-----------|
|-0--0-0-0-(0)-0-0---0h2p0---0-|
|----0-0-0-(0)-------------4---|
|----2-2-2-(2)-----------------|
|----3-3-3-(3)-----------------|


           D                         CaddG/B
  |-3-|              |-3-|
  S S S Q  E +S  S E S S S S S   E E E S S +S  e S +S  S S S
|----------2-(2)-2-------------|-------------------------------|
|----------3-(3)-3-3-----------|-----3-3-----------------------|
|-4p2p0----2-(2)-2-2-0h2p0-----|-----0-0-0-(0)-----------------|
|-------0--0-(0)-----------4p0-|---2-2-------------------------|
|------------------------------|-3---3---2-(2)---------0-2p0---|
|------------------------------|---------------3-3-(3)---------|


          D                               D
  S S S S E S S +S  E S +S  S S S   S S S S E S S +S  E S +S  S S S
|---------2-2-0-(0)---------------|-------2-2-2-0-(0)---------------|
|---------3-3-3-(3)---------------|-----x-3-3-3-3-(3)---------------|
|-----x-2-2---0-(0)-0-------------|-----x-2-2---0-(0)-0-------------|
|-2p0-----------------------------|-2p0-----0---0-(0)---------------|
|---------------------------0-2p0-|---------------------------0-2p0-|
|-------------------3-3-(3)-------|-------------------3-3-(3)-------|


          D            A/D           G/D
  S S S S Q      E   S  S  +S   S  S S
|---------2------2--/7--9--(9)--9--9-7-|
|-----3---3------3--/8-10-(10)-10-10-8-|
|-----2-2-2------2--/7--9--(9)--9--9-7-|
|-2p0-----0-0-----------0--(0)---------|
|---------0-0--------------------------|
|-------------0-(0)--------------------|
  Q       E S S +E.     S  +Q


                       A/D              G/D
  E  S S S S S S  S  S  S  S  +S   S  S S
|-7--7-7-7-7-7-7--7--7--9--9--(9)--9--9-7-|
|-8--8-8-8-8-8-8--8--8-10-10-(10)-10-10-8-|
|-7--7-7-7-7-7-7--7--7--9--9--(9)--9--9-7-|
|-0----------0---(0)----------------------|
|-----------------------------------------|
|-----------------------------------------|
  Q.         E   +H


                        A/D              G/D                       A/D              G/D
  E S S  Q         S  S  S  S  +S   S  S S   E S S  Q         S  S  S  S  +S   S  S S
|-7-7-7--7---------x--x--9--9--(9)--9--9-7-|-7-7-7--7---------x--x--9--9--(9)--9--9-7-|
|-8-8-8--8---------x--x-10-10-(10)-10-10-8-|-8-8-8--8---------x--x-10-10-(10)-10-10-8-|
|-7-7-7--7---------7--7--9--9--(9)--9--9-7-|-7-7-7--7---------7--7--9--9--(9)--9--9-7-|
|-0-----(0)--------------------------------|-0-----(0)--------------------------------|
|-----------0---0-(0)----------------------|-----------0---0-(0)----------------------|
|-------------7-0-(0)----------------------|-------------7-0-(0)----------------------|
  Q     +S  S S S +H                         Q     +S  S S S +H


                         2nd and 4th Verse
                      $
            G5D  D5A      G5              A5
  E S S E E S E. S E.     S S S S E S S S E S +S  S S S
|-7-7-7-7---3-2-------||--------------------------------|
|-8-8-8-8---3-3--3-2--||o-------------------------------|
|-7-7-7-7---0-2--2-2--||------------x-x-x---------------|
|-0-----0---0-0--0-2--||--5-5-5-5-5-x-x-x-2-2-(2)-2-4p2-|
|------------------0--||o-5-5-5-5-5-x-x-x-0-0-(0)-0-0---|
|-----------3---------||--3-3-3-3-3-x-x-x---------------|
| Q     E E S E. S E.
|
| Gtr II
| H         S E. S E.     S S S S E S S S E S +S  S S S
|-----------3-2-------||--------------------------------|
|-----------3-3--3-2--||o-------------------------------|
|-----------0-2--2-2--||------------x-x-x---------------|
|-----------0-0--0-2--||--5-5-5-5-5-x-x-x-2-2-(2)-2-4p2-|
|------------------0--||o-5-5-5-5-5-x-x-x-0-0-(0)-0-0---|
|-----------3---------||--3-3-3-3-3-x-x-x---------------|


  G5            D  D5A
  S S S S E E S E. S E.
|-------------3-2-------|
|-------------3-3--3-2--|
|-------------0-2--2-2--|
|-5-5-5-5-5---0-0--0-2--|
|-5-5-5-5-5----------0--|
|-3-3-3-3-3---3---------|
|
| S S S S E E S E. S E.
|-------------3-2-------|
|-------------3-3--3-2--|
|-------------0-2--2-2--|
|-5-5-5-5-5---0-0--0-2--|
|-5-5-5-5-5----------0--|
|-3-3-3-3-3---3---------|


  G5              A5              G                 A/D           G/D
  S S S S E S S S E S +S  S S S   S S S S E S S S S  S  S  +S   E S
|-------------------------------|-3-3-3-3-3-x-x-x-x--9--9--(9)--9-7-|
|-------------------------------|-0-0-0-0-0-x-x-x-x-10-10-(10)-10-8-|
|-----------x-x-x---------------|-0-0-0-0-0-x-x-x-x--9--9--(9)--9-7-|
|-5-5-5-5-5-x-x-x-2-2-(2)-2-4p2-|-0-0-0-0-0-x-x-x-x-----------------|
|-5-5-5-5-5-x-x-x-0-0-(0)-0-0---|-2-2-2-2-2-x-x-x-x-----------------|
|-3-3-3-3-3-x-x-x---------------|-3-3-3-3-3-x-x-x-x-----------------|
|
|                                                 PM--------------|
| S S S S E S S S E S +S  S S S   S S S S E E   S E     S   S   E S
|-------------------------------|-----------------------------------|
|-------------------------------|-----------------------------------|
|-----------x-x-x---------------|-----------------------------------|
|-5-5-5-5-5-x-x-x-2-2-(2)-2-4p2-|-5-5-5-5-5-------------------------|
|-5-5-5-5-5-x-x-x-0-0-(0)-0-0---|-5-5-5-5-5-------------------------|
|-3-3-3-3-3-x-x-x---------------|-3-3-3-3-3-------5-----5-------7-5-|


                          A/D                 G/D
  E S S e           S S S  S  S  S  +S   S  S S
|-7-7-7-7-----------x-x-x--9--9--9--(9)--9--9-7-|
|-8-8-8-8-----------x-x-x-10-10-10-(10)-10-10-8-|
|-7-7-7-7-----------x-x-x--9--9--9--(9)--9--9-7-|
|-----------------------------------------------|
|-----------------------------------------------|
|-----------------------------------------------|
|
|                          PM-----------------|
| E S S S T    +T   E   S  E     S   S   S  S S
|-----------------------------------------------|
|-----------------------------------------------|
|-----------------------------------------------|
|-----------------------------------------------|
|-5-5---5-5b7==(5)r-----------------------------|
|-----7--------------------5-----5-------5--7-5-|


                            A/D                 G/D
  S S S S S S         S S S  S  S  S  +S   S  S S
|-7-7-7-7-7-7---------x-x-x--9--9--9--(9)--9--9-7-|
|-8-8-8-8-8-8---------x-x-x-10-10-10-(10)-10-10-8-|
|-7-7-7-7-7-7---------x-x-x--9--9--9--(9)--9--9-7-|
|-------------------------------------------------|
|-------------------------------------------------|
|-------------------------------------------------|
|
|                            PM-----------------|
| E   S S S T    +T   E   S  E     S   S   S  S S
|-------------------------------------------------|
|-------------------------------------------------|
|-------------------------------------------------|
|-------------------------------------------------|
|-5---5---5---------------------------------------|
|-------7---5b7==(5)r--------5-----5-------5--7-5-|


                                                                             To Coda
                      A/D                           G/D                   G5D  D5A
  E S S e           S  S  S  S  S  S  +S   S  S S   E S S e           S S S E. S E.
|-7-7-7-7-----------x--9--9--9--9--9--(9)--9--9-x-|-7-7-7-7-----------x-x-3-2-----------||
|-8-8-8-8-----------x-10-10-10-10-10-(10)-10-10-x-|-8-8-8-8-----------x-x-3-3--3-2-----o||
|-7-7-7-7-----------x--9--9--9--9--9--(9)--9--9-x-|-7-7-7-7-----------x-x-0-2--2-2------||
|-------------------------------------------------|-----------------------0-0--0-2------||
|-------------------------------------------------|------------------------------0-----o||
|-------------------------------------------------|-----------------------3-------------||
|
|                            PM-----------------|
| E S S S T    +T   E     S  E     S   S   S  S S   E S S S T    +T   E   S E. S E.
|-------------------------------------------------|-----------------------3-2-----------||
|-------------------------------------------------|-----------------------3-3--3-2-----o||
|-------------------------------------------------|-----------------------0-2--2-2------||
|-------------------------------------------------|-----------------------0-0--0-2------||
|-5-5---5-5b7==(5)r-------------------------------|-5-5---5----------------------0-----o||
|-----7----------------------5-----5-------5--7-5-|-----7---5b7==(5)r-----3-------------||


 3rd Verse
  G5              A5              G5            D  D5A
  S S S S E S S S E S +S  S S S   S S S S E E S E. S E.
|-------------------------------|-------------3-2-------|
|-------------------------------|-------------3-3--3-2--|
|-----------x-x-x---------------|-------------0-2--2-2--|
|-5-5-5-5-5-x-x-x-2-2-(2)-2-4p2-|-5-5-5-5-5---0-0--0-2--|
|-5-5-5-5-5-x-x-x-0-0-(0)-0-0---|-5-5-5-5-5----------0--|
|-3-3-3-3-3-x-x-x---------------|-3-3-3-3-3---3---------|
|
| S S S S E S S S E S +S  S S S   S S S S E E S E. S E.
|-------------------------------|-------------3-2-------|
|-------------------------------|-------------3-3--3-2--|
|-----------x-x-x---------------|-------------0-2--2-2--|
|-5-5-5-5-5-x-x-x-2-2-(2)-2-4p2-|-5-5-5-5-5---0-0--0-2--|
|-5-5-5-5-5-x-x-x-0-0-(0)-0-0---|-5-5-5-5-5----------0--|
|-3-3-3-3-3-x-x-x---------------|-3-3-3-3-3---3---------|


  G5              A5
  S S S S E S S S E S +S  S S S
|--------------------------------|
|--------------------------------|
|-----------x-x-x----------------|
|-5-5-5-5-5-x-x-x-2-2-(2)-2-4p2--|
|-5-5-5-5-5-x-x-x-0-0-(0)-0-0----|
|-3-3-3-3-3-x-x-x----------------|
|
| S S S S E S S S E S +S  S S S
|--------------------------------|
|--------------------------------|
|-----------x-x-x----------------|
|-5-5-5-5-5-x-x-x-2-2-(2)-2-4p2--|
|-5-5-5-5-5-x-x-x-0-0-(0)-0-0----|
|-3-3-3-3-3-x-x-x----------------|


  G5                A5
  S S S S E S S S S  S  S  +S   S  S S
|-7-7-7-7-7-x-x-x-x--9--9--(9)--9--9-7-||
|-8-8-8-8-8-x-x-x-x-10-10-(10)-10-10-8-||
|-7-7-7-7-7-x-x-x-x--9--9--(9)--9--9-7-||
|--------------------------------------||
|--------------------------------------||
|--------------------------------------||
|
| S S S S E E   E    S  S  +S   S  s S
|--------------------------------------||
|--------------------------------------||
|--------------------------------------||
|-5-5-5-5-5---------/7--7--(7)--7--7---||
|-5-5-5-5-5---------/7--7--(7)--7--7---||
|-3-3-3-3-3---------/5--5--(5)--5--5-0-||


 Interlude
  G5       D              A5    E5
  E. S E E E. S E S S   E E S S E +E  E +S  S E
|-7--7-7---5--5-5-x-5-|-5-0-x-x-0-(0)-0-(0)-0-0-|
|-8--8-8---7--7-7-x-7-|-7-2-x-x-0-(0)-0-(0)-0-0-|
|-7--7-7---7--7-7-x-7-|-7-2-x-x-1-(1)-1-(1)-1-1-|
|---------------------|---2-x-x-2-(2)-2-(2)-2-2-|
|---------------------|---0-x-x-2-(2)-2-(2)-2-2-|
|---------------------|---------0-(0)-0-(0)-0-0-|
|
| E. S E E E. S E S S   E E E   E +H
|---------------------|-------------------------|
|----------7--7-7-----|-------------------------|
|----------7--7-7-----|-------------------------|
|----------7--7-7-x-7-|-7-----------------------|
|-5--5-5---5--5-5-x-5-|-5-7-----2-(2)-----------|
|-3--3-3--------------|---5-----0-(0)-----------|


  G5                         D5                           A5      E5
  Gtr II
   E.          S  E      E   E.         S E     S S   E   E   E    E      +S   S S S +S  S E
   |           |  |          |          | |       |   |   |        |       |   | | |  |  | |
   /           /  /          /          / /       /   /   /        /       /   / / /  /  / /

  Gtr III
                                                                   ~~~~~~~~~~~~
   E      +S   S  S  +E    S E     +S   S S +S  S S   S S S S E    E      +Q          Q
|---------------------------------------------------|----------------------------------------|
|-------------15-----------------------10-----------|--------------8b9====(8)r---------------|
|-14b16==(14)----14r(14)-----9b11==(9)----9r(9)-----|-----9---7------------------------------|
|-------------------------------------------------7-|-7h9---9--------------------------------|
|---------------------------------------------------|----------------------------------------|
|---------------------------------------------------|----------------------------------------|
|
| Gtr IV
|                                                                  ~~~~~~~~~~~~
|  W                                                  S S S S e    E      +Q          q
|---------------------------------------------------|----------------------------------------|
|---------------------------------------------------|-------------10b12==(10)r-------10------|
|---------------------------------------------------|-----9---7------------------------------|
|---------------------------------------------------|-7h9---9--------------------------------|
|---------------------------------------------------|----------------------------------------|
|---------------------------------------------------|----------------------------------------|
|
| Gtr I
|  E.          S  E      E   E.         S E     S S   E   E   S S  E      +E     E   +S  S E
|--7-----------7--7----------5----------5-5-----x-5-|-5---0---x-x--0------(0)----0---(0)-0-0-|
|--8-----------8--8----------7----------7-7-----x-7-|-7---2---x-x--0------(0)----0---(0)-0-0-|
|--7-----------7--7----------7----------7-7-----x-7-|-7---2---x-x--1------(1)----1---(1)-1-1-|
|---------------------------------------------------|-----2---x-x--2------(2)----2---(2)-2-2-|
|---------------------------------------------------|-----0---x-x--2------(2)----2---(2)-2-2-|
|---------------------------------------------------|--------------0------(0)----0---(0)-0-0-|


  G5                         D5
   E.          S  E      E   E.         S E     S S
   |           |  |          |          | |       |
   /           /  /          /          / /       /

   E      +S   S  S  +E    S E     +S   S S +S  S S
|-----------------------------------------------------|
|-------------15-----------------------10-------------|
|-14b16==(14)----14r(14)-----9b11==(9)----9r(9)-------|
|-------------------------------------------------7---|
|-----------------------------------------------------|
|-----------------------------------------------------|
|
|  E      +S   S  S  +E    S E     +S   S S +S  S S
|-----------------------------------------------------|
|-------------15-----------------------10-------------|
|-14b16==(14)----14r(14)-----9b11==(9)----9r(9)-------|
|-------------------------------------------------7---|
|-----------------------------------------------------|
|-----------------------------------------------------|
|
|  E.          S  E      E   E.         S E     S S
|--7-----------7--7----------5----------5-5-----x-5---|
|--8-----------8--8----------7----------7-7-----x-7---|
|--7-----------7--7----------7----------7-7-----x-7---|
|-----------------------------------------------------|
|-----------------------------------------------------|
|-----------------------------------------------------|


                                     Guitar Solo
  D5  A5      E5                      N.C.    (F#m)
  E   E   E    E    +H                 W
  |   |        |     |
  /   /        /     /

               ~~~~~~~~~~
  S S S S e    E    +H                 Q           +Q      +S E.     E.    S
|----------------------------------||----------------------------------------|
|--------------8b9==(8)r-----------||--------------------------------5-------|
|-----9-7-7------------------------||--4b6=========(4)-----(4)4------------4-|
|-7h9------------------------------||----------------------------------------|
|----------------------------------||----------------------------------------|
|----------------------------------||----------------------------------------|
|
|                                  Gtr II
|                    ~~~~
| S S S S E    E    +H                 S    S S  S  E  S S  S S  S S S S E
|----------------------------------||----------------------------------------|
|----------------------------------||-----------11---------------------------|
|-----9-7-7---/9----(9)------------||-11p===9-9-11-----4p2--4p2--4s6-4p2-----|
|-7h9------------------------------||-11p===9-9-11-----4p2--4p2--4s6-4p2-4---|
|----------------------------------||------------------------------------4---|
|----------------------------------||----------------------------------------|
|
| E   E   S S  E    +E   E +S  S E     W
|-5---0---x-x--0----(0)--0-(0)-0-0-||----------------------------------------|
|-7---2---x-x--0----(0)--0-(0)-0-0-||----------------------------------------|
|-7---2---x-x--1----(1)--1-(1)-1-1-||----------------------------------------|
|-----2---x-x--2----(2)--2-(2)-2-2-||----------------------------------------|
|-----0---x-x--2----(2)--2-(2)-2-2-||----------------------------------------|
|--------------0----(0)--0-(0)-0-0-||----------------------------------------|


   W
   S +S     +S  +S     +S  +S  E      +E     E    E  S S
|---------------------------------------------------------|
|---------------------------------------------------------|
|--4r(4)b6==(4)r(4)b6==(4)r(4)p2b3====(2)r----------------|
|----------------------------------------------------2-4--|
|---------------------------------------------------------|
|---------------------------------------------------------|
|
|                                                 ~~~
|  S  S      S   S      E      S    S  S   S S S +Q
|---------------------------------------------------------|
|---------------11----------------------------------------|
|-11p=9------9--11-------------4p===2--4p==2-2h3-(3)------|
|-11p=9------9--11-------------4p===2--4p==2--------------|
|---------------------------------------------------------|
|---------------------------------------------------------|
|
|  W
|---------------------------------------------------------|
|---------------------------------------------------------|
|---------------------------------------------------------|
|---------------------------------------------------------|
|---------------------------------------------------------|
|---------------------------------------------------------|


  +S S E    S E   S S S E   S E   S    S S S  S S S S S a E   S S  S  S S S
|-----------------------------------|---------------------------------------|
|-----------------------------------|---------------------------------------|
|-----------------------2-----------|---------------------------------------|
|-(4)2-4----2-4---2-4-2-----2-4---2-|--4-2----2-----------------------------|
|-----------------------------------|------4----4p2---2p0h2---0-------------|
|-----------------------------------|---------------2-----------2p=0--2-0-0-|
|
|                                                                  ~~~
|  S S S  S E   S S S S S S S S E      S S S  S E   S S   S S S S +Q
|-----------------------------------|---------------------------------------|
|--------11-------------------------|--------11-----------------------------|
|-11p9-9-11-----4p2-4p2-4s6-4p2-----|-11p9-9-11-----4p2---4p2-2h3-(3)-------|
|-11p9-9-11-----4p2-4p2-4s6-4p2-4---|-11p9-9-11-----4p2---4p2---------------|
|-------------------------------4---|---------------------------------------|
|-----------------------------------|---------------------------------------|


  +S S S  S S +S  S +S  Q          +Q
|----------------------------------------------|
|----------------------------------------------|
|----------------------------------------------|
|----------------------------------------------|
|----------------------------------------------|
|-(0)2-2--2-2-(2)s6-(6)s7b9========(7)r--------|
|
|  S S S  S E     S  S  S    S S S  S   S E
|----------------------------------------------|
|--------11------------------------------------|
|-11p9-9-11-------4p=2--4p===2-4s6--4p==2------|
|-11p9-9-11-------4p=2--4p===2-4s6--4p==2-4----|
|-----------------------------------------4----|
|----------------------------------------------|


                                                |---3----|
   S S S  S S S e   Q        S   E      +S      E   E    E     S  S  S S  Q            +Q
|--------------------------------------------|----------14-------14------17b21========(17)r-----|
|--------------------------------------------|-17-------------17----17--------------------------|
|-------------------------------16b18==(16)r-|--------------------------------------------------|
|--------------------------------------------|--------------------------------------------------|
|--------------------------------------------|--------------------------------------------------|
|--2p0-2--2-2p0h2----------------------------|--------------------------------------------------|
|
|                            ~~~
|  S S S  S E   S S S S S S +Q                  S S   S     S  E     S S  S     S S S   S   S E
|--------------------------------------------|--------------------------------------------------|
|--------11----------------------------------|-------------11-----------------------------------|
|-11p9-9-11-----4p2-4p2-2h3-(3)--------------|-11p9---9----11--------4p2--4p====2-4s6---4p==2---|
|-11p9-9-11-----4p2-4p2----------------------|-11p9---9----11--------4p2--4p====2-4s6---4p==2-4-|
|--------------------------------------------|------------------------------------------------4-|
|--------------------------------------------|--------------------------------------------------|


   a     +S  S  S  S      +S    S      +S    S      +S    S  S  S  T      +T    S  S  S
|-17b18r(17)14-14----------------------------------------17--------------------17--------|
|-----------------17b19==(17)r-17b19==(17)r-17b19==(17)r----17-17-17b19==(17)r----17-17--|
|----------------------------------------------------------------------------------------|
|----------------------------------------------------------------------------------------|
|----------------------------------------------------------------------------------------|
|----------------------------------------------------------------------------------------|
|
|                                                                  ~~~~~~
|         S  S  S  S       E            S    S       S    S  S  S +Q
|----------------------------------------------------------------------------------------|
|-----------------11---------------------------------------------------------------------|
|--------11p=9--9-11--------------------4p===2-------4p===2--2h=3-(3)--------------------|
|--------11p=9--9-11--------------------4p===2-------4p===2------------------------------|
|----------------------------------------------------------------------------------------|
|----------------------------------------------------------------------------------------|


   T      +T    S  S  S  T      +T    S  S  S  T      +T    S  S  S  T      +T    S  S  S
|--------------17--------------------17--------------------17--------------------17-------|
|-17b19==(17)r----17-17-17b19==(17)r----17-17-17b19==(17)r----17-17-17b19==(17)r----17-17-|
|-----------------------------------------------------------------------------------------|
|-----------------------------------------------------------------------------------------|
|-----------------------------------------------------------------------------------------|
|-----------------------------------------------------------------------------------------|
|
|  S            S  S  S  E               S  S  S            S  S  S  S            S  E
|-----------------------------------------------------------------------------------------|
|--------------------11-------------------------------------------------------------------|
|-11p===========9--9-11------------------4p=2--4p===========2--4s=6--4p===========2-------|
|-11p===========9--9-11------------------4p=2--4p===========2--4s=6--4p===========2--4----|
|------------------------------------------------------------------------------------4----|
|-----------------------------------------------------------------------------------------|


                             |--3--|
   S      +S    S      +S    S  S  S  S  S  S  S  S  S  E   e         e    e          S  S  E    e    e         S  S  E
|------------------------------------------------------------------|-----------------------------------------------------|
|-17b19==(17)r-17b19==(17)r-16p14----14----------------------------|-----------------------------------------------------|
|---------------------------------17----17-16-14----16p14--14b14.5-|-14---14b14.5---------------14---14b14.5-------------|
|------------------------------------------------16----------------|-----------------16-14-16------------------16-14-16--|
|------------------------------------------------------------------|-----------------------------------------------------|
|------------------------------------------------------------------|-----------------------------------------------------|
|
|                                                       ~~~
|  S       S    S       S    E        S  S  S  S  S  S +Q             S S  S       S  E     S S  S S  S      S  S  S  E
|------------------------------------------------------------------|-----------------------------------------------------|
|----------------------11------------------------------------------|--------------11-------------------------------------|
|-11p======9----9------11-------------4p=2--4p=2--2h=3-(3)---------|-11p9--9------11--------4p2--4p2--4s=====6--4p=2-----|
|-11p======9----9------11-------------4p=2--4p=2-------------------|-11p9--9------11--------4p2--4p2--4s=====6--4p=2--4--|
|------------------------------------------------------------------|--------------------------------------------------4--|
|------------------------------------------------------------------|-----------------------------------------------------|


 3/4
         ~~~~~~~~~~
   S  S  E     +H
|--------------------------------|
|--------------------------------|
|--------------------------------|
|-16p15p14----(14)---------------|
|--------------------------------|
|--------------------------------|
|
|  e     S  S   S  S S S S S S S
|--------------------------------|
|----------11--------------------|
|-11-----9-11---4--4-4p2-4-2-2h3-|
|-11-----9-11---4--4-4p2-4-2-----|
|--------------------------------|
|--------------------------------|


  S S S S +S  S E S E S    S S S S +E  E +S  E.
|-----------------------|------------------------|
|-----------------------|--------2-(2)-5-(5)-9---|
|-------------------1-1-|-/3-3-3-----------------|
|---------------2-2-----|------------------------|
|-1-1-1-4-(4)-4---------|------------------------|
|-----------------------|------------------------|
|
| S S S S +S  S E S E S    S S S S +E  E +S  E.
|-----------------------|------------------------|
|-----------------------|------------------------|
|-----------------------|--------3-(3)-6-(6)-9---|
|-------------------2-2-|-/4-4-4-----------------|
|---------------4-4-----|------------------------|
|-2-2-2-6-(6)-6---------|------------------------|


                                     A/D           G/D
                                 2/4
    S  S  S  S  +E   E  +S   E.    E  E    Q
|---------------------------16--|-18-----------------||
|-----------14-(14)-17-(17)-----|--------------------||
|-/15-15-15---------------------|--------------------||
|-------------------------------|--------------------||
|-------------------------------|--------------------||
|-------------------------------|--------------------||
|
|   S  S  S  S  +E   E  +S   E.    E  E    Q
|-------------------------------|--------------------||
|---------------------------17--|-19-----------------||
|-----------15-(15)-18-(18)-----|--------------------||
|-/16-16-16---------------------|--------------------||
|-------------------------------|--------------------||
|-------------------------------|-----0--5----5--7-5-||
|                                  E  S  E    S  S S
|
| Gtr I
|   W                              E  S  E    S  S S
|-------------------------------|-----9--9----9--9s7-||
|-------------------------------|----10-10---10-10s8-||
|-------------------------------|-----9--9----9--9s7-||
|-------------------------------|--------------------||
|-------------------------------|--------------------||
|-------------------------------|--------------------||


                          A/D
 4/4
  W
|-------------------------------------------|
|-------------------------------------------|
|-------------------------------------------|
|-------------------------------------------|
|-------------------------------------------|
|-------------------------------------------|
|
|                          PM-------------|
| E S S S T    +T   E   S  E     S S S  S S
|-------------------------------------------|
|-------------------------------------------|
|-------------------------------------------|
|-------------------------------------------|
|-5-5---5-5b7==(5)r-------------------------|
|-----7--------------------5-----5---5--7-5-|
|
| E S S S S         S S S  S  S  E   S  S S
|-7-7-7-7-7---------x-x-x--9--9--9------9-x-|
|-8-8-8-8-8---------x-x-x-10-10-10-----10-x-|
|-7-7-7-7-7---------x-x-x--9--9--9------9-x-|
|------------------------------------7------|
|------------------------------------7------|
|-------------------------------------------|


  G/D                       A/D    A5      A/D
  Gtr I
  S S S S E           S S S   S  S S +S  S  S S
|-7-7-9-9-7-----------x-x-x--/9--9----------9-x-|
|-8-8-8-8-8-----------x-x-x-/10-10---------10-x-|
|-7-7-7-7-7-----------x-x-x--/9--9----------9-x-|
|-----------------------------------------------|
|----------------------------------7-(7)-7------|
|----------------------------------5-(5)-5------|
|
| Gtr II
|                             PM--------------|
| E   S S S T    +T   E   S   E    S  S  S  S S
|-----------------------------------------------|
|-----------------------------------------------|
|-----------------------------------------------|
|-----------------------------------------------|
|-5---5---5-------------------------------------|
|-------7---5b7==(5)r---------5----5-----5--7-5-|


                                                                     D.S. al Coda
  G/D                     A/D    A5              G/D                   G5D  D5A
  S S S S E           S S   S  S S S +S  S S S   S S S S E           E S E. S E.
|-7-7-9-9-7-----------x-x--/9--9---------------|-7-7-7-7-7-------------3-2---------||
|-8-8-8-8-8-----------x-x-/10-10---------------|-8-8-8-8-8-------------3-3--3-2----||
|-7-7-7-7-7-----------x-x--/9--9---------------|-7-7-7-7-7-------------0-2--2-2----||
|----------------------------------------------|-----------------------0-0--0-2----||
|--------------------------------7-7-(7)-7-7-x-|------------------------------0----||
|--------------------------------5-5-(5)-5-5-x-|-----------------------3-----------||
|
|                              PM------------|
| E   S S S T    +T   E     S  E   S  S  S S S   E   S S S T    +T   E S E. S E.
|----------------------------------------------|-----------------------3-2---------||
|----------------------------------------------|-----------------------3-3--3-2----||
|----------------------------------------------|-----------------------0-2--2-2----||
|----------------------------------------------|-----------------------0-0--0-2----||
|-5---5---5-5b7==(5)r--------------------------|-5---5---5--------------------0----||
|-------7----------------------5---5-----5-7-5-|-------7---5b7==(5)r---3-----------||


  &
  G5              A5              G5            D  D5A
  S S S S E S S S E S +S  S S S   S S S S E E S E. S E.
|-------------------------------|-------------3-2-------|
|-------------------------------|-------------3-3--3-2--|
|-----------x-x-x---------------|-------------0-2--2-2--|
|-5-5-5-5-5-x-x-x-2-2-(2)-2-4p2-|-5-5-5-5-5---0-0--0-2--|
|-5-5-5-5-5-x-x-x-0-0-(0)-0-0---|-5-5-5-5-5----------0--|
|-3-3-3-3-3-x-x-x---------------|-3-3-3-3-3---3---------|
|
| S S S S E S S S E S +S  S S S   S S S S E E S E. S E.
|-------------------------------|-------------3-2-------|
|-------------------------------|-------------3-3--3-2--|
|-----------x-x-x---------------|-------------0-2--2-2--|
|-5-5-5-5-5-x-x-x-2-2-(2)-2-4p2-|-5-5-5-5-5---0-0--0-2--|
|-5-5-5-5-5-x-x-x-0-0-(0)-0-0---|-5-5-5-5-5----------0--|
|-3-3-3-3-3-x-x-x---------------|-3-3-3-3-3---3---------|


  G5              A5
  S S S S E S S S E S +S  S S S
|--------------------------------|
|--------------------------------|
|-----------x-x-x----------------|
|-5-5-5-5-5-x-x-x-2-2-(2)-2-4p2--|
|-5-5-5-5-5-x-x-x-0-0-(0)-0-0----|
|-3-3-3-3-3-x-x-x----------------|
|
| S S S S E S S S E S +S  S S S
|--------------------------------|
|--------------------------------|
|-----------x-x-x----------------|
|-5-5-5-5-5-x-x-x-2-2-(2)-2-4p2--|
|-5-5-5-5-5-x-x-x-0-0-(0)-0-0----|
|-3-3-3-3-3-x-x-x----------------|


  G5
  S S S S E S S S  S S S S S S S
|--------------------------------|
|--------------------------------|
|--------------------------------|
|-5-5-5-5-5-x-x-x--x-x-x-x-x-x-x-|
|-5-5-5-5-5-x-x-x--x-x-x-x-x-x-x-|
|-3-3-3-3-3-x-x-x--x-x-x-x-x-x-x-|
|
| S S S S E E   S  E   E   S S S
|--------------------------------|
|--------------------------------|
|--------------------------------|
|-5-5-5-5-5--------------------0-|
|-5-5-5-5-5----------------0-2---|
|-3-3-3-3-3-------/3---3---------|


          D        Dsus2    D         DsusD        G
  S S S S E. E      E E S S S   S S S S S S E.      E E S S S
|---------2--2------0-0-0-0-2-|-2-2-2-0-2-2-2-------3-3-3-3-3--|
|---------3--3------3-3-3-3-3-|-3-3-3-3-3-3-3-------0-0-0-0-0--|
|---------2--2------2-2-2-2-2-|-2-2-2-2-2-2-2-------0-0-0-0-0--|
|-x-x-x-x-----------0-0-0-0---|-------0-------------0-0-0-0-0--|
|-x-x-x-x---------------------|---------------------2-2-2-2-2--|
|-x-x-x-x---------------------|---------------------3-3-3-3-3--|
|
| S S S S Q    +S   E E S S S   S S S S Q      +S   E E S S S
|-----------------------------|--------------------------------|
|-----------------------------|--------------------------------|
|-----------------------------|--------------------------------|
|-2-0-----0----(0)----------0-|-2-0-----0------(0)----------0--|
|-----2-0---------------0-2---|-----2-0-----------------0-2----|
|------------------/3-3-------|--------------------/3-3--------|


              D                                 G
    +Q        H           +Q          +Q        H           +Q         5x
||--(3)-------2-----------(2)-------|-(2)-------3-----------(3)--------||
||o-(0)-------3-----------(3)-------|-(3)-------0-----------(0)-------o||
||--(0)-------2-----------(2)-------|-(2)-------0-----------(0)--------||
||--(0)-----------------------------|-----------0-----------(0)--------||
||o-(2)-----------------------------|-----------2-----------(2)-------o||
||--(3)-----------------------------|-----------3-----------(3)--------||
|
|    S  S S S Q  +S   E E     S S S    S  S S S Q  +S   E E     S S S  5x
||----------------------------------|----------------------------------||
||o---------------------------------|---------------------------------o||
||----------------------------------|----------------------------------||
||---2--0-----0--(0)--------------0-|--2--0-----0--(0)--------------0--||
||o-------2-0-----------------0-2---|-------2-0-----------------0-2---o||
||-------------------/3-3-----------|------------------/3-3------------||


       D                G5
            |-3-|               |-3-|
  +Q   H    S S S S S   H.      S S S S S
|-(3)--2----3h5p3p2---|-3-------3h5p3p2---|
|-(0)--3------------3-|-3---------------3-|
|-(0)--2--------------|-0-----------------|
|-(0)--0--------------|-------------------|
|-(2)-----------------|-------------------|
|-(3)-----------------|-------------------|


                                     G/B Csus2
  |-3-|          |-3-|
  S S S E +H     S S S S S   H.      S S S S
|-7p5p3----------3h5p3p2---|-3-----------------|
|-------3-(3)------------3-|-3-------0h1-1h3---|
|--------------------------|-0-------0---0-----|
|-0------------------------|---------0---0-----|
|--------------------------|---------2h3-3-----|
|--------------------------|-------------------|


  G6D                     G5         G/B Csus2 G6D
              |-3-|                                        |-3-|
  S E. +H     S S S S S   H    +E. S S S S S   S E.  H     S S S S S
|-0h2--(2)----3h5p3p2---|-3----(3)-----------|-0h2---2-----3h5p3p2---|
|-3-------------------3-|-3----(3)---0h1-1h3-|-3-------------------3-|
|-0-2--(2)--------------|-0----(0)---0---0---|-0-2--(2)--------------|
|-0---------------------|------------0---0---|-0---------------------|
|-----------------------|------------2h3-3---|-----------------------|
|-----------------------|----------3---------|-----------------------|


  C           G/B         Bb6
  Gtr III
  <
  H           +H          +W
|-----------------------|-------------------|
|-8pb10r======(8)-------|-(8)---------------|
|-----------------------|-------------------|
|-----------------------|-------------------|
|-----------------------|-------------------|
|-----------------------|-------------------|
|
| Gtr IV
| <
| H           +H          +W
|-----------------------|-------------------|
|-----------------------|-------------------|
|-7pb9r=======(7)-------|-(7)---------------|
|-----------------------|-------------------|
|-----------------------|-------------------|
|-----------------------|-------------------|
|
| Gtr II
| E     E E E  E  E E E    E  E E E E E E E
|-----------3---------3-|-----------3-------|
|---------1---------3---|-------3-----------|
|-------0---------0-----|-----0---0---0---0-|
|-----------------------|-------------------|
|-3------------2--------|--1------------1---|
|-----------------------|-------------------|


  H.=H
  Cadd9                    G
  E     +H..                W
|------------------------|------------------------*|
|-8b10==(8)r-------------|-15---------------------*|
|------------------------|------------------------*|
|------------------------|------------------------*|
|------------------------|------------------------*|
|------------------------|------------------------*|
|
| E     +H..                Q       +Q    +H
|------------------------|------------------------*|
|------------------------|------------------------*|
|-7b9===(7)r-------------|-14b16===(14)--(14)r----*|
|------------------------|------------------------*|
|------------------------|------------------------*|
|------------------------|------------------------*|
|
| E      E   E E E E E E    W
|------------3-------3---|-^3---------------------*|
|----------------3---3---|-^3---------------------*|
|--------0-----0---0---0-|-^0---------------------*|
|------------------------|-^0---------------------*|
|-3--------------3-------|-^2---------------------*|
|------------------------|-^3---------------------*|





                                   THE CRUNGE
                           As recorded by Led Zeppelin
                    (From the 1973 Album HOUSES OF THE HOLY)

Words and Music by Jimmy Page, Robert Plant, John Paul Jones & John Bonham
Transcribed by rocktabber

          G6                   A6                   C6                   B6
    x x x 12 12 12       x x x 14 14 14         x x x 5 5 5          x x x 4 4 4

          C#6                  Bb6
      x x x 6 6 6          x x x 3 3 3

Gtr I (E A D G B E) - 'Electric Guitar '

 Intro
  Moderate Funk Q=110
                           G6
 9/8
  Gtr I
  Wx4           H    Q  E.  S  S  S
|-------------|------------12-12-12-|
|-------------|------------12-12-12-|
|-------------|------------12-12-12-|
|-------------|---------------------|
|-------------|---------------------|
|-------------|---------------------|


  A6 G6
   S  S S S  S S S S  S  S S  S  +S  S S  S  S  S
|-14-12-x-x-12-x-x-x-12-12-x-12-(12)-----12-12-12-||
|-14-12-x-x-12-x-x-x-12-12-x-12-(12)-----12-12-12-||
|-14-12-x-x-12-x-x-x-12-12-x-12-(12)-----12-12-12-||
|-------------------------------------------------||
|-------------------------------------------------||
|-------------------------------------------------||


 1st Verse
  A6 G6
   S  e S  S  S S S  S  S S  S  +S  S S  S  S  S
|-14-12-x-12-12-x-x-12-12-x-12-(12)-x-x-12-12-12-|
|-14-12-x-12-12-x-x-12-12-x-12-(12)-x-x-12-12-12-|
|-14-12-x-12-12-x-x-12-12-x-12-(12)-x-x-12-12-12-|
|------------------------------------------------|
|------------------------------------------------|
|------------------------------------------------|


  A6 G6
   S  e S  S S S  S  e S  S  +S  S S  S  S  S
|-14-12-x-12-x-x-12-12-x-12-(12)-x-x-12-12-12-|
|-14-12-x-12-x-x-12-12-x-12-(12)-x-x-12-12-12-|
|-14-12-x-12-x-x-12-12-x-12-(12)-x-x-12-12-12-|
|---------------------------------------------|
|---------------------------------------------|
|---------------------------------------------|


  A6 G6                                  C6             B6C6
 4/4
   S  e S  S S S  S  S S S  S  S S S S   E. S S S S S S e S S S S S
|-14-12-x-12-x-x-12-12-x-x-12-12-x-x-x-|-5--5-5-x-x-x-x-4-5---x-x-x--|
|-14-12-x-12-x-x-12-12-x-x-12-12-x-x-x-|-5--5-5-x-x-x-x-4-5----------|
|-14-12-x-12-x-x-12-12-x-x-12-12-x-x-x-|-5--5-5-x-x-x-x-4-5----------|
|--------------------------------------|-----------------------------|
|--------------------------------------|-----------------------------|
|--------------------------------------|-----------------------------|


    B6C6    B6C6      C#6      C6           B6C6
  S e S +S  e S +S  S E +Q     E. S e S S S e S +S  S S S
|-x-4-5-(5)-4-5-(5)---6-(6)--|-5--5-5-x-x-x-4-5-(5)-x-x-x-|
|---4-5-(5)-4-5-(5)---6-(6)--|-5--5-5-x-x-x-4-5-(5)-x-x-x-|
|---4-5-(5)-4-5-(5)---6-(6)--|-5--5-5-x-x-x-4-5-(5)-x-x-x-|
|----------------------------|----------------------------|
|----------------------------|----------------------------|
|----------------------------|----------------------------|


      B6C6    B6C6  Bb6B6      C6           B6C6
 9/8                          4/4
  +S  e S +S  e S E Q  E +E    E. S e S S S e S +S  S S S
|-(x)-4-5-(5)-4-x---3--4-(4)-|-5--5-5-x-x-x-4-5-(5)-x-x-x-|
|-(x)-4-5-(5)-4-x---3--4-(4)-|-5--5-5-x-x-x-4-5-(5)-x-x-x-|
|-(x)-4-5-(5)-4-x---3--4-(4)-|-5--5-5-x-x-x-4-5-(5)-x-x-x-|
|----------------------------|----------------------------|
|----------------------------|----------------------------|
|----------------------------|----------------------------|


    B6C6    B6C6    C#6      C6           B6C6
  S e S +S  e S S S E +Q     E. S e S S S e S +S  S S S
|---4-5-(5)-4-5-5---6-(6)--|-5--5-5-x-x-x-4-5-(5)-x-x-x-|
|---4-5-(5)-4-5-5---6-(6)--|-5--5-5-x-x-x-4-5-(5)-x-x-x-|
|---4-5-(5)-4-5-5---6-(6)--|-5--5-5-x-x-x-4-5-(5)-x-x-x-|
|--------------------------|----------------------------|
|--------------------------|----------------------------|
|--------------------------|----------------------------|


    B6C6    B6      Bb6   B6      C6           B6C6
 9/8                             4/4
  S e S +S  e S S S E +E  E +E    E. S e S S S e S +S  S S S
|---4-5-(5)-4-x-x---3-(3)-4-(4)-|-5--5-5-x-x-x-4-5-(5)-x-x-x-|
|---4-5-(5)-4-x-x---3-(3)-4-(4)-|-5--5-5-x-x-x-4-5-(5)-x-x-x-|
|---4-5-(5)-4-x-x---3-(3)-4-(4)-|-5--5-5-x-x-x-4-5-(5)-x-x-x-|
|-------------------------------|----------------------------|
|-------------------------------|----------------------------|
|-------------------------------|----------------------------|


    B6C6    B6C6      C#6      C6           B6C6
  S e S +S  e S +S  S E +Q     E. S e S S S e S +S  S S S
|-x-4-5-(5)-4-5-(5)---6-(6)--|-5--5-5-x-x-x-4-5-(5)-x-x-x-|
|-x-4-5-(5)-4-5-(5)---6-(6)--|-5--5-5-x-x-x-4-5-(5)-x-x-x-|
|-x-4-5-(5)-4-5-(5)---6-(6)--|-5--5-5-x-x-x-4-5-(5)-x-x-x-|
|----------------------------|----------------------------|
|----------------------------|----------------------------|
|----------------------------|----------------------------|


                             2nd Verse
    B6C6    B6C6  G6          A6 G6
 3/4                         9/8
  S e S +S  e S S  S  S  S     S  e S  e S S  e S  S  +S  S S  S  S  S
|-x-4-5-(5)-4-5-5-12-12-12-||-14-12---12-x-x-12-x-12-(12)-x-x-12-12-12-|
|-x-4-5-(5)-4-5-5-12-12-12-||-14-12---12-x-x-12-x-12-(12)-x-x-12-12-12-|
|-x-4-5-(5)-4-5-5-12-12-12-||-14-12---12-x-x-12-x-12-(12)-x-x-12-12-12-|
|--------------------------||------------------------------------------|
|--------------------------||------------------------------------------|
|--------------------------||------------------------------------------|


  A6 G6
   S  e S  e S S  e S  S  +S  S S  S  S  S
|-14-12---12-x-x-12-x-12-(12)-x-x-12-12-12-|
|-14-12---12-x-x-12-x-12-(12)-x-x-12-12-12-|
|-14-12---12-x-x-12-x-12-(12)-x-x-12-12-12-|
|------------------------------------------|
|------------------------------------------|
|------------------------------------------|


  A6 G6
   S  e S  e S S  e S  S  +S  S S  S  S  S
|-14-12-x-12-x-x-12-x-12-(12)-x-x-12-12-12-|
|-14-12-x-12-x-x-12-x-12-(12)-x-x-12-12-12-|
|-14-12-x-12-x-x-12-x-12-(12)-x-x-12-12-12-|
|------------------------------------------|
|------------------------------------------|
|------------------------------------------|


    A6 G6
     S  e S  e S S  e S  S  +S  S S  S  S  S
||--14-12-x-12-x-x-12-x-12-(12)-x-x-12-12-12-|
||o-14-12-x-12-x-x-12-x-12-(12)-x-x-12-12-12-|
||--14-12-x-12-x-x-12-x-12-(12)-x-x-12-12-12-|
||-------------------------------------------|
||o------------------------------------------|
||-------------------------------------------|


  A6 G6
   S  e S  e S S  e S  S  +S  S S  S  S  S
|-14-12-x-12-x-x-12-x-12-(12)-x-x-12-12-12--||
|-14-12-x-12-x-x-12-x-12-(12)-x-x-12-12-12-o||
|-14-12-x-12-x-x-12-x-12-(12)-x-x-12-12-12--||
|-------------------------------------------||
|------------------------------------------o||
|-------------------------------------------||


  A6 G6                                 C6            B6C6
 4/4
   S  e S  S  e  S  e S  S  +S  S  E    E S S e S S S E S +S  S S S
|-14-12---12-12-12-12---12-(12)---12\-|-5-5-5-5-x-x-x-4-5-(5)-x-x-x-|
|-14-12---12-12-12-12---12-(12)---12\-|-5-5-5-5-x-x-x-4-5-(5)-x-x-x-|
|-14-12---12-12-12-12---12-(12)---12\-|-5-5-5-5-x-x-x-4-5-(5)-x-x-x-|
|-------------------------------------|-----------------------------|
|-------------------------------------|-----------------------------|
|-------------------------------------|-----------------------------|


    B6C6    B6C6    C#6      C6             B6C6
  S e S +S  E S S S E +Q     E. S S S S S S e S +S  E S
|-x-4-5-(5)-4-5-5---6-(6)--|-5--5-5-x-x-x-x-4-5-(5)-5-x-|
|-x-4-5-(5)-4-5-5---6-(6)--|-5--5-5-x-x-x-x-4-5-(5)-5-x-|
|-x-4-5-(5)-4-5-5---6-(6)--|-5--5-5-x-x-x-x-4-5-(5)-5-x-|
|--------------------------|----------------------------|
|--------------------------|----------------------------|
|--------------------------|----------------------------|


    B6C6    B6C6  Bb6B6      C6           B6C6
 9/8                        4/4
  S e S +S  E S E Q  E +E    E. S e S S S e S +S  S S S
|-x-4-5-(5)-4-x---3--4-(4)-|-5--5-5-x-x-x-4-5-(5)-x-x-x-|
|-x-4-5-(5)-4-x---3--4-(4)-|-5--5-5-x-x-x-4-5-(5)-x-x-x-|
|-x-4-5-(5)-4-x---3--4-(4)-|-5--5-5-x-x-x-4-5-(5)-x-x-x-|
|--------------------------|----------------------------|
|--------------------------|----------------------------|
|--------------------------|----------------------------|


    B6C6    B6C6      C#6      C6           B6C6
  S e S +S  e S +S  S E +Q     E. S e S S S e S +S  S S S
|-x-4-5-(5)-4-5-(5)---6-(6)--|-5--5-5-x-x-x-4-5-(5)-x-x-x-|
|-x-4-5-(5)-4-5-(5)---6-(6)--|-5--5-5-x-x-x-4-5-(5)-x-x-x-|
|-x-4-5-(5)-4-5-(5)---6-(6)--|-5--5-5-x-x-x-4-5-(5)-x-x-x-|
|----------------------------|----------------------------|
|----------------------------|----------------------------|
|----------------------------|----------------------------|


    B6C6    B6C6  Bb6B6      C6           B6C6
 9/8                        4/4
  S e S +S  E S E Q  E +E    E. S e S S S e S +S  S S S
|-5-4-5-(5)-4-x---3--4-(4)-|-5--5-5-x-x-x-4-5-(5)-x-x-x-|
|-5-4-5-(5)-4-x---3--4-(4)-|-5--5-5-x-x-x-4-5-(5)-x-x-x-|
|-5-4-5-(5)-4-x---3--4-(4)-|-5--5-5-x-x-x-4-5-(5)-x-x-x-|
|--------------------------|----------------------------|
|--------------------------|----------------------------|
|--------------------------|----------------------------|


    B6C6    B6C6      C#6      C6           B6C6
  S e S +S  e S +S  S E +Q     E. S e S S S e S +S  S S S
|-x-4-5-(5)-4-5-(5)---6-(6)--|-5--5-5-x-x-x-4-5-(5)-x-x-x-|
|-x-4-5-(5)-4-5-(5)---6-(6)--|-5--5-5-x-x-x-4-5-(5)-x-x-x-|
|-x-4-5-(5)-4-5-(5)---6-(6)--|-5--5-5-x-x-x-4-5-(5)-x-x-x-|
|----------------------------|----------------------------|
|----------------------------|----------------------------|
|----------------------------|----------------------------|


    B6C6    B6C6  G6           A6 G6
 3/4                          9/8
  S e S +S  e S S  S  S  S      S  e S  e S S  e S  S  +S  S S  S  S  S
|-x-4-5-(5)-4-5-5-12-12-12-||--14-12-x-12-x-x-12-x-12-(12)-x-x-12-12-12-|
|-x-4-5-(5)-4-5-5-12-12-12-||o-14-12-x-12-x-x-12-x-12-(12)-x-x-12-12-12-|
|-x-4-5-(5)-4-5-5-12-12-12-||--14-12-x-12-x-x-12-x-12-(12)-x-x-12-12-12-|
|--------------------------||-------------------------------------------|
|--------------------------||o------------------------------------------|
|--------------------------||-------------------------------------------|


  A6 G6
   S  e S  e S S  e S  S  +S  S S  S  S  S
|-14-12-x-12-x-x-12-x-12-(12)-x-x-12-12-12-|
|-14-12-x-12-x-x-12-x-12-(12)-x-x-12-12-12-|
|-14-12-x-12-x-x-12-x-12-(12)-x-x-12-12-12-|
|------------------------------------------|
|------------------------------------------|
|------------------------------------------|


  A6 G6
   S  e S  e S S  e S  S  +S  S S  S  S  S
|-14-12-x-12-x-x-12-x-12-(12)-x-x-12-12-12--||
|-14-12-x-12-x-x-12-x-12-(12)-x-x-12-12-12-o||
|-14-12-x-12-x-x-12-x-12-(12)-x-x-12-12-12--||
|-------------------------------------------||
|------------------------------------------o||
|-------------------------------------------||


  A6 G6                                      A6 G6                A6 G6
                                            4/4
   S  e S  e S S  e S  S  +S  S S  S  S  S    S  e S  e S S  E  S  S  S S E
|-14-12-x-12-x-x-12-x-12-(12)-x-x-12-12-12-|-14-12---12-x-x-12-12-14-12-x---|
|-14-12-x-12-x-x-12-x-12-(12)-x-x-12-12-12-|-14-12---12-x-x-12-12-14-12-x---|
|-14-12-x-12-x-x-12-x-12-(12)-x-x-12-12-12-|-14-12---12-x-x-12-12-14-12-x---|
|------------------------------------------|--------------------------------|
|------------------------------------------|--------------------------------|
|------------------------------------------|--------------------------------|


  C6           B6C6              B6C6    B6C6      C#6
  E. S e S S S e S +S  S S S   S e S +S  e S +S  S E +Q
|-5--5-5-x-x-x-4-5-(5)-x-x-x-|-x-4-5-(5)-4-5-(5)---6-(6)--|
|-5--5-5-x-x-x-4-5-(5)-x-x-x-|-x-4-5-(5)-4-5-(5)---6-(6)--|
|-5--5-5-x-x-x-4-5-(5)-x-x-x-|-x-4-5-(5)-4-5-(5)---6-(6)--|
|----------------------------|----------------------------|
|----------------------------|----------------------------|
|----------------------------|----------------------------|


  C6           B6C6              B6C6    B6C6    Bb6   B6
                              9/8
  E. S e S S S e S +S  S S S   S e S +S  e S S S E +E  E +E
|-5--5-5-x-x-x-4-5-(5)-x-x-x-|-x-4-5-(5)-4-x-x---3-(3)-4-(4)-|
|-5--5-5-x-x-x-4-5-(5)-x-x-x-|-x-4-5-(5)-4-x-x---3-(3)-4-(4)-|
|-5--5-5-x-x-x-4-5-(5)-x-x-x-|-x-4-5-(5)-4-x-x---3-(3)-4-(4)-|
|----------------------------|-------------------------------|
|----------------------------|-------------------------------|
|----------------------------|-------------------------------|


  C6           B6C6              B6C6    B6  C6    C#6
 4/4
  E. S e S S S e S +S  S S S   S e S +S  e S +S  S E +Q
|-5--5-5-x-x-x-4-5-(5)-x-x-x-|-x-4-5-(5)-4-5-(5)---6-(6)--|
|-5--5-5-x-x-x-4-5-(5)-x-x-x-|-x-4-5-(5)-4-5-(5)---6-(6)--|
|-5--5-5-x-x-x-4-5-(5)-x-x-x-|-x-4-5-(5)-4-5-(5)---6-(6)--|
|----------------------------|----------------------------|
|----------------------------|----------------------------|
|----------------------------|----------------------------|


  C6           B6C6              B6C6    B6    Bb6B6
                              9/8
  E. S e S S S e S +S  S S S   S e S +S  e S E Q  E +E
|-5--5-5-x-x-x-4-5-(5)-x-x-x-|-5-4-5-(5)-4-----3--4-(4)-|
|-5--5-5-x-x-x-4-5-(5)-x-x-x-|-5-4-5-(5)-4-----3--4-(4)-|
|-5--5-5-x-x-x-4-5-(5)-x-x-x-|-5-4-5-(5)-4-----3--4-(4)-|
|----------------------------|--------------------------|
|----------------------------|--------------------------|
|----------------------------|--------------------------|


  C6           B6C6              B6C6    B6C6      C#6
 4/4
  E. S e S S S e S +S  S S S   S e S +S  e S +S  S E +Q
|-5--5-5-x-x-x-4-5-(5)-x-x-x-|-x-4-5-(5)-4-5-(5)---6-(6)--|
|-5--5-5-x-x-x-4-5-(5)-x-x-x-|-x-4-5-(5)-4-5-(5)---6-(6)--|
|-5--5-5-x-x-x-4-5-(5)-x-x-x-|-x-4-5-(5)-4-5-(5)---6-(6)--|
|----------------------------|----------------------------|
|----------------------------|----------------------------|
|----------------------------|----------------------------|


  C6           B6C6              B6C6    B6C6  G6
                              3/4
  E. S e S S S e S +S  S S S   S e S +S  e S S  S  S  S
|-5--5-5-x-x-x-4-5-(5)-x-x-x-|-x-4-5-(5)-4-5-5-12-12-12-||
|-5--5-5-x-x-x-4-5-(5)-x-x-x-|-x-4-5-(5)-4-5-5-12-12-12-||
|-5--5-5-x-x-x-4-5-(5)-x-x-x-|-x-4-5-(5)-4-5-5-12-12-12-||
|----------------------------|--------------------------||
|----------------------------|--------------------------||
|----------------------------|--------------------------||


   3rd Verse
    A6 G6
   9/8
     S  e S  e S S  e S  S  +S  S S  S  S  S
||--14-12---12-x-x-12-x-12-(12)-x---12-12-12-|
||o-14-12---12-x-x-12-x-12-(12)-x---12-12-12-|
||--14-12---12-x-x-12-x-12-(12)-x---12-12-12-|
||-------------------------------------------|
||o------------------------------------------|
||-------------------------------------------|


  A6 G6
   S  e S  e S S  e S  S  +S  S S  S  S  S
|-14-12---12-x-x-12-x-12-(12)-x---12-12-12---||
|-14-12---12-x-x-12-x-12-(12)-x---12-12-12--o||
|-14-12---12-x-x-12-x-12-(12)-x---12-12-12---||
|--------------------------------------------||
|-------------------------------------------o||
|--------------------------------------------||


    A6 G6
     S  e S  S  e S  E     S  S      +S    e  S  S  S
||--14-12---12-12---------12--------------12-12-12-12-|
||o-14-12---12-12---------12--------------12-12-12-12-|
||--14-12---12-12---14b16----14b16==(14)r----12-12-12-|
||----------------------------------------------------|
||o---------------------------------------------------|
||----------------------------------------------------|


  A6 G6
   S  e S  S  e S  E     S  S      +S    e  S  S  S   7x
|-14-12---12-12---------12--------------12-12-12-12---||
|-14-12---12-12---------12--------------12-12-12-12--o||
|-14-12---12-12---14b16----14b16==(14)r----12-12-12---||
|-----------------------------------------------------||
|----------------------------------------------------o||
|-----------------------------------------------------||


  A6 G6
   S  e S  S  e S  E     S  S      +S    e  S  S  S
|-14-12---12-12---------12--------------12-12-12-12-|
|-14-12---12-12---------12--------------12-12-12-12-|
|-14-12---12-12---14b16----14b16==(14)r----12-12-12-|
|---------------------------------------------------|
|---------------------------------------------------|
|---------------------------------------------------|


  A6 G6   A6 G6
   S  e S  S  S  e  E     S  S      +S    e  S  S  S
|-14-12---14-12-12-------12--------------12-12-12-12-|
|-14-12---14-12-12-------12--------------12-12-12-12-|
|-14-12---14-12-12-14b16----14b16==(14)r----12-12-12-|
|----------------------------------------------------|
|----------------------------------------------------|
|----------------------------------------------------|


  A6 G6   A6 G6
   S  e S  S  S  e  E     S  S      +S    e  S  S  S
|-14-12---14-12-12-------12--------------12-12-12-12-|
|-14-12---14-12-12-------12--------------12-12-12-12-|
|-14-12---14-12-12-14b16----14b16==(14)r----12-12-12-|
|----------------------------------------------------|
|----------------------------------------------------|
|----------------------------------------------------|


  A6 G6   A6 G6                                        A6 G6   A6 G6
   S  e S  S  S  e  E     S  S      +S    e  S  S  S    S  e S  S  e S H    E
|-14-12---14-12-12-------12--------------12-12-12-12-|-14-12-x-14-12------------*|
|-14-12---14-12-12-------12--------------12-12-12-12-|-14-12-x-14-12------------*|
|-14-12---14-12-12-14b16----14b16==(14)r----12-12-12-|-14-12-x-14-12------------*|
|----------------------------------------------------|--------------------------*|
|----------------------------------------------------|--------------------------*|
|----------------------------------------------------|--------------------------*|




ANCING DAYS
                           As recorded by Led Zeppelin
                    (From the 1973 Album HOUSES OF THE HOLY)

Words and Music by Jimmy Page and Robert Plant
Transcribed by rocktabber

Gtr I (E A D G B D) - 'Untitled'
Gtr II (E A D G B E) - 'Untitled'
Gtr III (E A D G B E) - 'Untitled'
Gtr IV (E A D G B E) - 'Untitled'

 Intro
  Q=120
                (G)
 4/4
  Gtr I
  H    Q  E E   +E  E E S S e E E E
|-------------|---------------------|
|-----------2-|-(2)-3-2-3p2-0-----2-|
|-------------|---------------------|
|-------------|---------------------|
|-------------|---------------------|
|-------------|---------------------|
|
| Gtr II
| H    Q  E E   +E  E E S S e E E E
|-------------|---------------------|
|-----------2-|-(2)-3-2-3p2-0-----2-|
|-----------0-|-(0)-----------0-3-0-|
|-----------0-|-(0)-----------0-3-0-|
|-------------|---------------------|
|-------------|---------------------|
  H    Q  E E   +H          E E E E


  +E  E E S S e E E E   +E  E E E   a E E E E
|---------------------|------------------------|
|-(2)-3-2-3p2-0-----2-|-(2)-3-2-3---5s7S5---2--|
|---------------------|------------------------|
|---------------------|------------------------|
|---------------------|------------------------|
|---------------------|------------------------|
|
| +E  E E S S e E E E   +E  E E S S   E E E E
|---------------------|------------------------|
|-(2)-3-2-3p2-0-----2-|-(2)-3-2-3p2---0-0---2--|
|-(0)-----------0-3-0-|-(0)-------------0---0--|
|-(0)-----------0-3-0-|-(0)-------------0---0--|
|---------------------|------------------------|
|---------------------|------------------------|
  +H          E E E E   +H            E E E E


  +E  E E S S e E E E   +E  E E S S e E E E
|---------------------|---------------------|
|-(2)-3-2-3p2-0-----2-|-(2)-3-2-3p2-0-----2-|
|---------------------|---------------------|
|---------------------|---------------------|
|---------------------|---------------------|
|---------------------|---------------------|
|
| Gtr II
| +E  E E S S e E E E   +E  E E S S e E E E
|---------------------|---------------------|
|-(2)-3-2-3p2-0-----2-|-(2)-3-2-3p2-0-----2-|
|-(0)-----------0-3-0-|-(0)-----------0-3-0-|
|-(0)-----------0-3-0-|-(0)-----------0-3-0-|
|---------------------|---------------------|
|---------------------|---------------------|
  +H          E E E E   +H          E E E E


  +E  E E S S e E E E   +E  E E E   a E E E E
|---------------------|------------------------|
|-(2)-3-2-3p2-0-----2-|-(2)-3-2-3---5s7S5---2--|
|---------------------|------------------------|
|---------------------|------------------------|
|---------------------|------------------------|
|---------------------|------------------------|
|
| +E  E E S S e E E E   +E  E E S S   E E E E
|---------------------|------------------------|
|-(2)-3-2-3p2-0-----2-|-(2)-3-2-3p2---0-0---2--|
|-(0)-----------0-3-0-|-(0)-------------0---0--|
|-(0)-----------0-3-0-|-(0)-------------0---0--|
|---------------------|------------------------|
|---------------------|------------------------|
  +H          E E E E   +H            E E E E


                        Verse 1
                    F/C              C   Db°
  +E  E E S S e E Q       Q    E E E E E E
|---------------------||-------7---7-5---8-|
|-(2)-3-2-3p2-0-------||-------6---6-5---8-|
|---------------------||-------5---5-5---6-|
|---------------------||-------------------|
|---------------------||-------------------|
|---------------------||-------------------|
|
| +E  E E S S e E E E    +E  E E E E E E E
|---------------------||-------------------|
|-(2)-3-2-3p2-0-------||-------------------|
|-(0)-----------0-3-5-||-(5)---------------|
|-(0)-----------0-3-5-||-(5)-5-7---5-5---6-|
|-------------------3-||-(3)-3-3---3-3---4-|
|---------------------||-------------------|
| +H          E E Q
|
| Gtr IV
|  W                      W
|---------------------||-------------------|
|---------------------||-------------------|
|---------------------||-------------------|
|---------------------||-------------------|
|---------------------||-------------------|
|---------------------||-------------------|


              Db  F/C                   C
  +E  E E E E E E E   +E  E E E E   E E E
|-(8)-6-8---8-6---7-|-(7)-5-7-5-7---7---5---|
|-(8)-6-8---8-6---6-|-(6)-5-6-5-6---6---5---|
|-(6)-6-6---6-6---5-|-(5)-5-5-5-5---5---5---|
|-------------------|-----------------------|
|-------------------|-----------------------|
|-------------------|-----------------------|
|
| +E  E E E E E E E   +E  E E E E   E E E
|-------------------|-----------------------|
|-------------------|-----------------------|
|-------------------|-----------------------|
|-(6)-6-8---6-6---5-|-(5)-5-7-5-5---5---5---|
|-(4)-4-4---4-4---3-|-(3)-3-3---3---3---3---|
|-------------------|-----------------------|
|
|  W                   H        E a E E E
|-------------------|-----------------------|
|-------------------|-------------6s8-6-5---|
|-------------------|-----------------------|
|-------------------|-----------------------|
|-------------------|-----------------------|
|-------------------|-----------------------|


                  F/C             C   Db°             Db  F/C
  +E  E Q   Q   E E   +E  E E E E E E E   +E  E E E E E E E
|-(5)-5-----------7-|-(7)-5-7---7-5---8-|-(8)-6-8---8-6---7-|
|-(5)-5-----------6-|-(6)-5-6---6-5---8-|-(8)-6-8---8-6---6-|
|-(5)-5-----------5-|-(5)-5-5---5-5---6-|-(6)-6-6---6-6---5-|
|-------------------|-------------------|-------------------|
|-------------------|-------------------|-------------------|
|-------------------|-------------------|-------------------|
|
| +E  E E E E E E E   +E  E E E E E E E   +E  E E E E E E E
|-------------------|-------------------|-------------------|
|-------------------|-------------------|-------------------|
|-------------------|-------------------|-------------------|
|-(5)-5-7---5-7---5-|-(5)-5-7---5-5---6-|-(6)-6-8---6-6---5-|
|-(3)-3-3---3-3-3-3-|-(3)-3-3---3-3---4-|-(4)-4-4---4-4---3-|
|-------------------|-------------------|-------------------|
|
| Gtr IV
| +H.           Q      W                   W
|-------------------|-------------------|-------------------|
|-(5)---------------|-------------------|-------------------|
|-------------------|-------------------|-------------------|
|-------------------|-------------------|-------------------|
|-------------------|-------------------|-------------------|
|-------------------|-------------------|-------------------|


                    C                   F/C
  +E  E E E E   E E E   +E  E Q   Q   E E
|-(7)-5-7-5-7---7---5-|-(5)-5-----------7---|
|-(6)-5-6-5-6---6---5-|-(5)-5-----------6---|
|-(5)-5-5-5-5---5---5-|-(5)-5-----------5---|
|---------------------|---------------------|
|---------------------|---------------------|
|---------------------|---------------------|
|
| +E  E E E E   E E E   +E  E E E E E E E
|---------------------|---------------------|
|---------------------|---------------------|
|---------------------|---------------------|
|-(5)-5-7-5-5---5---5-|-(5)-5-7---5-7---5---|
|-(3)-3-3---3---3---3-|-(3)-3-3---3-3-3-3---|
|---------------------|---------------------|
|
|  H        E a E E E   +H.           Q
|---------------------|---------------------|
|-------------6s8-6-5-|-(5)-----------------|
|---------------------|---------------------|
|---------------------|---------------------|
|---------------------|---------------------|
|---------------------|---------------------|


              C   Bb°             Bb  Dm/A
  +E  E E E E E E E   +E  E E E E E E E
|-(7)-5-7---7-5---5-|-(5)-3-5---5-3---3-|
|-(6)-5-6---6-5---5-|-(5)-3-5---5-3---3-|
|-(5)-5-5---5-5---3-|-(3)-3-3---3-3---2-|
|-------------------|-------------------|
|-------------------|-------------------|
|-------------------|-------------------|
|
| +E  E E E E E E E   +E  E E E E E E E
|-------------------|-------------------|
|-------------------|-------------------|
|-------------------|-------------------|
|-(5)-5-7---5-5---3-|-(3)-3-5---3-3---2-|
|-(3)-3-3---3-3---1-|-(1)-1-1---1-1---0-|
|-------------------|-------------------|
|
|  W                   W
|-------------------|-------------------|
|-------------------|-------------------|
|-------------------|-------------------|
|-------------------|-------------------|
|-------------------|-------------------|
|-------------------|-------------------|


                      A                   F/C
  +E  E E E E   S S E E   +E  E Q   Q   E E
|-(3)-2-3-2-3---5p3-2-2-|-(2)-2-----------7---|
|-(3)-2-3-3-3---3-----2-|-(2)-2-----------6---|
|-(2)-2-2-2-2---2-----2-|-(2)-2-----------5---|
|-----------------------|---------------------|
|-----------------------|---------------------|
|-----------------------|---------------------|
|
| +E  E E E E   E   E E   +E  E E E E E E E
|-----------------------|---------------------|
|-----------------------|---------------------|
|-----------------------|---------------------|
|-(2)-2-3-2-2---2-----2-|-(2)-2-3---2-3---5---|
|-(0)-0-0---0---0-----0-|-(0)-0-0---0-0-0-3---|
|-----------------------|---------------------|
|
|  H        E a E   E E   +H.           Q
|-----------------------|---------------------|
|-------------6s8---6-5-|-(5)-----------------|
|-----------------------|---------------------|
|-----------------------|---------------------|
|-----------------------|---------------------|
|-----------------------|---------------------|


              C   Bb°             Bb  Dm/A
  +E  E E E E E E E   +E  E E E E E E E
|-(7)-5-7---7-5---5-|-(5)-3-5---5-3---3-|
|-(6)-5-6---6-5---5-|-(5)-3-5---5-3---3-|
|-(5)-5-5---5-5---3-|-(3)-3-3---3-3---2-|
|-------------------|-------------------|
|-------------------|-------------------|
|-------------------|-------------------|
|
| +E  E E E E E E E   +E  E E E E E E E
|-------------------|-------------------|
|-------------------|-------------------|
|-------------------|-------------------|
|-(5)-5-7---5-5---3-|-(3)-3-5---3-3---2-|
|-(3)-3-3---3-3---1-|-(1)-1-1---1-1---0-|
|-------------------|-------------------|
|
|  W                   W
|-------------------|-------------------|
|-------------------|-------------------|
|-------------------|-------------------|
|-------------------|-------------------|
|-------------------|-------------------|
|-------------------|-------------------|


                      A                   F/C
  +E  E E E E   S S E E   +E  E Q   Q   E E
|-(3)-2-3-2-3---5p3-2-2-|-(2)-2-----------7---||
|-(3)-2-3-3-3---3-----2-|-(2)-2-----------6---||
|-(2)-2-2-2-2---2-----2-|-(2)-2-----------5---||
|-----------------------|---------------------||
|-----------------------|---------------------||
|-----------------------|---------------------||
|
| +E  E E E E   E   E E   +E  E E E E E E E
|-----------------------|---------------------||
|-----------------------|---------------------||
|-----------------------|---------------------||
|-(2)-2-3-2-2---2-----2-|-(2)-2-3---2-3---5---||
|-(0)-0-0---0---0-----0-|-(0)-0-0---0-0-0-3---||
|-----------------------|---------------------||
|
|  H        E a E   E E   +H.           Q
|-----------------------|---------------------||
|-------------6s8---6-5-|-(5)-----------------||
|-----------------------|---------------------||
|-----------------------|---------------------||
|-----------------------|---------------------||
|-----------------------|---------------------||


 Verse 2
              C   Db°             Db  F/C
  Gtr IV
   W                   W
  +E  E E E E E E E   +E  E E E E E E E
|-(7)-5-7---7-5---8-|-(8)-6-8---8-6---7-|
|-(6)-5-6---6-5---8-|-(8)-6-8---8-6---6-|
|-(5)-5-5---5-5---6-|-(6)-6-6---6-6---5-|
|-------------------|-------------------|
|-------------------|-------------------|
|-------------------|-------------------|
|
| +E  E E E E E E E   +E  E E E E E E E
|-------------------|-------------------|
|-------------------|-------------------|
|-------------------|-------------------|
|-(5)-5-7---5-5---6-|-(6)-6-8---6-6---5-|
|-(3)-3-3---3-3---4-|-(4)-4-4---4-4---3-|
|-------------------|-------------------|
|
|  W                   W
|-------------------|-------------------|
|-------------------|-------------------|
|-------------------|-------------------|
|-------------------|-------------------|
|-------------------|-------------------|
|-------------------|-------------------|


                  C                     F/C
   H        E E E E   +H        H
              | | |    |
              o o o    o

  +E  E E E E E E E   +E  E Q   Q   E   E
|-(7)-5-7-5-7-7---5-|-(5)-5-------------7-|
|-(6)-5-6-5-6-6---5-|-(5)-5-------------6-|
|-(5)-5-5-5-5-5---5-|-(5)-5-------------5-|
|-------------------|---------------------|
|-------------------|---------------------|
|-------------------|---------------------|
|
| +E  E E E E E E E   +E  E E E E E E   E
|-------------------|---------------------|
|-------------------|---------------------|
|-------------------|---------------------|
|-(5)-5-7-5-5-5---5-|-(5)-5-7---5-7-----5-|
|-(3)-3-3---3-3---3-|-(3)-3-3---3-3-3---3-|
|-------------------|---------------------|
|
|                     Gtr III
|  W                   E  E E E E E E a E
|-------------------|-----------------6s8-|
|-------------------|-------------5-8-----|
|-------------------|-----------5---------|
|-------------------|---------5-----------|
|-------------------|-----5s7-------------|
|-------------------|---------------------|


                C   Db°               Db   F/C
   W                     W
  +E  E E E  E  E E E   +E  E E E E    E E E
|-(7)-5-7----7--5---8-|-(8)-6-8---8----6---7-|
|-(6)-5-6----6--5---8-|-(8)-6-8---8----6---6-|
|-(5)-5-5----5--5---6-|-(6)-6-6---6----6---5-|
|---------------------|----------------------|
|---------------------|----------------------|
|---------------------|----------------------|
|
| +E  E E E  E  E E E   +E  E E E E    E E E
|---------------------|----------------------|
|---------------------|----------------------|
|---------------------|----------------------|
|-(5)-5-7----5--5---6-|-(6)-6-8---6----6---5-|
|-(3)-3-3----3--3---4-|-(4)-4-4---4----4---3-|
|---------------------|----------------------|
|
| Gtr III
| +H        +E  Q   E   +H        E a  Q   E
|-(8)-------(8)-8s==9-|-(9)---------9s11p==8-|
|---------------------|----------------------|
|---------------------|----------------------|
|---------------------|----------------------|
|---------------------|----------------------|
|---------------------|----------------------|


                  C                     F/C
   H        E E E E   +H        H
              | | |    |
              o o o    o

  +E  E E E E E E E   +E  E Q   Q   E   E
|-(7)-5-7-5-7-7---5-|-(5)-5-------------7---|
|-(6)-5-6-5-6-6---5-|-(5)-5-------------6---|
|-(5)-5-5-5-5-5---5-|-(5)-5-------------5---|
|-------------------|-----------------------|
|-------------------|-----------------------|
|-------------------|-----------------------|
|
| +E  E E E E E E E   +E  E E E E E E   E
|-------------------|-----------------------|
|-------------------|-----------------------|
|-------------------|-----------------------|
|-(5)-5-7-5-5-5---5-|-(5)-5-7---5-7-----5---|
|-(3)-3-3---3-3---3-|-(3)-3-3---3-3-3---3---|
|-------------------|-----------------------|
|
| +W                   E  E E E E E E a E
|-(8)---------------|-----------------6s8---|
|-------------------|-------------5-8-------|
|-------------------|-----------5-----------|
|-------------------|---------5-------------|
|-------------------|-----5s7---------------|
|-------------------|-----------------------|


              C    Bb°               Bb   Dm/A
   W                      W
  +E  E E E E  E E  E    +E  E E E E  E E  E
|-(7)-5-7---7--5----5-|--(5)-3-5---5--3----3-|
|-(6)-5-6---6--5----5-|--(5)-3-5---5--3----3-|
|-(5)-5-5---5--5----3-|--(3)-3-3---3--3----2-|
|---------------------|----------------------|
|---------------------|----------------------|
|---------------------|----------------------|
|
| +E  E E E E  E E  E    +E  E E E E  E E  E
|---------------------|----------------------|
|---------------------|----------------------|
|---------------------|----------------------|
|-(5)-5-7---5--5----3-|--(3)-3-5---3--3----2-|
|-(3)-3-3---3--3----1-|--(1)-1-1---1--1----0-|
|---------------------|----------------------|
|
| +H        E  Q    E    +H        E  Q    E
|-(8)-----------------|----------------------|
|-------------17S==15-|-(15)---------17S==14-|
|-------------17S==15-|-(15)---------17S==14-|
|-------------17S==15-|-(15)---------17S==14-|
|---------------------|----------------------|
|---------------------|----------------------|


                     A                     F/C
    H        E E   E E   +H        H
               |   | |    |
               o   o o    o

   +E  E E E E S S E E   +E  E Q   Q   E   E
|--(3)-2-3-2-3-5p3-2-2-|-(2)-2-------------7---|
|--(3)-2-3-3-3-3-----2-|-(2)-2-------------6---|
|--(2)-2-2-2-2-2-----2-|-(2)-2-------------5---|
|----------------------|-----------------------|
|----------------------|-----------------------|
|----------------------|-----------------------|
|
|  +E  E E E E E   E E   +E  E E E E E E   E
|----------------------|-----------------------|
|----------------------|-----------------------|
|----------------------|-----------------------|
|--(2)-2-3-2-2-2-----2-|-(2)-2-3---2-3-----5---|
|--(0)-0-0---0-0-----0-|-(0)-0-0---0-0-0---3---|
|----------------------|-----------------------|
|
|  +W                     E  E E E E E E a E
|----------------------|-----------------6s8---|
|-(14)-----------------|-------------5-8-------|
|-(14)-----------------|-----------5-----------|
|-(14)-----------------|---------5-------------|
|----------------------|-----5s7---------------|
|----------------------|-----------------------|


              C    Bb°               Bb   Dm/A
   W                      W
  +E  E E E E  E E  E    +E  E E E E  E E  E
|-(7)-5-7---7--5----5-|--(5)-3-5---5--3----3-|
|-(6)-5-6---6--5----5-|--(5)-3-5---5--3----3-|
|-(5)-5-5---5--5----3-|--(3)-3-3---3--3----2-|
|---------------------|----------------------|
|---------------------|----------------------|
|---------------------|----------------------|
|
| +E  E E E E  E E  E    +E  E E E E  E E  E
|---------------------|----------------------|
|---------------------|----------------------|
|---------------------|----------------------|
|-(5)-5-7---5--5----3-|--(3)-3-5---3--3----2-|
|-(3)-3-3---3--3----1-|--(1)-1-1---1--1----0-|
|---------------------|----------------------|
|  W                      W
|
| +H        E  Q    E    +H        E  Q    E
|-(8)-----------------|----------------------|
|-------------17S==15-|-(15)---------17S==14-|
|-------------17S==15-|-(15)---------17S==14-|
|-------------17S==15-|-(15)---------17S==14-|
|---------------------|----------------------|
|---------------------|----------------------|


                     A
    H        E E   E E   +H        H
               |   | |    |
               o   o o    o

   +E  E E E E S S E E   +E  E Q   Q   E E
|--(3)-2-3-2-3-5p3-2-2-|-(2)-2-------------|
|--(3)-2-3-3-3-3-----2-|-(2)-2-----------2-|
|--(2)-2-2-2-2-2-----2-|-(2)-2-------------|
|----------------------|-------------------|
|----------------------|-------------------|
|----------------------|-------------------|
|
|  +E  E E E E E   E E   +E  E E E E E E E
|----------------------|-------------------|
|----------------------|-----------------2-|
|----------------------|-----------------0-|
|--(2)-2-3-2-2-2-----2-|-(2)-2-3---2-3---0-|
|--(0)-0-0---0-0-----0-|-(0)-0-0---0-0-----|
|----------------------|-------------------|
|   W                     H        Q   E E
|
|  +W                     H        E E E E
|----------------------|-------------------|
|-(14)-----------------|-------------3-2-0-|
|-(14)-----------------|-------------3-2-0-|
|-(14)-----------------|-------------3-2-0-|
|----------------------|-------------------|
|----------------------|-------------------|


  (G)
  +E  E E S S e E E E   +E  E E S S e E E E   +E  E E E   a E E E E
|---------------------|---------------------|-----------------------|
|-(2)-3-2-3p2-0-----2-|-(2)-3-2-3p2-0-----2-|-(2)-3-2-3---5s7S5---2-|
|---------------------|---------------------|-----------------------|
|---------------------|---------------------|-----------------------|
|---------------------|---------------------|-----------------------|
|---------------------|---------------------|-----------------------|
|
| +E  E E S S e E E E   +E  E E S S e E E E   +E  E E S S   E E E E
|---------------------|---------------------|-----------------------|
|-(2)-3-2-3p2-0-----2-|-(2)-3-2-3p2-0-----2-|-(2)-3-2-3p2---0-0---2-|
|-(0)-----------0-3-0-|-(0)-----------0-3-0-|-(0)-------------0---0-|
|-(0)-----------0-3-0-|-(0)-----------0-3-0-|-(0)-------------0---0-|
|---------------------|---------------------|-----------------------|
|---------------------|---------------------|-----------------------|
| +H          E E E E   +H          E E E E   +H            E E E E
|
| Gtr III
|  W                     W                     H          a E E Q
|---------------------|---------------------|-----------------------|
|---------------------|---------------------|-----------------------|
|---------------------|---------------------|-----------------------|
|---------------------|---------------------|-------------5s7s5-----|
|---------------------|---------------------|-----------------------|
|---------------------|---------------------|-----------------------|


  +E  E E S S e E E E   +E  E E S S e E E E
|---------------------|---------------------|
|-(2)-3-2-3p2-0-----2-|-(2)-3-2-3p2-0-----2-|
|---------------------|---------------------|
|---------------------|---------------------|
|---------------------|---------------------|
|---------------------|---------------------|
|
| +E  E E S S e E E E   +E  E E S S e E E E
|---------------------|---------------------|
|-(2)-3-2-3p2-0-----2-|-(2)-3-2-3p2-0-----2-|
|-(0)-----------0-3-0-|-(0)-----------0-3-0-|
|-(0)-----------0-3-0-|-(0)-----------0-3-0-|
|---------------------|---------------------|
|---------------------|---------------------|
| +H          E E E E   +H          E E E E
|
|  W                     W
|---------------------|---------------------|
|---------------------|---------------------|
|---------------------|---------------------|
|---------------------|---------------------|
|---------------------|---------------------|
|---------------------|---------------------|


  +E  E E S S e E E E   +E  E E E   a E E E E
|---------------------|------------------------|
|-(2)-3-2-3p2-0-----2-|-(2)-3-2-3---5s7S5---2--|
|---------------------|------------------------|
|---------------------|------------------------|
|---------------------|------------------------|
|---------------------|------------------------|
|
| +E  E E S S e E E E   +E  E E S S   E E E E
|---------------------|------------------------|
|-(2)-3-2-3p2-0-----2-|-(2)-3-2-3p2---0-0---2--|
|-(0)-----------0-3-0-|-(0)-------------0---0--|
|-(0)-----------0-3-0-|-(0)-------------0---0--|
|---------------------|------------------------|
|---------------------|------------------------|
| +H          E E E E   +H            E E E E
|
|  W                     H          a E E Q
|---------------------|------------------------|
|---------------------|------------------------|
|---------------------|------------------------|
|---------------------|-------------5s7s5------|
|---------------------|------------------------|
|---------------------|------------------------|


                        Verse 3
                    F/C              C   Db°
  +E  E E S S e E Q       Q    E E E E E E
|---------------------||-------7---7-5---8-|
|-(2)-3-2-3p2-0-------||-------6---6-5---8-|
|---------------------||-------5---5-5---6-|
|---------------------||-------------------|
|---------------------||-------------------|
|---------------------||-------------------|
|
| +E  E E S S e E E E    +E  E E E E E E E
|---------------------||-------------------|
|-(2)-3-2-3p2-0-------||-------------------|
|-(0)-----------0-3-5-||-(5)---------------|
|-(0)-----------0-3-5-||-(5)-5-7---5-5---6-|
|-------------------3-||-(3)-3-3---3-3---4-|
|---------------------||-------------------|
  +H          E E Q


              Db  F/C                 C
  +E  E E E E E E E   +E  E E E E E E E
|-(8)-6-8---8-6---7-|-(7)-5-7-5-7-7---5-|
|-(8)-6-8---8-6---6-|-(6)-5-6-5-6-6---5-|
|-(6)-6-6---6-6---5-|-(5)-5-5-5-5-5---5-|
|-------------------|-------------------|
|-------------------|-------------------|
|-------------------|-------------------|
|
| +E  E E E E E E E   +E  E E E E E E E
|-------------------|-------------------|
|-------------------|-------------------|
|-------------------|-------------------|
|-(6)-6-8---6-6---5-|-(5)-5-7-5-5-5---5-|
|-(4)-4-4---4-4---3-|-(3)-3-3---3-3---3-|
|-------------------|-------------------|


                  F/C             C   Db°             Db  F/C
  +E  E Q   Q   E E   +E  E E E E E E E   +E  E E E E E E E
|-(5)-5-----------7-|-(7)-5-7---7-5---8-|-(8)-6-8---8-6---7-|
|-(5)-5-----------6-|-(6)-5-6---6-5---8-|-(8)-6-8---8-6---6-|
|-(5)-5-----------5-|-(5)-5-5---5-5---6-|-(6)-6-6---6-6---5-|
|-------------------|-------------------|-------------------|
|-------------------|-------------------|-------------------|
|-------------------|-------------------|-------------------|
|
| +E  E E E E E E E   +E  E E E E E E E   +E  E E E E E E E
|-------------------|-------------------|-------------------|
|-------------------|-------------------|-------------------|
|-------------------|-------------------|-------------------|
|-(5)-5-7---5-7---5-|-(5)-5-7---5-5---6-|-(6)-6-8---6-6---5-|
|-(3)-3-3---3-3-3-3-|-(3)-3-3---3-3---4-|-(4)-4-4---4-4---3-|
|-------------------|-------------------|-------------------|
|
| Gtr III
|  W                   W                   W
|-------------------|-------------------|-------------------|
|-------------------|-------------------|-------------------|
|-------------------|-------------------|-------------------|
|-------------------|-------------------|-------------------|
|-------------------|-------------------|-------------------|
|-------------------|-------------------|-------------------|


                    C                   F/C
  +E  E E E E   E E E   +E  E Q   Q   E E
|-(7)-5-7-5-7---7---5-|-(5)-5-----------7---|
|-(6)-5-6-5-6---6---5-|-(5)-5-----------6---|
|-(5)-5-5-5-5---5---5-|-(5)-5-----------5---|
|---------------------|---------------------|
|---------------------|---------------------|
|---------------------|---------------------|
|
| +E  E E E E   E E E   +E  E E E E E E E
|---------------------|---------------------|
|---------------------|---------------------|
|---------------------|---------------------|
|-(5)-5-7-5-5---5---5-|-(5)-5-7---5-7---5---|
|-(3)-3-3---3---3---3-|-(3)-3-3---3-3-3-3---|
|---------------------|---------------------|
|
|  H        E a E E E   +H.           Q
|---------------------|---------------------|
|-------------6s8-6-5-|-(5)-----------------|
|---------------------|---------------------|
|---------------------|---------------------|
|---------------------|---------------------|
|---------------------|---------------------|


              C   Bb°             Bb  Dm/A
  +E  E E E E E E E   +E  E E E E E E E
|-(7)-5-7---7-5---5-|-(5)-3-5---5-3---3-|
|-(6)-5-6---6-5---5-|-(5)-3-5---5-3---3-|
|-(5)-5-5---5-5---3-|-(3)-3-3---3-3---2-|
|-------------------|-------------------|
|-------------------|-------------------|
|-------------------|-------------------|
|
| +E  E E E E E E E   +E  E E E E E E E
|-------------------|-------------------|
|-------------------|-------------------|
|-------------------|-------------------|
|-(5)-5-7---5-5---3-|-(3)-3-5---3-3---2-|
|-(3)-3-3---3-3---1-|-(1)-1-1---1-1---0-|
|-------------------|-------------------|


                    A                   F/C
  +E  E E E E S S E E   +E  E Q   Q   E E
|-(3)-2-3-2-3-5p3-2-2-|-(2)-2-----------7-|
|-(3)-2-3-3-3-3-----2-|-(2)-2-----------6-|
|-(2)-2-2-2-2-2-----2-|-(2)-2-----------5-|
|---------------------|-------------------|
|---------------------|-------------------|
|---------------------|-------------------|
|
| +E  E E E E E   E E   +E  E E E E E E E
|---------------------|-------------------|
|---------------------|-------------------|
|---------------------|-------------------|
|-(2)-2-3-2-2-2-----2-|-(2)-2-3---2-3---5-|
|-(0)-0-0---0-0-----0-|-(0)-0-0---0-0-0-3-|
|---------------------|-------------------|


              C   Bb°             Bb  Dm/A
  +E  E E E E E E E   +E  E E E E E E E
|-(7)-5-7---7-5---5-|-(5)-3-5---5-3---3-|
|-(6)-5-6---6-5---5-|-(5)-3-5---5-3---3-|
|-(5)-5-5---5-5---3-|-(3)-3-3---3-3---2-|
|-------------------|-------------------|
|-------------------|-------------------|
|-------------------|-------------------|
|
| +E  E E E E E E E   +E  E E E E E E E
|-------------------|-------------------|
|-------------------|-------------------|
|-------------------|-------------------|
|-(5)-5-7---5-5---3-|-(3)-3-5---3-3---2-|
|-(3)-3-3---3-3---1-|-(1)-1-1---1-1---0-|
|-------------------|-------------------|


                    A                   F/C
  +E  E E E E S S E E   +E  E Q   Q   E E
|-(3)-2-3-2-3-5p3-2-2-|-(2)-2-----------7-||
|-(3)-2-3-3-3-3-----2-|-(2)-2-----------6-||
|-(2)-2-2-2-2-2-----2-|-(2)-2-----------5-||
|---------------------|-------------------||
|---------------------|-------------------||
|---------------------|-------------------||
|
| +E  E E E E E   E E   +E  E E E E E E E
|---------------------|-------------------||
|---------------------|-------------------||
|---------------------|-------------------||
|-(2)-2-3-2-2-2-----2-|-(2)-2-3---2-3---5-||
|-(0)-0-0---0-0-----0-|-(0)-0-0---0-0-0-3-||
|---------------------|-------------------||


 Verse 4
              C   Db°             Db  F/C
  +E  E E E E E E E   +E  E E E E E E E
|-(7)-5-7---7-5---8-|-(8)-6-8---8-6---7-|
|-(6)-5-6---6-5---8-|-(8)-6-8---8-6---6-|
|-(5)-5-5---5-5---6-|-(6)-6-6---6-6---5-|
|-------------------|-------------------|
|-------------------|-------------------|
|-------------------|-------------------|
|
| +E  E E E E E E E   +E  E E E E E E E
|-------------------|-------------------|
|-------------------|-------------------|
|-------------------|-------------------|
|-(5)-5-7---5-5---6-|-(6)-6-8---6-6---5-|
|-(3)-3-3---3-3---4-|-(4)-4-4---4-4---3-|
|-------------------|-------------------|
|
| Gtr III
|  W                   W
|-------------------|-------------------|
|-------------------|-------------------|
|-------------------|-------------------|
|-------------------|-------------------|
|-------------------|-------------------|
|-------------------|-------------------|


                  C                     F/C
  +E  E E E E E E E   +E  E Q   Q   E   E
|-(7)-5-7-5-7-7---5-|-(5)-5-------------7-|
|-(6)-5-6-5-6-6---5-|-(5)-5-------------6-|
|-(5)-5-5-5-5-5---5-|-(5)-5-------------5-|
|-------------------|---------------------|
|-------------------|---------------------|
|-------------------|---------------------|
|
| +E  E E E E E E E   +E  E E E E E E   E
|-------------------|---------------------|
|-------------------|---------------------|
|-------------------|---------------------|
|-(5)-5-7-5-5-5---5-|-(5)-5-7---5-7-----5-|
|-(3)-3-3---3-3---3-|-(3)-3-3---3-3-3---3-|
|-------------------|---------------------|
|
|  W                   E  E E E E E E a E
|-------------------|-----------------6s8-|
|-------------------|-------------5-8-----|
|-------------------|-----------5---------|
|-------------------|---------5-----------|
|-------------------|-----5s7-------------|
|-------------------|---------------------|


                C   Db°               Db   F/C
  +E  E E E  E  E E E   +E  E E E E    E E E
|-(7)-5-7----7--5---8-|-(8)-6-8---8----6---7-|
|-(6)-5-6----6--5---8-|-(8)-6-8---8----6---6-|
|-(5)-5-5----5--5---6-|-(6)-6-6---6----6---5-|
|---------------------|----------------------|
|---------------------|----------------------|
|---------------------|----------------------|
|
| +E  E E E  E  E E E   +E  E E E E    E E E
|---------------------|----------------------|
|---------------------|----------------------|
|---------------------|----------------------|
|-(5)-5-7----5--5---6-|-(6)-6-8---6----6---5-|
|-(3)-3-3----3--3---4-|-(4)-4-4---4----4---3-|
|---------------------|----------------------|
|
| +H        +E  Q   E   +H        E a  Q   E
|-(8)-------(8)-8s==9-|-(9)---------9s11p==8-|
|---------------------|----------------------|
|---------------------|----------------------|
|---------------------|----------------------|
|---------------------|----------------------|
|---------------------|----------------------|


                  C                     F/C
  +E  E E E E E E E   +E  E Q   Q   E   E
|-(7)-5-7-5-7-7---5-|-(5)-5-------------7---|
|-(6)-5-6-5-6-6---5-|-(5)-5-------------6---|
|-(5)-5-5-5-5-5---5-|-(5)-5-------------5---|
|-------------------|-----------------------|
|-------------------|-----------------------|
|-------------------|-----------------------|
|
| +E  E E E E E E E   +E  E E E E E E   E
|-------------------|-----------------------|
|-------------------|-----------------------|
|-------------------|-----------------------|
|-(5)-5-7-5-5-5---5-|-(5)-5-7---5-7-----5---|
|-(3)-3-3---3-3---3-|-(3)-3-3---3-3-3---3---|
|-------------------|-----------------------|
|
| +W                   E  E E E E E E a E
|-(8)---------------|-----------------6s8---|
|-------------------|-------------5-8-------|
|-------------------|-----------5-----------|
|-------------------|---------5-------------|
|-------------------|-----5s7---------------|
|-------------------|-----------------------|


              C    Bb°               Bb   Dm/A
  +E  E E E E  E E  E    +E  E E E E  E E  E
|-(7)-5-7---7--5----5-|--(5)-3-5---5--3----3-|
|-(6)-5-6---6--5----5-|--(5)-3-5---5--3----3-|
|-(5)-5-5---5--5----3-|--(3)-3-3---3--3----2-|
|---------------------|----------------------|
|---------------------|----------------------|
|---------------------|----------------------|
|
| +E  E E E E  E E  E    +E  E E E E  E E  E
|---------------------|----------------------|
|---------------------|----------------------|
|---------------------|----------------------|
|-(5)-5-7---5--5----3-|--(3)-3-5---3--3----2-|
|-(3)-3-3---3--3----1-|--(1)-1-1---1--1----0-|
|---------------------|----------------------|
|
| +H        E  Q    E    +H        E  Q    E
|-(8)-----------------|----------------------|
|-------------17S==15-|-(15)---------17S==14-|
|-------------17S==15-|-(15)---------17S==14-|
|-------------17S==15-|-(15)---------17S==14-|
|---------------------|----------------------|
|---------------------|----------------------|


                     A                     F/C
   +E  E E E E S S E E   +E  E Q   Q   E   E
|--(3)-2-3-2-3-5p3-2-2-|-(2)-2-------------7---|
|--(3)-2-3-3-3-3-----2-|-(2)-2-------------6---|
|--(2)-2-2-2-2-2-----2-|-(2)-2-------------5---|
|----------------------|-----------------------|
|----------------------|-----------------------|
|----------------------|-----------------------|
|
|  +E  E E E E E   E E   +E  E E E E E E   E
|----------------------|-----------------------|
|----------------------|-----------------------|
|----------------------|-----------------------|
|--(2)-2-3-2-2-2-----2-|-(2)-2-3---2-3-----5---|
|--(0)-0-0---0-0-----0-|-(0)-0-0---0-0-0---3---|
|----------------------|-----------------------|
|
|  +W                     E  E E E E E E a E
|----------------------|-----------------6s8---|
|-(14)-----------------|-------------5-8-------|
|-(14)-----------------|-----------5-----------|
|-(14)-----------------|---------5-------------|
|----------------------|-----5s7---------------|
|----------------------|-----------------------|


              C    Bb°               Bb   Dm/A
  +E  E E E E  E E  E    +E  E E E E  E E  E
|-(7)-5-7---7--5----5-|--(5)-3-5---5--3----3-|
|-(6)-5-6---6--5----5-|--(5)-3-5---5--3----3-|
|-(5)-5-5---5--5----3-|--(3)-3-3---3--3----2-|
|---------------------|----------------------|
|---------------------|----------------------|
|---------------------|----------------------|
|
| +E  E E E E  E E  E    +E  E E E E  E E  E
|---------------------|----------------------|
|---------------------|----------------------|
|---------------------|----------------------|
|-(5)-5-7---5--5----3-|--(3)-3-5---3--3----2-|
|-(3)-3-3---3--3----1-|--(1)-1-1---1--1----0-|
|---------------------|----------------------|
|  W                      W
|
| +H        E  Q    E    +H        E  Q    E
|-(8)-----------------|----------------------|
|-------------17S==15-|-(15)---------17S==14-|
|-------------17S==15-|-(15)---------17S==14-|
|-------------17S==15-|-(15)---------17S==14-|
|---------------------|----------------------|
|---------------------|----------------------|


                     A
   +E  E E E E S S E E   +E  E Q   Q   E E
|--(3)-2-3-2-3-5p3-2-2-|-(2)-2-------------||
|--(3)-2-3-3-3-3-----2-|-(2)-2-----------2-||
|--(2)-2-2-2-2-2-----2-|-(2)-2-------------||
|----------------------|-------------------||
|----------------------|-------------------||
|----------------------|-------------------||
|
|  +E  E E E E E   E E   +E  E E E E E E E
|----------------------|-------------------||
|----------------------|-----------------2-||
|----------------------|-----------------0-||
|--(2)-2-3-2-2-2-----2-|-(2)-2-3---2-3---0-||
|--(0)-0-0---0-0-----0-|-(0)-0-0---0-0-----||
|----------------------|-------------------||
|   W                     H        Q   E E
|
|  +W                     W
|----------------------|-------------------||
|-(14)-----------------|-------------------||
|-(14)-----------------|-------------------||
|-(14)-----------------|-------------------||
|----------------------|-------------------||
|----------------------|-------------------||


 Outro
  G5
  +E  E E S S e E E E   +E  E E S S e E E E   +E  E E E   a E E E E
|---------------------|---------------------|-----------------------|
|-(2)-3-2-3p2-0-----2-|-(2)-3-2-3p2-0-----2-|-(2)-3-2-3---5s7S5---2-|
|---------------------|---------------------|-----------------------|
|---------------------|---------------------|-----------------------|
|---------------------|---------------------|-----------------------|
|---------------------|---------------------|-----------------------|
|
| +E  E E S S e E E E   +E  E E S S e E E E   +E  E E S S   E E E E
|---------------------|---------------------|-----------------------|
|-(2)-3-2-3p2-0-----2-|-(2)-3-2-3p2-0-----2-|-(2)-3-2-3p2---0-0---2-|
|-(0)-----------0-3-0-|-(0)-----------0-3-0-|-(0)-------------0---0-|
|-(0)-----------0-3-0-|-(0)-----------0-3-0-|-(0)-------------0---0-|
|---------------------|---------------------|-----------------------|
|---------------------|---------------------|-----------------------|
| +H          E E E E   +H          E E E E   +H            E E E E
|
|  W                     W                     H          a E E Q
|---------------------|---------------------|-----------------------|
|---------------------|---------------------|-----------------------|
|---------------------|---------------------|-----------------------|
|---------------------|---------------------|-------------5s7s5-----|
|---------------------|---------------------|-----------------------|
|---------------------|---------------------|-----------------------|


  +E  E E S S e E E E   +E  E E S S e E E E
|---------------------|---------------------|
|-(2)-3-2-3p2-0-----2-|-(2)-3-2-3p2-0-----2-|
|---------------------|---------------------|
|---------------------|---------------------|
|---------------------|---------------------|
|---------------------|---------------------|
|
| +E  E E S S e E E E   +E  E E S S e E E E
|---------------------|---------------------|
|-(2)-3-2-3p2-0-----2-|-(2)-3-2-3p2-0-----2-|
|-(0)-----------0-3-0-|-(0)-----------0-3-0-|
|-(0)-----------0-3-0-|-(0)-----------0-3-0-|
|---------------------|---------------------|
|---------------------|---------------------|
| +H          E E E E   +H          E E E E
|
|  W                     W
|---------------------|---------------------|
|---------------------|---------------------|
|---------------------|---------------------|
|---------------------|---------------------|
|---------------------|---------------------|
|---------------------|---------------------|


  +E  E E S S e E E E   +E  E E E   a E E E E
|---------------------|------------------------|
|-(2)-3-2-3p2-0-----2-|-(2)-3-2-3---5s7S5---2--|
|---------------------|------------------------|
|---------------------|------------------------|
|---------------------|------------------------|
|---------------------|------------------------|
|
| +E  E E S S e E E E   +E  E E S S   E E E E
|---------------------|------------------------|
|-(2)-3-2-3p2-0-----2-|-(2)-3-2-3p2---0-0---2--|
|-(0)-----------0-3-0-|-(0)-------------0---0--|
|-(0)-----------0-3-0-|-(0)-------------0---0--|
|---------------------|------------------------|
|---------------------|------------------------|
| +H          E E E E   +H            E E E E
|
|  W                     H          a E E Q
|---------------------|------------------------|
|---------------------|------------------------|
|---------------------|------------------------|
|---------------------|-------------5s7s5------|
|---------------------|------------------------|
|---------------------|------------------------|


                      F/C             C   Db°
  +E  E E S S e E E a E   +Q    E E E E E E
|-----------------------|-------0---0-2-----|
|-(2)-3-2-3p2-0-----3s5-|-(5)-----1-------6-|
|-----------------------|-------------------|
|-----------------------|-------------------|
|-----------------------|-------------------|
|-----------------------|-------------------|
|
| +E  E E S S e E E   E   +E  E E E E E E E
|-----------------------|-------------------|
|-(2)-3-2-3p2-0---------|-------------------|
|-(0)-----------0-3---5-|-(5)---------------|
|-(0)-----------0-3---5-|-(5)-5-7---5-5---6-|
|---------------------3-|-(3)-3-3---3-3---4-|
|-----------------------|-------------------|
| +H          E E Q
|
| Gtr IV
|  H          E E E   E   +Q    E E E E E E
|-----------------------|-------------------|
|-----------------------|-------------------|
|---------------0-3---5-|-(5)---3-0-3-5-0-6-|
|-----------------------|-------------------|
|-----------------------|-------------------|
|-----------------------|-------------------|


              Db     F/Eb                    Eb        F/Eb
  +H        E E  E a  E    +E  Q.      +E  a  E  +E  a  E
|-----------------------|----------------------------------|
|-(6)-------6-8-10-8s10-|-(10)s8-------(8)-8s10-(10)-8s10--|
|-----------------------|----------------------------------|
|-----------------------|----------------------------------|
|-----------------------|----------------------------------|
|-----------------------|----------------------------------|
|
| +E  E E E E E  E    E    +E  E   E E  E     E   E     E
|-----------------------|----------------------------------|
|-----------------------|----------------------------------|
|-----------------------|----------------------------------|
|-(6)-6-8---6-6-------8-|--(8)-8--10---10-----8---------8--|
|-(4)-4-4---4-4-------6-|--(6)-6---6----6-----6---------6--|
|-----------------------|----------------------------------|
|
| +H        E E  E a  E    +E  Q.      +E  a  E  +E  a  E
|-----------------------|----------------------------------|
|-----------------------|----------------------------------|
|-(6)-------6-8-10-8s10-|-(10)S8-------(8)-8s10-(10)-8s10--|
|-----------------------|----------------------------------|
|-----------------------|----------------------------------|
|-----------------------|----------------------------------|


                     Eb        F/Eb                Eb   Bb/F
   +E  Q.      +E  a  E  +E  a  E    +Q     E E  E  E E  E
|---------------------------------|------------------------|
|-(10)s8-------(8)-8s10-(10)-8s10-|-(10)----8-6--8-10---11-|
|---------------------------------|---------------------10-|
|---------------------------------|---------------------12-|
|---------------------------------|------------------------|
|---------------------------------|------------------------|
|
|  +E  E   E E  E     E   E     E    +E  E  E E  E  E E  E
|---------------------------------|------------------------|
|---------------------------------|------------------------|
|---------------------------------|------------------------|
|--(8)-8--10---10-----8---------8-|--(8)-8-10---10--8---10-|
|--(6)-6---6----6-----6---------6-|--(6)-6--6----6--6----8-|
|---------------------------------|------------------------|
|
|  +E  Q.      +E  a  E  +E  a  E    +Q     E E  E  Q    E
|---------------------------------|------------------------|
|---------------------------------|------------------------|
|-(10)S8-------(8)-8s10-(10)-8s10-|-(10)----8-6--7-10----2S|
|---------------------------------|------------------------|
|---------------------------------|------------------------|
|---------------------------------|------------------------|


                   F         G5
   +E   E  E  E  E  E E  E    +E   E  E  S  S e E E  E
|-----------------------11-|-(11)-12-11-12p11-9-----11--|
|-(11)-10-11-10-11-10------|----------------------------|
|-(10)-10-10-10-10-10------|----------------------------|
|-(12)-10-12-10-12-10------|----------------------------|
|--------------------------|----------------------------|
|--------------------------|----------------------------|
|
|  +E   E  E  E  E  E E  E    +E   E  E  S  S e E E  E
|--------------------------|----------------------------|
|------------------------2-|--(2)--3--2--3p=2-0------2--|
|------------------------0-|--(0)---------------0-3--0--|
|-(10)-10-12----10-10----0-|--(0)---------------0-3--0--|
|--(8)--8--8-----8--8------|----------------------------|
|--------------------------|----------------------------|
|                             +H              E E E  E
|
|   H            Q    E  E    +E   E  E  S  S e E E  E
|--------------------------|----------------------------|
|------------------------2-|--(2)--3--2--3p=2-0------2--|
|---5----------------------|----------------------------|
|--------------------------|----------------------------|
|--------------------------|----------------------------|
|--------------------------|----------------------------|


   +E   E  E  S  S e E E  E    +E   E  E  E   E E E  E
|-(11)-12-11-12p11-9-----11-|-(11)-12-11-12---7s5---11-|
|---------------------------|-----------------7s5------|
|---------------------------|--------------------------|
|---------------------------|--------------------------|
|---------------------------|--------------------------|
|---------------------------|--------------------------|
|
|  +E   E  E  S  S e E E  E    +E   E  E  S S e E E  E
|---------------------------|--------------------------|
|--(2)--3--2--3p=2-0------2-|--(2)--3--2--3p2-0-0----2-|
|--(0)---------------0-3--0-|--(0)--------------0----0-|
|--(0)---------------0-3--0-|--(0)--------------0----0-|
|---------------------------|--------------------------|
|---------------------------|--------------------------|
|  +H              E E E  E    +H             E E E  E
|
|  +E   E  E  S  S e E E  E    +E   E  E  E   E E E  E
|---------------------------|--------------------------|
|--(2)--3--2--3p=2-0------2-|--(2)--3--2--3----------2-|
|---------------------------|--------------------------|
|---------------------------|-----------------7s5------|
|---------------------------|--------------------------|
|---------------------------|--------------------------|


   +E   E  E  S  S e E E  E    +E   E  E  S  S e E E  E
|-(11)-12-11-12p11-9-----11-|-(11)-12-11-12p11-9-----11-|
|---------------------------|---------------------------|
|---------------------------|---------------------------|
|---------------------------|---------------------------|
|---------------------------|---------------------------|
|---------------------------|---------------------------|
|
|  +E   E  E  S  S e E E  E    +E   E  E  S  S E E E  E
|---------------------------|---------------------------|
|--(2)--3--2--3p=2-0------2-|--(2)--3--2--3p=2-0-0----2-|
|--(0)---------------0-3--0-|--(0)---------------0----0-|
|--(0)---------------0-3--0-|--(0)---------------0----0-|
|---------------------------|---------------------------|
|---------------------------|---------------------------|
|  +H              E E E  E    +H              E E E  E
|
|  +E   E  E  S  S e E E  E    +E   E  E  S  S e E E  E
|---------------------------|---------------------------|
|--(2)--3--2--3p=2-0------2-|--(2)--3--2--3p=2-0------2-|
|---------------------------|---------------------------|
|---------------------------|---------------------------|
|---------------------------|---------------------------|
|---------------------------|---------------------------|


   +E   E  E  S  S e E E  E    +E   E  E  E   E E E  E
|-(11)-12-11-12p11-9-----11-|-(11)-12-11-12---7s5---11-|
|---------------------------|-----------------7s5------|
|---------------------------|--------------------------|
|---------------------------|--------------------------|
|---------------------------|--------------------------|
|---------------------------|--------------------------|
|
|  +E   E  E  S  S e E E  E    +E   E  E  S S e E E  E
|---------------------------|--------------------------|
|--(2)--3--2--3p=2-0------2-|--(2)--3--2--3p2-0-0----2-|
|--(0)---------------0-3--0-|--(0)--------------0----0-|
|--(0)---------------0-3--0-|--(0)--------------0----0-|
|---------------------------|--------------------------|
|---------------------------|--------------------------|
|  +H              E E E  E    +H             E E E  E
|
|  +E   E  E  S  S e E E  E    +E   E  E  E   E E E  E
|---------------------------|--------------------------|
|--(2)--3--2--3p=2-0------2-|--(2)--3--2--3----------2-|
|---------------------------|--------------------------|
|---------------------------|-----------------7s5------|
|---------------------------|--------------------------|
|---------------------------|--------------------------|


   +E   E  E  S  S e E E  E    +E   E  E  S  S e E E  E
|-(11)-12-11-12p11-9-----11-|-(11)-12-11-12p11-9-----11-|
|---------------------------|---------------------------|
|---------------------------|---------------------------|
|---------------------------|---------------------------|
|---------------------------|---------------------------|
|---------------------------|---------------------------|
|
|  +E   E  E  S  S e E E  E    +E   E  E  S  S E E E  E
|---------------------------|---------------------------|
|--(2)--3--2--3p=2-0------2-|--(2)--3--2--3p=2-0-0----2-|
|--(0)---------------0-3--0-|--(0)---------------0----0-|
|--(0)---------------0-3--0-|--(0)---------------0----0-|
|---------------------------|---------------------------|
|---------------------------|---------------------------|
|  +H              E E E  E    +H              E E E  E
|
|  +E   E  E  S  S e E E  E    +E   E  E  S  S e E E  E
|---------------------------|---------------------------|
|--(2)--3--2--3p=2-0------2-|--(2)--3--2--3p=2-0------2-|
|---------------------------|---------------------------|
|---------------------------|---------------------------|
|---------------------------|---------------------------|
|---------------------------|---------------------------|


   +E   E  E  S  S e E E  E    +E   E  E  E   E E E  E
|-(11)-12-11-12p11-9-----11-|-(11)-12-11-12---7s5---11-|
|---------------------------|-----------------7s5------|
|---------------------------|--------------------------|
|---------------------------|--------------------------|
|---------------------------|--------------------------|
|---------------------------|--------------------------|
|
|  +E   E  E  S  S e E E  E    +E   E  E  S S e E E  E
|---------------------------|--------------------------|
|--(2)--3--2--3p=2-0------2-|--(2)--3--2--3p2-0-0----2-|
|--(0)---------------0-3--0-|--(0)--------------0----0-|
|--(0)---------------0-3--0-|--(0)--------------0----0-|
|---------------------------|--------------------------|
|---------------------------|--------------------------|
|  +H              E E E  E    +H             E E E  E
|
|  +E   E  E  S  S e E E  E    +E   E  E  E   E E E  E
|---------------------------|--------------------------|
|--(2)--3--2--3p=2-0------2-|--(2)--3--2--3----------2-|
|---------------------------|--------------------------|
|---------------------------|-----------------7s5------|
|---------------------------|--------------------------|
|---------------------------|--------------------------|


   +E   E  E  S  S e E Q      W
|-(11)-12-11-12p11-9-------|--------*|
|--------------------------|--------*|
|--------------------------|--------*|
|--------------------------|--------*|
|--------------------------|--------*|
|--------------------------|--------*|
|
|  +E   E  E  S  S E E E E   +W
|------------------------3-|-(3)----*|
|--(2)--3--2--3p=2-0-----3-|-(3)----*|
|--(0)---------------0-3-0-|-(0)----*|
|--(0)---------------0-3-0-|-(0)----*|
|--------------------------|--------*|
|------------------------3-|-(3)----*|
|  +H              H
|
|  +E   E  E  S  S e E Q      W
|--------------------------|--------*|
|--(2)--3--2--3p=2-0-------|--------*|
|--------------------------|--------*|
|--------------------------|--------*|
|--------------------------|--------*|
|--------------------------|--------*|





D'YER MAK'ER
                           As recorded by Led Zeppelin
                    (From the 1973 Album HOUSES OF THE HOLY)

Words and Music by John Bonham, John Paul Jones and Robert Plant
Transcribed by rocktabber

           C                    F                    G                   Am
      8 x x 9 8 8          x x x x 6 5          x x x 0 8 7          x 0 x 5 5 5

Gtr I (E A D G B E) - 'Drum intro and Piano'
Gtr II (E A D G B E) - 'Jimmy (main riff) electric '
Gtr III (E A D G B E) - 'Jimmy (Lead)'
Gtr IV (E A D G B E) - 'Mini Solo Piano'

 Intro
  Reggae/Rock Q=80
 4/4
  W               W
  Gtr I
  H.      E S S   S S E S S E T T T T S S S S S S
|---------------|---------------------------------||
|---------------|---------------------------------||
|---------------|---------------------------------||
|-----------x-x-|-x-x-----x---x-x-x-x---x-x-x-x-x-||
|---------------|---------------------------------||
|---------------|---------------------------------||


  C                Am
  Gtr I
  E E    E     E   E   E   E   E
    |          |       |       |
    /          /       /       /

  Gtr II
    PM|              PM--|
  E S S  S   S S S S S S S S S S S
|-------10/-12-------------7-8-x----|
|---8-8--------0-0-----5---------0--|
|---9-9-10/-12-0-0---5-5-5----------|
|------------------7----------------|
|-----------------------------------|
|-8---------------------------------|


  F                G
  E   E   E    E   E     E   E    E
      |        |         |        |
      /        /         /        /

                      PM---|
  S S S S S  S S S S  S  S S S  S S S
|---------3/-5---------------5/-7---0-|
|-----1----------0---(3)-3-3----------|
|---2---2-3/-5---0----4--4-4-5/-7-7---|
|-3-----------------------------------|
|-------------------------------------|
|------------------3------------------|


  C                        Am                      F               G
   E     E     E     E      E    E   E    E        E   E   E   E   E   E   E   E
         |           |           |        |            |       |       |       |
         /           /           /        /            /       /       /       /

      PM---|
   S  S  S  S  S   E    S   S  S S S S S  S   S    S S S S S S S S S S S S S S S S
|-------------10/-12-----------------7S8-(0)-----|---------3S5-------------5S7-x-0-||
|--------8--8--------------------5-----------(0)-|-----1---------------3-------x-0-||
|-----9--9--9-10/-12---<7>---------5-------------|---2---2-3S5-0-0---4---4-5S7-----||
|----10-10-10------------------7-----------------|-----------------5---------------||
|-10-----------------------(0)-------------------|---------------------------------||
|--8---------------------------------------------|---------------------------------||


 Verse 1
  C                  Am
   E   E    E    E   E   E   E   E
       |         |       |       |
       /         /       /       /

   S S S S  S  S S S S S S S S S S S
|----------10S12-------------7S8-----|
|------8-----------------5-----------|
|----9---9-------x-x-x-5---5-----x-x-|
|-10---------------------------------|
|------------------------------------|
|------------------------------------|


  F                G                 C                  Am
  E   E   E    E   E   E   E   E      E   E    E    E   E   E   E   E
      |        |       |       |          |         |       |       |
      /        /       /       /          /         /       /       /

  S S S S S  S S S S S S S S S S S    S S S S  S  S S S S S S S S S S S
|---------3S=5-------------5S7-----|----------10S12-------------7S8-----|
|-----1--------0-------3---------0-|------8-----------------5-----------|
|---2---2---/5-0-0---4---4-5S7-7---|----9---9-------x-x-x-5---5-----x-x-|
|-3----------------5---------------|-10---------------------------------|
|----------------------------------|------------------------------------|
|----------------------------------|------------------------------------|


  F                G                 C                Am
  E   E   E    E   E   E   E   E      E   E    E    E E   E E   E
      |        |       |       |          |         |     |     |
      /        /       /       /          /         /     /     /

  S S S S S  S S S S S S S S S S S    S S S S  S  S E S S E S S S S
|---------3S=5-------------5S7-----|----------10S12---------7S8------|
|-----1--------0-------3---------0-|------8---------0-----5-----x-x--|
|---2---2---/5-0-0---4---4-5S7-7---|----9---9-------------5----------|
|-3----------------5---------------|-10---------------x-7------------|
|----------------------------------|---------------------------------|
|----------------------------------|---------------------------------|


  F                G                 Am7
  E   E   E    E   E   E   E   E     W
      |        |       |       |
      /        /       /       /

  S S S S S  S S S S S S S S S S S   W
|---------3S=5-------------5S7-----|-5--------|
|-----1--------0-------3---------0-|-5--------|
|---2---2---/5-0-0---4---4-5S7-7---|-5--------|
|-3----------------5---------------|-5--------|
|----------------------------------|-7--------|
|----------------------------------|-5--------|


  W
  S S S S +S  S S S S S S S S S S S
|-------------------------------------||
|-------5-(5)---------5---------------||
|-------5-(5)-5-----5---5-------------||
|-----5---------5h7-------5-5h7-5-----||
|-5h7-----------------------------7---||
|-------------------------------------||


 Verse 2
  C                  Am                F               G
   E   E    E    E   E   E   E   E     E   E   E   E   E   E   E   E
       |         |       |       |         |       |       |       |
       /         /       /       /         /       /       /       /

                 PM--------|             PM--|     PM|
   S S S S  S  S S S S S S S S S S S   S S S S S S S S S S S S S S S S
|----------10S12-------------7S8-----|---------3S5-------------5S7-x-0-|
|------8-----------------5-----------|-----1---------------3-------x-0-|
|----9---9-------x-x-x-5---5-----x-x-|---2---2-3S5-0-0---4---4-5S7-----|
|-10---------------------------------|-----------------5---------------|
|------------------------------------|---------------------------------|
|------------------------------------|---------------------------------|


  C                  Am
   E   E    E    E   E   E   E   E
       |         |       |       |
       /         /       /       /

                 PM|
   S S S S  S  S S S S S S S S S S S
|----------10S12-------------7S8-----|
|------8---------0-0-----5-------x-0-|
|----9---9-------------5---5---------|
|-10-----------------7---------------|
|------------------------------------|
|------------------------------------|


  F                G                 C                  Am
  E   E   E    E   E   E   E   E      E   E    E    E   E   E   E   E
      |        |       |       |          |         |       |       |
      /        /       /       /          /         /       /       /

               PM|                                  PM|
  S S S S S  S S S S S S S S S S S    S S S S  S  S S S S S S S S S S S
|---------3S=5-------------5S7-----|----------10S12-------------7S8-----|
|-----1--------0-------3---------0-|------8---------0-0-----5-------x-0-|
|---2---2---/5-0-0---4---4-5S7-7---|----9---9-------------5---5---------|
|-3----------------5---------------|-10-----------------7---------------|
|----------------------------------|------------------------------------|
|----------------------------------|------------------------------------|


  F                G                 Am7
  E   E   E    E   E   E   E   E     W          W
      |        |       |       |
      /        /       /       /

               PM|
  S S S S S  S S S S S S S S S S S   W          W
|---------3S=5-------------5S7-----|-5--------|------||
|-----1--------0-------3---------0-|-5--------|------||
|---2---2---/5-0-0---4---4-5S7-7---|-5--------|------||
|-3----------------5---------------|-5--------|------||
|----------------------------------|-7--------|------||
|----------------------------------|-5--------|------||


 Chorus 1
  A5  Am                            G
  E   E    E  E   E   E   E   E     E     E   E E E   E   E     E
      |       |       |       |           |     |     |         |
      /       /       /       /           /     /     /         /

  S e   S  E  s S S e   S S S S S   S  e    S e E S e   S S  S  S S
|---------------------------------|----------------------------------|
|---------------------------------|----------------------------------|
|---------(5)---------------------|---(4)-----4-----4---4------------|
|-7-7---7--7------7-7---7-7-7-5-7-|----5----5-5-----5---5----5--5-5S=|
|-7-7---7--7--7-7-7-7---7-7-7-5-7-|-5--5----5-5---5-5-----5--5-------|
|-5-5---5--5--5-5-5-5---5-5-------|-3-------------3-------3-(3)------|


  A5  Am
  E   E   E E E   E   E   E
      |     |     |       |
      /     /     /       /

  S e   S e E S e   S S S S S
|-----------------------------|
|-----------------------------|
|---2---2-2-x-0-2---0-2-2-0-2-|
|-2-2---2-2-x-0-2---0-2-2-0-2-|
|---0---0-0-x-0-------0-------|
|-----------------------------|


  G                                 A5  Am
  E     E   E E E   E   E     E     E   E   E E E   E   E   E
        |     |     |         |         |     |     |       |
        /     /     /         /         /     /     /       /

  S  e    S e E S e   S S  S  S S   S e   S e E S e   S S S S S
|---------------------------------|-----------------------------|
|---------------------------------|-----------------------------|
|---(4)-----4-----4---4-----------|---2---2-2-x-0-2---0-2-2-0-2-|
|----5----5-5-----5---5----5--5-5S|=2-2---2-2-x-0-2---0-2-2-0-2-|
|-5--5----5-5---5-5-----5--5------|---0---0-0-x-0-------0-------|
|-3-------------3-------3-(3)-----|-----------------------------|


  G                                F
  E     E   E E   E   E   E   E    W
        |     |       |       |    |
        /     /       /       /    /

  S  e    S e S S S e   S S S E    S S S S S S S S S S S S S S S S
|--------------------------------|---------------------------------|
|--------------------------------|---1-----1-----1-----1-----1-1---|
|---(4)-----4-x-x---4---2S4-4----|-----2-----2-----2-----2-----2---|
|----5----5-5-x-x---5-----5-5-5\-|-3-----3-----3-----3-----3-----3S|
|-5--5----5-5-----5-5-----5------|---------------------------------|
|-3---------------3-------3------|---------------------------------|


  G                 G/F   G/E   G/D
  W
  |
  /

  S S S S S  S  S S S S S S S S S S
|-------------------------------------||
|---3-----3-(3)---3-----3---3-3---3---||
|-----4------4----4---0-----0-0---0---||
|-5-----5-------5---3-----2-----0-----||
|-------------------------------------||
|-------------------------------------||


 Verse 3
  C                        Am
  Gtr I
   E     E     E     E      E    E   E    E
         |           |           |        |
         /           /           /        /

  Gtr II
      PM---|
   S  S  S  S  S   E    S   S  S S S S S  S   S
|-------------10/-12-----------------7S8-(0)-----|
|--------8--8--------------------5-----------(0)-|
|-----9--9--9-10/-12---<7>---------5-------------|
|----10-10-10------------------7-----------------|
|-10-----------------------(0)-------------------|
|--8---------------------------------------------|


  F               G
  E   E   E   E   E   E   E   E
      |       |       |       |
      /       /       /       /

    PM--|         PM----|
  S S S S S S S S S S S S S S S S
|---------3-5---0---------5-7---0-|
|---1---------0-----3---------0---|
|-----2---------------4-----------|
|-x-----3---------5-----5---------|
|---------------------------------|
|---------------------------------|


  C                   Am                F               G
   E   E     E    E   E   E   E   E     E   E   E   E   E   E   E   E
       |          |       |       |         |       |       |       |
       /          /       /       /         /       /       /       /

     PM--|              PM--|             PM--|         PM----|
   S S S  S  S  S S S S S S S S S S S   S S S S S S S S S S S S S S S S
|-----------10-12-x-x---------7-8-----|---------3-5---0---------5-7---0-|
|----8------------------5---------0-0-|---1---------0-----3---------0---|
|------9------------------5-----------|-----2---------------4-----------|
|-10-----10-----------x-----7---------|-x-----3---------5-----5---------|
|-------------------------------------|---------------------------------|
|-------------------------------------|---------------------------------|


  C                   Am                F                G
   E   E     E    E   E   E   E   E     E   E   E    E   E   E   E   E
       |          |       |       |         |        |       |       |
       /          /       /       /         /        /       /       /

     PM--|              PM--|
   S S S  S  S  S S S S S S S S S S S   S S S S S  S S S S S S S S S S S
|-----------10-12-x-x---------7-8-----|---------3S=5-------------5S7-----|
|----8------------------5---------0-0-|-----1--------0-------3---------0-|
|------9------------------5-----------|---2---2---/5-0-0---4---4-5S7-7---|
|-10-----10-----------x-----7---------|-3----------------5---------------|
|-------------------------------------|----------------------------------|
|-------------------------------------|----------------------------------|


  Am7
  W          S S S  S  +Q   +E  S S S S E
|-5--------|------------------------------||
|-5--------|------------------------------||
|-5--------|--------5--(5)--(5)-----5-----||
|-5--------|-----5-(5)-(5)--(5)-----5-7-5-||
|-7--------|-5-7----------------5-7-------||
|-5--------|------------------------------||


 Verse 4
  C                  Am                F                G
  Gtr I
   E   E    E    E   E   E   E   E     E   E   E    E   E   E   E    E
       |         |       |       |         |        |       |        |
       /         /       /       /         /        /       /        /

  Gtr II
   PM----|           PM----|             PM--|            PM--|
   S S S S  S  S S S S S S S S S S S   S S S S S  S S S S S S S S S  S   S
|----------10S12-------------7S8-----|---1-----3S=5-------3-----5S7---------|
|------8---------0-0-----5-------x-0-|-----1----------x-----3---------------|
|----9---9-------------5---5---------|-------2---/5-5---------4-----<5>-<7>-|
|-10-----------------7---------------|-3----------------5-------------------|
|------------------------------------|--------------------------------------|
|------------------------------------|--------------------------------------|


  C                  Am                F                G
   E   E    E    E   E   E   E   E     E   E   E    E   E   E   E   E
       |         |       |       |         |        |       |       |
       /         /       /       /         /        /       /       /

   S S S S  S  S S S S S S S S S S S   S S S S S  S S S S S S S S S S S
|----8-----10S12-------5-----7S8-----|---------3S=5-------------5S7-----|
|------8---------x-0-----5---------0-|---1------------0---3---------8---|
|--------9-----------------5-----x---|-----2-----/5-5-------4---5S7---7-|
|-10-----------------7---------------|-3-----3----------5-----5---------|
|------------------------------------|-3----------------5---------------|
|------------------------------------|-1----------------3---------------|


  C                  Am                F                G
   E   E    E    E   E   E   E   E     E   E   E    E   E   E   E   E
       |         |       |       |         |        |       |       |
       /         /       /       /         /        /       /       /

   S S S S  S  S S S S S S S S S S S   S S S S S  S S S S S S S S S S S
|----8-----10S12-------5-----7S8-----|---------3S=5-------------5S7-----|
|------8---------x-0-----5---------0-|---1------------0---3---------8---|
|--------9-----------------5-----x---|-----2-----/5-5-------4---5S7---7-|
|-10-----------------7---------------|-3-----3----------5-----5---------|
|------------------------------------|-3----------------5---------------|
|------------------------------------|-1----------------3---------------|


  Am7
  W          W
|-5--------|------||
|-5--------|------||
|-5--------|------||
|-5--------|------||
|-7--------|------||
|-5--------|------||


 Chorus 2
  A5  Am                            G
  Gtr I
  E   E    E  E   E   E   E   E     E     E   E E E   E   E     E
      |       |       |       |           |     |     |         |
      /       /       /       /           /     /     /         /

  Gtr II
  S e   S  E  s S S e   S S S S S   S  e    S e E S e   S S  S  S S
|---------------------------------|----------------------------------|
|---------------------------------|----------------------------------|
|---------(5)---------------------|---(4)-----4-----4---4------------|
|-7-7---7--7------7-7---7-7-7-5-7-|----5----5-5-----5---5----5--5-5S=|
|-7-7---7--7--7-7-7-7---7-7-7-5-7-|-5--5----5-5---5-5-----5--5-------|
|-5-5---5--5--5-5-5-5---5-5-------|-3-------------3-------3-(3)------|


  A5  Am                        G
  E   E   E E E   E   E   E     E     E   E E E   E   E     E
      |     |     |       |           |     |     |         |
      /     /     /       /           /     /     /         /

  S e   S e E S e   S S S S S   S  e    S e E S e   S S  S  S S
|-----------------------------|----------------------------------|
|-----------------------------|----------------------------------|
|---2---2-2-x-0-2---0-2-2-0-2-|---(4)-----4-----4---4------------|
|-2-2---2-2-x-0-2---0-2-2-0-2-|----5----5-5-----5---5----5--5-5S=|
|---0---0-0-x-0-------0-------|-5--5----5-5---5-5-----5--5-------|
|-----------------------------|-3-------------3-------3-(3)------|


  A5  Am                        G
  E   E   E E E   E   E   E     E     E   E E   E   E   E   E
      |     |     |       |           |     |       |       |
      /     /     /       /           /     /       /       /

  S e   S e E S e   S S S S S   S  e    S e S S S e   S S S E
|-----------------------------|--------------------------------|
|-----------------------------|--------------------------------|
|---2---2-2-x-0-2---0-2-2-0-2-|---(4)-----4-x-x---4---2S4-4----|
|-2-2---2-2-x-0-2---0-2-2-0-2-|----5----5-5-x-x---5-----5-5-5\-|
|---0---0-0-x-0-------0-------|-5--5----5-5-----5-5-----5------|
|-----------------------------|-3---------------3-------3------|


  F                                 G                 G/F   G/E   G/D
  W                                 W
  |                                 |
  /                                 /

  S S S S S S S S S S S S S S S S   S S S S S  S  S S S S S S S S S S
|---------------------------------|-----------------------------------||
|---1-----1-----1-----1-----1-1---|---3-----3-(3)---3-----3---3-3---3-||
|-----2-----2-----2-----2-----2---|-----4------4----4---0-----0-0---0-||
|-3-----3-----3-----3-----3-----3S|=5-----5-------5---3-----2-----0---||
|---------------------------------|-----------------------------------||
|---------------------------------|-----------------------------------||


 Guitar Solo
  C                      Am                    F                   G
  Gtr I
   E    E       E    E   E     E     E   E      E    E   E     E    E        E    E   E
        |            |         |         |           |         |             |        |
        /            /         /         /           /         /             /        /

  Gtr III
                                         ~~~~~~~~~~
                         |---3---|
   S  S E      +E    E   Q       E   S S E     +Q        E   a E    E        E    S e    S
|--------------------------------------------|-------------------------------7----------10b12-|
|------------------------6b8-----6---5-------|---------------------10b12---------10-8---------|
|-----x-7pb9r==(7)---5-----------------7-----|---------------7s9------------------------------|
|----------------------------------------7---|-(7)--------------------------------------------|
|-(3)----------------------------------------|------------------------------------------------|
|--------------------------------------------|------------------------------------------------|
|
| Gtr II
|       PM---|           PM--------|                                      PM---|
|  E    S    S  S  S S S S   S S   S S S S S    S  S S S S S   S S  S     S  S S  S S S  S
|--------------10S12-----------------7-8-----|-----------3S5----------------------5S7----0----|
|-------8----8-------0-0-------5---------x-0-|-------1-----------0-------(3)-3-3--------------|
|-------9----9-10S12-0-0-----5-5---5---------|-----2---2-3S5-----0--------4--4-4--5S7-7-------|
|------------------------7-------------------|--3---------------------------------------------|
|--------------------------------------------|------------------------------------------------|
|--8-----------------------------------------|----------------------3-------------------------|


  C                    Am
    E    E    E    E    E       E   E         E
         |         |            |             |
         /         /            /             /

   +Q         E    E    E       E   S.  T    +E
|-(10)-------10----8---10b11---10---8---------------|
|---------------------------------------8b10-(8)----|
|---------------------------------------------------|
|---------------------------------------------------|
|---------------------------------------------------|
|---------------------------------------------------|
|
|                    PM-----------|
|   S  S S S  S  S S S  S    S  S S S S       S  S
|------8-----10S12-----------5------7S8-------------|
|--------8---------x-0----------5----------------0--|
|----------9----------------------5-----------x-----|
|--10-------------------7---------------------------|
|---------------------------------------------------|
|---------------------------------------------------|


  F                          G
   E    E    E    E           E      E   E      E
        |         |                  |          |
        /         /                  /          /

  +Q        +S  E    S       +S  +S  e   S   S  S   S
|------------------------------------------------------|
|-(8)-------(8)-----(8)pb10==(8)r(8)-5-----------------|
|----------------------------------------7b9-7--5------|
|---------------------------------------------------7--|
|------------------------------------------------------|
|------------------------------------------------------|
|
|     PM--|                       PM---|
|  S  S S S  S  S S  S        S   S  S S S   S  S   S
|-----1------3S=5-----------------3------5S==7---------|
|-------1------------x---------------3-----------------|
|---------2----/5-5--------------------4-------<5>-<7>-|
|--3--------------------------5------------------------|
|------------------------------------------------------|
|------------------------------------------------------|


  C                      Am
   E    E    E    E       E     E    E   E
        |         |             |        |
        /         /             /        /

   ~~~                                   ~
   Q.             E      +E    +E    S S E
|--------------------------------------------|
|--------------------------------------------|
|--5--------------7b9====(7)r==(7)---5---5---|
|--------------------------------------7-----|
|--------------------------------------------|
|--------------------------------------------|
|
|     PM--|            PM----------|
|  S  S S S  S  S S    S  S  S  S  S S S S S
|-----8-----10S12------------5-------7S8-----|
|-------8---------x----0--------5----------0-|
|---------9------------------------5-----x---|
|-10----------------------7------------------|
|--------------------------------------------|
|--------------------------------------------|


  F                      G                          Am7
   E     E    E     E     E      E    E   E           W            W
         |          |            |        |
         /          /            /        /

   ~~~                                                ~~~~
  +E     E    E     E     E      E    S e    S       +W            W
|--------------------------------7----------10b12-|-(10)--------|--------||
|------------------(5)---10b12-------10-8---------|-------------|--------||
|-(5)---------------------------------------------|-------------|--------||
|-------(7)---------------------------------------|-------------|--------||
|-------------------------------------------------|-------------|--------||
|-------------------------------------------------|-------------|--------||
|
|                                                                  >
|     PM----|                  PM--|
|  S  S  S  S S  S  S  S  S    S S S  S S S  S        W           +W
|-------------3S=5--------------------5S7---------|---5---------|-(5)----||
|-----1----------------0-------3----------8-------|---5---------|-(5)----||
|--------2------/5--5------------4----5S7----7----|---5---------|-(5)----||
|--3--------3-------------5--------5--------------|---5---------|-(5)----||
|--3----------------------5-----------------------|---7---------|-(7)----||
|--1----------------------3-----------------------|---5---------|-(5)----||


 Verse 5
  C                  Am                F               G
  Gtr I
   E   E    E    E   E   E   E   E     E   E   E   E   E   E   E   E
       |         |       |       |         |       |       |       |
       /         /       /       /         /       /       /       /

  Gtr II
   PM----|                             PM----|         PM----|
   S S S S  S  S S S S S S S S S S S   S S S S S S S S S S S S S S S S
|----------10S12-------5-----7S8-----|---1-----3S5-------3-----5S7-----|
|----8-------------0-------------0-0-|---------------0-----3---------0-|
|------9-9-10S12-x-------5-------0---|-----2---3S5-5---------4-5S7-7---|
|-10-----------------7-----7---------|-3-----3---------------5---------|
|------------------------------------|-----------------5---------------|
|------------------------------------|-----------------3---------------|


  C                  Am                F               G
   E   E    E    E   E   E   E   E     E   E   E   E   E   E   E   E
       |         |       |       |         |       |       |       |
       /         /       /       /         /       /       /       /

   PM----|                             PM----|         PM----|
   S S S S  S  S S S S S S S S S S S   S S S S S S S S S S S S S S S S
|----------10S12-------5-----7S8-----|---1-----3S5-------3-----5S7-----|
|----8-------------0-------------0-0-|---------------0-----3---------0-|
|------9-9-10S12-x-------5-------0---|-----2---3S5-5---------4-5S7-7---|
|-10-----------------7-----7---------|-3-----3---------------5---------|
|------------------------------------|-----------------5---------------|
|------------------------------------|-----------------3---------------|


  C                  Am                F               G
   E   E    E    E   E   E   E   E     E   E   E   E   E   E   E   E
       |         |       |       |         |       |       |       |
       /         /       /       /         /       /       /       /

   PM----|                             PM----|         PM----|
   S S S S  S  S S S S S S S S S S S   S S S S S S S S S S S S S S S S
|----------10S12-------5-----7S8-----|---1-----3S5-------3-----5S7-----|
|----8-------------0-------------0-0-|---------------0-----3---------0-|
|------9-9-10S12-x-------5-------0---|-----2---3S5-5---------4-5S7-7---|
|-10-----------------7-----7---------|-3-----3---------------5---------|
|------------------------------------|-----------------5---------------|
|------------------------------------|-----------------3---------------|


  W          S S S S +S  S S S S S S S S S S S
|-5--------|-----------------------------------||
|-5--------|-------5-(5)-----------------------||
|-5--------|-------5-(5)-5-------5-----5-7-----||
|-5--------|-----5-------------5---5-7-5---5-7-||
|-7--------|-5-7-----------5-7-----------------||
|-5--------|-----------------------------------||


 Outro Verse
  C                  Am                F                G
  Gtr I
   E   E    E    E   E   E   E   E     E   E   E    E   E   E   E   E
       |         |       |       |         |        |       |       |
       /         /       /       /         /        /       /       /

  Gtr II
   S S S S  S  S S S S S S S S S S S   S S S S S  S S S S S S S S S S S
|----8-----10S12-------5-----7S8-----|---------3S=5-------------5S7-----|
|------8---------x-0-----5---------0-|---1------------0---3---------8---|
|--------9-----------------5-----x---|-----2-----/5-5-------4---5S7---7-|
|-10-----------------7---------------|-3-----3----------5-----5---------|
|------------------------------------|-3----------------5---------------|
|------------------------------------|-1----------------3---------------|


  C                  Am
   E   E    E    E   E   E   E   E
       |         |       |       |
       /         /       /       /

   S S S S  S  S S S S S S S S S S S
|----8-----10S12-------5-----7S8-----|
|------8---------x-0-----5---------0-|
|--------9-----------------5-----x---|
|-10-----------------7---------------|
|------------------------------------|
|------------------------------------|


  F                G                 C                  Am
  E   E   E    E   E   E   E   E      E   E    E    E   E   E   E   E
      |        |       |       |          |         |       |       |
      /        /       /       /          /         /       /       /

  S S S S S  S S S S S S S S S S S    S S S S  S  S S S S S S S S S S S
|---------3S=5-------------5S7-----|----------10S12-------5-----7S8-----|
|-----1--------0-------3---------0-|------8-----------0-----5-------0-x-|
|---2---2---/5-0-0---4---4-5S7-7---|----9-9-9-10S12-5---------5---------|
|-3----------------5---------------|-10-----------------7---------------|
|----------------------------------|------------------------------------|
|----------------------------------|------------------------------------|


  F                G                 C                  Am
  E   E   E    E   E   E   E   E      E   E   E     E   E   E   E   E
      |        |       |       |          |         |       |       |
      /        /       /       /          /         /       /       /

    PM--|            PM
  S S S S S  S S S S S S S S S S S    S S S S S  S  S S S S S S S S S S
|---1-----3S=5-------3-----5S7-----|----8-----8-10S12-----5-----5-7-8-7\-|
|-----1--------0-----------------0-|------8-----------0-----5------------|
|-------2---/5---5-----4-------0---|--------9-----------------5----------|
|-3----------------5-----5---------|-10-----------------7----------------|
|----------------------------------|-------------------------------------|
|----------------------------------|-------------------------------------|


  F                     G
  E   E   E      E      E   E   E      E
      |          |          |          |
      /          /          /          /

    PM--|                 PM
  S S S S S  S   S   S  S S S S S  S   S   S
|---1-----1--3S==5--(3)---3-----3--5S==7------|
|-----1---------------------3-----------------|
|-------2---(3)S(5)-----------4---(5)S(7)-(7)-|
|-3---------------------5---------------------|
|---------------------------------------------|
|---------------------------------------------|


  C                  Am                 F                     G
   E   E   E     E   E   E   E   E      E   E   E      E      E   E   E      E
       |         |       |       |          |          |          |          |
       /         /       /       /          /          /          /          /

                                          PM--|                 PM
   S S S S S  S  S S S S S S S S S S    S S S S S  S   S   S  S S S S S  S   S   S
|----8-----8-10S12-----5-----5-7S8-7\-|---1-----1--3S==5--(3)---3-----3--5S==7------|
|------8-----------0-----5------------|-----1---------------------3-----------------|
|--------9-----------------5----------|-------2---(3)S(5)-----------4---(5)S(7)-(7)-|
|-10-----------------7----------------|-3---------------------5---------------------|
|-------------------------------------|---------------------------------------------|
|-------------------------------------|---------------------------------------------|


  C                  Am
   E   E   E     E   E   E   E   E
       |         |       |       |
       /         /       /       /

   S S S S S  S  S S S S S S S S S S
|----8-----8-10S12-----5-----5-7S8-7\-|
|------8-----------0-----5------------|
|--------9-----------------5----------|
|-10-----------------7----------------|
|-------------------------------------|
|-------------------------------------|


  F                     G                       C                  Am
  E   E   E      E      E   E   E      E         E   E   E     E   E   E   E   E
      |          |          |          |             |         |       |       |
      /          /          /          /             /         /       /       /

    PM--|                 PM
  S S S S S  S   S   S  S S S S S  S   S   S     S S S S S  S  S S S S S S S S S S
|---1-----1--3S==5--(3)---3-----3--5S==7------|----8-----8-10S12-----5-----5-7S8-7\-|
|-----1---------------------3-----------------|------8-----------0-----5------------|
|-------2---(3)S(5)-----------4---(5)S(7)-(7)-|--------9-----------------5----------|
|-3---------------------5---------------------|-10-----------------7----------------|
|---------------------------------------------|-------------------------------------|
|---------------------------------------------|-------------------------------------|


  F                     G                       C                  Am
  Gtr I
  E   E   E      E      E   E   E      E         E   E   E     E   E   E   E   E
      |          |          |          |             |         |       |       |
      /          /          /          /             /         /       /       /

  Gtr II
    PM--|                 PM
  S S S S S  S   S   S  S S S S S  S   S   S     S S S S S  S  S S S S S S S S S S
|---1-----1--3S==5--(3)---3-----3--5S==7------|----8-----8-10S12-----5-----5-7S8-7\-|
|-----1---------------------3-----------------|------8-----------0-----5------------|
|-------2---(3)S(5)-----------4---(5)S(7)-(7)-|--------9-----------------5----------|
|-3---------------------5---------------------|-10-----------------7----------------|
|---------------------------------------------|-------------------------------------|
|---------------------------------------------|-------------------------------------|
|
| W                                              W
|---------------------------------------------|-------------------------------------|
|---------------------------------------------|-------------------------------------|
|---------------------------------------------|-------------------------------------|
|---------------------------------------------|-------------------------------------|
|---------------------------------------------|-------------------------------------|
|---------------------------------------------|-------------------------------------|


  F                     G
  E   E   E      E       E      E      E      E
      |          |              |             |
      /          /              /             /

    PM--|                   PM
  S S S S S  S   S   S   S  S   S   S  S  S   S   S
|---1-----1--3S==5--(3)-----3----------3--5S==7------||
|-----1-------------------------3--------------------||
|-------2---(3)S(5)-----------------4----(5)S(7)-(7)-||
|-3----------------------5---------------------------||
|----------------------------------------------------||
|----------------------------------------------------||
|
| Gtr IV
| H                      S  S  +S   S  S  S   S   S
|-----------------------12-12-(12)-12-10--8---7--(5)-||
|----------------------------------------------------||
|-----------------------12-12-(12)-12-10--9---7--(5)-||
|-----------------------14-14-(14)-14-12-10---9--(7)-||
|----------------------------------------------------||
|----------------------------------------------------||


  C                  Am
   E   E   E     E   E   E   E   E
       |         |       |       |
       /         /       /       /

   S S S S S  S  S S S S S S S S S S
|----8-----8-10S12-----5-----5-7S8-7\-|
|------8-----------0-----5------------|
|--------9-----------------5----------|
|-10-----------------7----------------|
|-------------------------------------|
|-------------------------------------|


  F                     G                       C                  Am
  E   E   E      E      E   E   E      E         E   E   E     E   E   E   E   E
      |          |          |          |             |         |       |       |
      /          /          /          /             /         /       /       /

    PM--|                 PM
  S S S S S  S   S   S  S S S S S  S   S   S     S S S S S  S  S S S S S S S S S S
|---1-----1--3S==5--(3)---3-----3--5S==7------|----8-----8-10S12-----5-----5-7S8-7\-|
|-----1---------------------3-----------------|------8-----------0-----5------------|
|-------2---(3)S(5)-----------4---(5)S(7)-(7)-|--------9-----------------5----------|
|-3---------------------5---------------------|-10-----------------7----------------|
|---------------------------------------------|-------------------------------------|
|---------------------------------------------|-------------------------------------|


  F                     G
  E   E   E      E      E   E   E      E
      |          |          |          |
      /          /          /          /

    PM--|                 PM
  S S S S S  S   S   S  S S S S S  S   S   S
|---1-----1--3S==5--(3)---3-----3--5S==7------|
|-----1---------------------3-----------------|
|-------2---(3)S(5)-----------4---(5)S(7)-(7)-|
|-3---------------------5---------------------|
|---------------------------------------------|
|---------------------------------------------|


  C                  Am
   E   E   E     E   E   E   E   E
       |         |       |       |
       /         /       /       /

   S S S S S  S  S S S S S S S S S S
|----8-----8-10S12-----5-----5-7S8-7\-*|
|------8-----------0-----5------------*|
|--------9-----------------5----------*|
|-10-----------------7----------------*|
|-------------------------------------*|
|-------------------------------------*|




 NO QUARTER
                           As recorded by Led Zeppelin
                    (From the 1973 Album HOUSES OF THE HOLY)

Words by Robert Plant

Music by Led Zeppelin
Transcribed by rocktabber

Gtr I (E A D G B E) - 'Electric Piano Arranged for Guitar'
Gtr II (E A D G B E) - 'Guitar (Clean)'
Gtr III (E A D G B E) - 'Guitar (Distorted)'

 Intro
  Slowly Q=68
  C#m7                                  C#m11       C#m7
 4/4
  Gtr I
  E E S S S E E S E S S   E S S S S S E E E S S S   E S S S S S E E S E S S
|-----------------------|-------------------------|---------------------------|
|-----5-4---4-----------|-------5-4---4---7-------|-------5-4---4-------------|
|---6-----6---4---------|---6-------6---------4---|---6-------6---4-----------|
|-----------------4-6---|-----6-----------------6-|-----6-------------4-6-----|
|-4-------------4-------|-4-------------4---4-----|-4---------------4---------|
|---------------------4-|-------------------------|-----------------------4---|


                    C#m11 C#m7
  E S S S S S E E S E E   E S E. S E. S S  S  S  S S   E S S S E Q  S E S S
|-----------------------|-----4----7----9-------11---|-------7-4-6-----------|
|-------5-4---4-----7---|----------------------------|-----4-----------------|
|---6-------6-----4-----|--------4------------8----6-|---6------------6------|
|-----6-----------------|---6------------------------|-----------------------|
|-4-------------4-----4-|-4--------------------------|-4------------4-----4--|
|-----------------------|-------------9---(9)--------|------------------4----|


                                    C#m11        C#m7
  S S S E. S E E S E S S   E E. E S E E. S S S   E S E. S E. S S  S  S  S S
|-------7----7-9---------|---------------------|-----4----7----9-------11----|
|-----0----0-----7---9---|------5-5-7----------|-----------------------------|
|---6----------6-------6-|---6--6-6-4----------|--------4------------8----6--|
|------------------------|---6--6---4----8-----|---6-------------------------|
|-4----------------9-----|-4----------4------4-|-4---------------------------|
|------------------------|-----------------4---|-------------9---(9)---------|


                                                             C#m11
  E S S S E Q  S E S S   S S S E. S E E S E S  S    E E. E S E E. S S S
|-------7-4-6----------|-------7----7-9-----------|----------------------|
|-----4----------------|-----0----0-----7---9-(9)-|------5-5-7-----------|
|---6------------6-----|---6----------6--------6--|---6--6-6-4-----------|
|----------------------|--------------------------|---6--6---4----0------|
|-4------------4-----4-|-4----------------9-------|-4----------4------4--|
|------------------4---|--------------------------|-----------------4----|


  C#m7                             A/D#
  Gtr I
  E S E. S E.     S S S S  S S     W
|-----4----7--------9-----11-----|--------------|
|--------------------------------|--------------|
|--------4--------------8----6---|--------------|
|---6----------------------------|--------------|
|-4------------------------------|--------------|
|-----------------9---9----------|--------------|
|
| Gtr II
| H           Q..            T T   S E. H.
|--------------------------------|--------------|
|--------------------------------|---4--4-------|
|--------------------------------|-6----6-------|
|------------------------------7-|------7-------|
|----------------------------7---|------7-------|
|--------------------------------|--------------|


                   D
  W                W          W
|----------------|----------|------|
|----------------|----------|------|
|----------------|----------|------|
|----------------|----------|------|
|----------------|----------|------|
|----------------|----------|------|
|
| H    Q..   T T   W          W
|----------------|----------|------|
|----------------|-7--------|------|
|--------------7-|----------|------|
|------------7---|----------|------|
|----------------|----------|------|
|----------------|----------|------|


        C#5   B5    C#5   B5  C#5       F#5           E5      C#5
    Gtr III
                                                   ~~       ~
    S S S S S S S S S S S S S S S S   S   S  S S S E. E S S S E.  4x
||----------------------------------|-----------------------------||
||o---------------------------------|----------------------------o||
||----------------------------------|-----------------------------||
||------6-6-6S4-----6-6-6S4-----6---|-----------------------2-----||
||o-2S4-4-4-4S2-2S4-4-4-4S2-2S4---4-|---/(4)-4-4-4-2----2-----4--o||
||----------------------------------|-0S==2--2-2------0---4-------||


  C#m7                         C#m11
  Gtr I
  E    E  S  S S E E S E S S   E S S S S S E E E S S S
|----------------------------|-------------------------|
|---------5--4---4-----------|-------5-4---4---7-------|
|------6-------6---4---------|---6-------6---------4---|
|----------------------4-6---|-----6-----------------6-|
|-4------------------4-------|-4-------------4---4-----|
|--------------------------4-|-------------------------|
|
| Gtr III
| >
| S E.   +H.                   W
|----------------------------|-------------------------|
|----------------------------|-------------------------|
|----------------------------|-------------------------|
|----------------------------|-------------------------|
|-2S4----(4)-----------------|-------------------------|
|----------------------------|-------------------------|


  C#m7                                          C#m11
  E S S S S S E E S E S S   E S S S S S E E S E E
|-------------------------|--------------------------||
|-------5-4---4-----------|-------5-4---4-----7------||
|---6-------6---4---------|---6-------6-----4--------||
|-----6-------------4-6---|-----6--------------------||
|-4---------------4-------|-4-------------4-----4----||
|-----------------------4-|--------------------------||
|
| W                         W
|-------------------------|--------------------------||
|-------------------------|--------------------------||
|-------------------------|--------------------------||
|-------------------------|--------------------------||
|-------------------------|--------------------------||
|-------------------------|--------------------------||


 Verse
  C#m7
  Gtr I
  E S E. S E. S S S S  S S   E S S S E Q  S E S S   S S S E. S E E S E S S
|-----4----7----9-----11---|-------7-4-6----------|-------7----7-9----------|
|--------------------------|-----4----------------|-----0----0-----7---9----|
|--------4----------8----6-|---6------------6-----|---6----------6-------6--|
|---6----------------------|----------------------|-------------------------|
|-4------------------------|-4------------4-----4-|-4----------------9------|
|-------------9---9--------|------------------4---|-------------------------|


           C#m11        C#m7
  E E. E S E E. S S S   E S E. S E. S S S S  S S
|---------------------|-----4----7----9-----11---|
|------5-5-7----------|--------------------------|
|---6--6-6-4----------|--------4----------8----6-|
|---6--6---4----0-----|---6----------------------|
|-4----------4------4-|-4------------------------|
|-----------------4---|-------------9---9--------|


                                                           C#m11
  E S S S E Q  S E S S   S S S E. S E E S E S S   E E. E S E E. S S S
|-------7-4-6----------|-------7----7-9---------|----------------------|
|-----4----------------|-----0----0-----7---9---|------5-5-7-----------|
|---6------------6-----|---6----------6-------6-|---6--6-6-4-----------|
|----------------------|------------------------|---6--6---4----8------|
|-4------------4-----4-|-4----------------9-----|-4----------4------4--|
|------------------4---|------------------------|-----------------4----|


  C#m7      B                A/D#
  Gtr I
  E S S E S E.   S S E S S   W
|-------4---7--------9-----|------------|
|--------------------------|------------|
|---6-----4--------6---8---|------------|
|-----6--------------------|------------|
|-4------------------------|------------|
|----------------7-------7-|------------|
|
| Gtr II
| H            Q     E S S   S E. H.
|--------------------------|------------|
|--------------------------|---4--4-----|
|--------------------------|-6----6-----|
|------------------------7-|------7-----|
|----------------------7---|------7-----|
|--------------------------|------------|


                   D/G#       N.C.
  Gtr II
  H    Q..   T T   W          W
|----------------|-4--------|------||
|----------------|-7--------|------||
|--------------7-|----------|------||
|------------7---|----------|------||
|----------------|----------|------||
|----------------|----------|------||


 Chorus
      C#5   B5    C#5   B5    C#5     F#5           E5      C#5
  Gtr III
                                                 ~~       ~
  S S S S S S S S S S S S S S S S   S   S  S S S E. E S S S E.
|---------------------------------|----------------------------|
|---------------------------------|----------------------------|
|---------------------------------|----------------------------|
|-----6-6-6S4-----6-6-6S4-----6---|-----------------------2----|
|-2S4-4-4-4S2-2S4-4-4-4S2-2S4---4-|---/(4)-4-4-4-2----2-----4--|
|---------------------------------|-0S==2--2-2------0---4------|


             B5    C#5   B5    C#5
  S S S  S S S S S S S S S S S  S  S
|------------------------------------|
|------------------------------------|
|------------------------------------|
|-----6\-6-6-4-----6-6-6S4------6----|
|-2S4-4--4-4-2-2S4-4-4-4S2-2S4-(4)-4-|
|------------------------------------|


    F#5         E5    C#5              B5    C#5   E5  C#5
             ~~       ~
  S  S S S S E. E S S S E.   S S S S S S S S S S S S S S S S
|--------------------------|---------------------------------|
|--------------------------|---------------------------------|
|--------------------------|---------------------------------|
|---------------------2----|-----6-6-6S4-----6-6-6S4-----6---|
|---/4-4-4-4-2----2-----4--|-2S4-4-4-4S2-2S4-4-4-4S2-2S4---4-|
|-0S=2-2-2------0---4------|---------------------------------|


    F#5             E5  C#5
  S   S  S S S E. E S S S E.
|----------------------------|
|----------------------------|
|----------------------------|
|-----------------------2----|
|---/(4)-4-4-4-2----2-----4--|
|-0S==2--2-2------0---4------|


            B5    C#5   B5    C#5     F#5               E5  C#5
  S S S S S S S S S S S S S S  S  S   S   S  S S S E. E S S S E.
|-----------------------------------|----------------------------|
|-----------------------------------|----------------------------|
|-----------------------------------|----------------------------|
|-----6-6-6S4-----6-6-6S4------6----|-----------------------2----|
|-2S4-4-4-4S2-2S4-4-4-4S2-2S4-(4)-4-|---/(4)-4-4-4-2----2-----4--|
|-----------------------------------|-0S==2--2-2------0---4------|


  C#m7
  Gtr I
  E    E  S  S S S +S  E S E S S     E E S S S E E S E S S
|--------------------------------||------------------------|
|---------5--4---4-(4)-----------||o-----5-4---4-----------|
|------6-------6-------4---------||----6-----6---4---------|
|--------------------------4-6---||------------------4-6---|
|-4----------------------4-------||o-4-------------4-------|
|------------------------------4-||----------------------4-|
|
| Gtr III
| S E.   +H.                         W
|--------------------------------||------------------------|
|--------------------------------||o-----------------------|
|--------------------------------||------------------------|
|--------------------------------||------------------------|
|-2S4----(4)---------------------||o-----------------------|
|--------------------------------||------------------------|


  E E S S S E E S E S S   E E S S S E E S E S S  5x
|-----------------------|------------------------||
|-----5-4---4-----------|-----5-4---4-----------o||
|---6-----6---4---------|---6-----6---4----------||
|-----------------4-6---|-----------------4-6----||
|-4-------------4-------|-4-------------4-------o||
|---------------------4-|---------------------4--||
|
| W                       W                      5x
|-----------------------|------------------------||
|-----------------------|-----------------------o||
|-----------------------|------------------------||
|-----------------------|------------------------||
|-----------------------|-----------------------o||
|-----------------------|------------------------||


 Guitar Solo
  C#m7
  Gtr II
             |3| |3| |-3-|              |-3-|
  W          E S E S S S S a S S S S a  S S S  a  S  S S S
|----------|-----------------------------------------------|
|----------|-----------------------------------------------|
|----------|-----------------------------------------------|
|----------|---9p6-9p6---6------------------9-11h13-11---9-|
|----------|-----------7---7s9-7----------9----------------|
|----------|---------------------9-7-9s11------------------|
|
| Gtr III
| W          W
|----------|-----------------------------------------------|
|----------|-----------------------------------------------|
|----------|-----------------------------------------------|
|----------|-----------------------------------------------|
|----------|-----------------------------------------------|
|----------|-----------------------------------------------|


                   >
               ~~~~~~~
      |--3--|
   a  S  S  S  E  +H.
|----------------------------------------------|
|----------------------------------------------|
|----------------------------------------------|
|-11h13p11----11-(11)--------------------------|
|----------13----------------------------------|
|----------------------------------------------|
|
|                                          ~~~
|                         |-3-|   |-3-|
|     Q            S  S a S S S a S S S E +Q
|----------------------------------------------|
|----------------------------------------------|
|-------------------------------6s8-6---6-(6)--|
|-------------------------------------9--------|
|---------------------2-4s6-4------------------|
|-----------------------------7----------------|


  Gtr II
                                     ~~~
        |-3--| |-----6-----| |-----6-----| |----6-----|   |--3---|
   S  S S  S S S  S S  S S S S  S S  S S S S S S  S S S   S   S  S  E    +Q              H
|-------------------------------------------------------|------------------------------------------------|
|-------------------------------------------------------|------------------------------------------------|
|--------------8-11p8-11p8---8-11p8-11p8---8------------|------------------------------------------------|
|-----9S8----9-------------9-------------9---9p8----8-9p|=8----------------------------------------------|
|---------11-------------------------------------11-----|----11-11-11---(11)-----------------------------|
|-------------------------------------------------------|------------------------------------------------|
|
| Gtr III
|  >
|                                                                                               ~~~~~~~~~~
|                                                                         |--3---|
| +H.                                      Q              E.          S   S   S  S  S S  T T S  E   +Q
|-------------------------------------------------------|------------------------------------------------|
|-------------------------------------------------------|------------------------------------------------|
|-(6)---------------------------------------------------|-----------------------------9-11p9p8-----------|
|-------------------------------------------------------|-------------9p==8--------------------11p-(11)--|
|-------------------------------------------------------|--------------------11-11-11--------------------|
|-------------------------------------------------------|------------------------------------------------|


                  ~
          |--3--|                                   |-----5------|
    S   S S  S  S S  S  S. a  T  S a  S   S   a  S  s  s  S  S   S
|--------------------------------------------------------14p11-----|
|---------------------------------------(12)-------11-12-------h12-|
|-----------------9--------9-11-11-9h11------11s13-----------------|
|---------9-10-11---11-11------------------------------------------|
|------11----------------------------------------------------------|
|------------------------------------------------------------------|
|
|~~~~~~
|  +Q.                  E        H
|------------------------------------------------------------------|
|------------------------------------------------------------------|
|------------------------------------------------------------------|
|-(11)-------------------------------------------------------------|
|------------------------------------------------------------------|
|------------------------------------------------------------------|


  Gtr II
   |--3---|  |--3--|  |--3--|  |-3--| |-3--|  |-3--|       |-3--|
   S  S   S  S  S  S  S  S  S  s S  S S  S S  S  S S S  S  S S  S
|-14p11-----11----------------------------------------------------|
|-------h12----12p11-12p11----12-9-----------------9--------------|
|--------------------------13------11-9----9-11-12-----12-11-9----|
|---------------------------------------11---------------------11-|
|-----------------------------------------------------------------|
|-----------------------------------------------------------------|


  |-3--| |-3-|  |-3--| |-3--|          |-3-|  |-3-|
  S S  S S S S  S S  S S  S S  S  S  E S S S  S S S
|---------------------------------------------------|
|---------------------------------------------------|
|-9S8----8-9-8----9---------------------------------|
|-----11-------11---11-9----9-11-11-11-9-9-8--------|
|------------------------11------------------11-9S7-|
|---------------------------------------------------|


  Gtr II
      |-3-|
  S S S S S S S S  S  E e  S  E  S       +S   S  S  S  +Q   S  a  E  a  S  +S  a  E  S
|-------------------------------------|---------------------------------------------------|
|-------------------------------------|------------------------9s=8--9s=8--(8)-9s=8--8S===|
|-----------------------4--6S=8--8----|--(8)S11-11S13-(13)--------------------------------|
|-------------------------------------|------------------------6s=5--6s=5--(5)-6s=5--5S===|
|---6-7---6-------------2--4S=6--6----|--(6)S=9--9S11-(11)--------------------------------|
|-9---------9-9-9-(9)-----------------|---------------------------------------------------|
|
| Gtr III
|                                         ~~~~~
| H                   Q    S  e  S       +H                 S  a  E  a  S  +S     E  S
|-------------------------------------|---------------------------------------------------|
|-------------------------------------|---------------------------------------------------|
|-------------------------13-15-15b16-|-(15)------------------16p15-16p15-(15)---15-15b16-|
|-------------------------------------|---------------------------------------------------|
|-------------------------------------|---------------------------------------------------|
|-------------------------------------|---------------------------------------------------|


              ~~~~~~~~~~~~
    S   S     E       +Q     H
|-----------------------------------------------------|
|---9S=12----12------(12)-----------------------------|
|-----------------------------------------------------|
|---6S==9-----9-------(9)-----------------------------|
|-----------------------------------------------------|
|-----------------------------------------------------|
|
|                      ~~~~
|  +S   E        +S   +Q    +S  E  S  T  T   S   S  S
|-----------------------------------------------------|
|------14b16----(14)-(14)--(14)---16-16h17------16----|
|-(15)-------------------------------------(18)----17-|
|-----------------------------------------------------|
|-----------------------------------------------------|
|-----------------------------------------------------|


  Gtr III
                          ~~~~~~~
   |--3--|                                          |3-|
   S  S  S  E  +S   T  T  E  +E   T  T  T  T  S  S  E  S
|--------------------------------------------------------|
|-16h17p16--------------------------------------------14-|
|----------18-(18)-16h18p16-(16)-15h16S13----13-15-16----|
|-----------------------------------------16-------------|
|--------------------------------------------------------|
|--------------------------------------------------------|


  |----3-----|                         |---3----|
  S  S      +S   +S   S  S  s T  S.    e  E     E  S  S     +E
|-------------------------------------16-------------------------|
|---16b18==(16)r(16)p14-16-14---16b18----16b17-16-14-16b17-(16)--|
|----------------------------------------------------------------|
|----------------------------------------------------------------|
|----------------------------------------------------------------|
|----------------------------------------------------------------|


  Gtr III
   ~~~              ~~~~~~~~
       |-----3------|
   E.  T      +T   +T   +Q    T  T  T  T  S  S  S. T  T  T  T  T
|----------------------------------------------------------------|
|-14-------------------------------------------------------------|
|-----16b18==(16)r(16)-(16)--15h16s13----13-15s16s15h16s15S13-11-|
|-------------------------------------16-------------------------|
|----------------------------------------------------------------|
|----------------------------------------------------------------|


                      ~~~~~~~~~~~~~~~
   |--3--|
   S  S  S      +S   +S   +Q    +S   +S   S S  S S S  S
|-------------------------------------------------------|
|-------------------------------------------------------|
|-11-13-13b15==(13)-(13)-(13)--(13)r(13)-11S9----9S8----|
|---------------------------------------------11-----11-|
|-------------------------------------------------------|
|-------------------------------------------------------|


  Gtr I
  E      E   S S S E E S E S S
|------------------------------|
|------------5-4---4-----------|
|--------6-------6---4---------|
|------------------------4-6---|
|-4--------------------4-------|
|----------------------------4-|
|
| Gtr III
|        ~~~~~~~~~~~~~~~~~~~~~~~
| |-3-|
| S S S  H..
|------------------------------|
|------------------------------|
|-8h9p8------------------------|
|-------11---------------------|
|------------------------------|
|------------------------------|


                             Verse
                              C#m7
    E  E S S S E E S E S S    E S E. S E. S S S S  S S
|--------------------------||-----4----7----9-----11----|
|--------5-4---4-----------||---------------------------|
|------6-----6---4---------||--------4----------8----6--|
|--------------------4-6---||---6-----------------------|
|---4--------------4-------||-4-------------------------|
|------------------------4-||-------------9---9---------|
|
|   >
|~~~~~~
|  +W                         W
|--------------------------||---------------------------|
|--------------------------||---------------------------|
|--------------------------||---------------------------|
|-(11)---------------------||---------------------------|
|--------------------------||---------------------------|
|--------------------------||---------------------------|


                                                           C#m11
  Gtr I
  E S S S E Q  S E S S   S S S E. S E E S E S S   E E. E S E E. S S S
|-------7-4-6----------|-------7----7-9---------|----------------------|
|-----4----------------|-----0----0-----7---9---|------5-5-7-----------|
|---6------------6-----|---6----------6-------6-|---6--6-6-4-----------|
|----------------------|------------------------|---6--6---4----0------|
|-4------------4-----4-|-4----------------9-----|-4----------4------4--|
|------------------4---|------------------------|-----------------4----|


  C#m7
  E S E. S E. S S S S  S S   E S S S E Q  S E S S   S S S E. S E E S E S  S
|-----4----7----9-----11---|-------7-4-6----------|-------7----7-9------------|
|--------------------------|-----4----------------|-----0----0-----7---9-(9)--|
|--------4----------8----6-|---6------------6-----|---6----------6--------6---|
|---6----------------------|----------------------|---------------------------|
|-4------------------------|-4------------4-----4-|-4----------------9--------|
|-------------9---9--------|------------------4---|---------------------------|


           C#m11        C#m7             C#m7/B        A/D#
  Gtr I
  E E. E S E E. S S S   E S S E S E.     S S E S S     W
|---------------------|-------4---7----------9-------|----------------|
|------5-5-7----------|------------------------------|----------------|
|---6--6-6-4----------|---6-----4----------6---8-----|----------------|
|---6--6---4----0-----|-----6------------------------|----------------|
|-4----------4------4-|-4----------------------------|----------------|
|-----------------4---|------------------7-------7---|----------------|
|
| Gtr II
| W                     H            Q..         T T   S e h    Q  S
|---------------------|------------------------------|----------------|
|---------------------|------------------------------|---4-4----------|
|---------------------|------------------------------|-6---6----------|
|---------------------|----------------------------7-|-----7----------|
|---------------------|--------------------------7---|-----7----------|
|---------------------|------------------------------|----------------|


                   D/G#
  Gtr II
  H    Q..   T T   W          W
|----------------|----------|------||
|----------------|-4--------|------||
|----------------|-7--------|------||
|--------------7-|----------|------||
|------------7---|----------|------||
|----------------|----------|------||


   Outro
        C#5   B5    C#5   B5    C#5   F#5          E5       C#5
    Gtr III
                                                   ~~       ~
    S S S S S S S S S S S S S S S S   S   S  S S S E. E S S S E. 12x
||----------------------------------|-----------------------------||
||o---------------------------------|----------------------------o||
||----------------------------------|-----------------------------||
||------6-6-6S4-----6-6-6S4-----6---|-----------------------2-----||
||o-2S4-4-4-4S2-2S4-4-4-4S2-2S4---4-|---/(4)-4-4-4-2----2-----4--o||
||----------------------------------|-0S==2--2-2------0---4-------||





                                    THE OCEAN
                           As recorded by Led Zeppelin
                    (From the 1973 Album HOUSES OF THE HOLY)

Words and Music by Jimmy Page, Robert Plant, John Paul Jones and John Bonham
Transcribed by rocktabber

           D                    C                    A                   C5
      x 5 7 7 7 x          x 3 5 5 5 x          x 0 2 2 2 x          x 3 5 5 x x

          D5                   D7                   Am7                 DVII
      x 5 7 7 x x          x 5 7 5 7 x          x x 5 5 5 x          x x 7 7 7 x

          EIX              D7(type 2)              Dsus4                Dopen
      x x 9 9 9 x          x x 7 5 7 x          x x 0 2 3 3          x x 0 2 3 2

         Esus4                Eopen
      0 2 2 2 x x          0 2 2 1 x x

Gtr I (E A D G B E) - 'Untitled'
Gtr II (E A D G B E) - 'Untitled'
Gtr III (E A D G B E) - 'Untitled'

 Intro
  Moderate Rock Q=88
 4/4                   7/8
  Gtr I
                                    PM|
  a E a E S S E  H      S S e S S e e S S S S
|---------------------|-----------------------|
|---------------------|-----------------------|
|---------------------|-----------------------|
|-5h7-5h7-5-----------|-----5-----7---7-------|
|-----------7---------|-5-7---5-7---4---5---7-|
|-------------8\------|-----------------------|


 4/4                  7/8
                                   PM|
  a E a E S S E H      S S e S S e e S S S S
|--------------------|-----------------------|
|--------------------|-----------------------|
|--------------------|-----------------------|
|-5h7-5h7-5----------|-----5-----7---7-------|
|-----------7--------|-5-7---5-7---4---5---7-|
|-------------8------|-----------------------|


 4/4                  7/8
                                   PM|
  a E a E S S E H      S S e S S e e S S S S
|--------------------|-----------------------|
|--------------------|-----------------------|
|--------------------|-----------------------|
|-5h7-5h7-5----------|-----5-----7---7-------|
|-----------7--------|-5-7---5-7---4---5---7-|
|-------------8------|-----------------------|


 4/4                  7/8
                                   PM|
  a E a E S S E H      S S e S S e e S S E
|--------------------|----------------------||
|--------------------|----------------------||
|--------------------|----------------------||
|-5h7-5h7-5----------|-----5-----7---7------||
|-----------7--------|-5-7---5-7---4---5----||
|-------------8------|----------------------||


 1st Verse
  D         C         A     A C5D5D            D         C         A
 4/4
  Gtr I
  S S S S E S S S S E e e   e S S S S E H      S S S S E S S S S E e e
  | | | |   | | | |   | |   | | | | |          | | | |   | | | |   | |
  / / / /   / / / /   / o   / / / / /          / / / /   / / / /   / o

  W                         W                  W
|-------------------------|------------------|--------------------------|
|-------------------------|------------------|--------------------------|
|-------------------------|------------------|--------------------------|
|-------------------------|------------------|--------------------------|
|-------------------------|------------------|--------------------------|
|-------------------------|------------------|--------------------------|


  A C5D5D            D         C         A     A C5D5D
  e S S S S E H      S S S S E S S S S E e e   e S S S S E H
  | | | | |          | | | |   | | | |   | |   | | | | |
  / / / / /          / / / /   / / / /   / o   / / / / /

  W                  W                         W
|------------------|-------------------------|------------------|
|------------------|-------------------------|------------------|
|------------------|-------------------------|------------------|
|------------------|-------------------------|------------------|
|------------------|-------------------------|------------------|
|------------------|-------------------------|------------------|


  D         C         A     A C5D5D
                           7/8
  S S S S E S S S S E e e   E S S S S E Q  E
  | | | |   | | | |   | |   | | | | |
  / / / /   / / / /   / o   / / / / /

  W                         W
|-------------------------|------------------||
|-------------------------|------------------||
|-------------------------|------------------||
|-------------------------|------------------||
|-------------------------|------------------||
|-------------------------|------------------||


 Chorus
 4/4
  Gtr I
                 PM------------|
  a E a E S S E  s s s s s s s s
|--------------------------------|
|--------------------------------|
|--------------------------------|
|-5h7-5h7-5----------------------|
|-----------7--------------------|
|-------------8\-x-8-8-8-8-8-8-7-|


 7/8                     4/4
              PM|                       PM----------|
  S S e S S e e S S S S   a E a E S S E S S S S E S S
|-----------------------|-----------------------------|
|-----------------------|-----------------------------|
|-----------------------|-----------------------------|
|-----5-----7---7-------|-5h7-5h7-5-------------------|
|-5-7---5-7---4---5---7-|-----------7-----------------|
|-----------------------|-------------8-8-8-8-8-7-7-7-|


 7/8                     4/4                           7/8
              PM  PM  PM                PM----------|                   PM  PM
  S S E S S e E S S S S   a E a E S S E S S S S E S S   S S E S S E E S S S S
|-----------------------|-----------------------------|------------------------|
|-----------------------|-----------------------------|------------------------|
|-----------------------|-----------------------------|------------------------|
|-----5-----7---7-------|-5h7-5h7-5-------------------|-----5-----7---7--------|
|-5-7---5-7---4---5---7-|-----------7-----------------|-5-7---5-7---4---5---7--|
|-----------------------|-------------8-8-8-8-8-7-7-7-|------------------------|


 4/4                           7/8
                PM----------|               PM  PM  PM
  a E a E S S E S S S S E S S   S S E S S E E S S S S
|-----------------------------|-----------------------||
|-----------------------------|-----------------------||
|-----------------------------|-----------------------||
|-5h7-5h7-5-------------------|-----5-----7---7-------||
|-----------7-----------------|-5-7---5-7---4---5---7-||
|-------------8-8-8-8-8-7-7-7-|-----------------------||


 2nd Verse
  D         C         A     A C5D5D7       Am7  D         C         A
 4/4
  Gtr I
  S S S S E S S S S E E E   E S S S S E Q  Q    S S S S E S S S S E E E
  | | | |   | | | |   | |   | | | | |      |    | | | |   | | | |   | |
  / / / /   / / / /   / o   / / / / /      /    / / / /   / / / /   / o

  W                         W                   W
|-------------------------|-------------------|--------------------------|
|-------------------------|-------------------|--------------------------|
|-------------------------|-------------------|--------------------------|
|-------------------------|-------------------|--------------------------|
|-------------------------|-------------------|--------------------------|
|-------------------------|-------------------|--------------------------|


  A C5D5D7       Am7  D         C         A     A C5D5D7       Am7
  E S S S S E Q  Q    S S S S E S S S S E E E   E S S S S E Q  Q
  | | | | |      |    | | | |   | | | |   | |   | | | | |      |
  / / / / /      /    / / / /   / / / /   / o   / / / / /      /

  W                   W                         W
|-------------------|-------------------------|-------------------|
|-------------------|-------------------------|-------------------|
|-------------------|-------------------------|-------------------|
|-------------------|-------------------------|-------------------|
|-------------------|-------------------------|-------------------|
|-------------------|-------------------------|-------------------|


  D         C         A     A C5D5D
                           7/8
  S S S S E S S S S E E E   E S S S S E Q  E
  | | | |   | | | |   | |   | | | | |
  / / / /   / / / /   / o   / / / / /

  W                         W
|-------------------------|------------------||
|-------------------------|------------------||
|-------------------------|------------------||
|-------------------------|------------------||
|-------------------------|------------------||
|-------------------------|------------------||


 Guitar Solo
 4/4
  Gtr I
               ~~~                        ~
    E     E   +Q       +S  S    +S  S S S E
|-------------------------------------------|
|---5-----5---(5)------(5)------------------|
|---7b9---7b9-(7)------(7)-7pb9r(7)-5-------|
|-------------------------------------5-7-7-|
|-------------------------------------------|
|-------------------------------------------|
|
| Gtr II
|                       PM-|
| a E   a E    S  S E   s  s     E    Q
|-------------------------------------------|
|-------------------------------------------|
|-------------------------------------------|
|-5h7---5h7----5----------------------------|
|-----------------7-------------------------|
|-------------------8\--8--7----------------|


 7/8                               4/4
                ~~~~~                  ~~          ~~
                                                                |3-|
  S S S S +S  S E  S S S S +S   S      Q     S  S  E  +E     e  E  S  S  s
|------------------------8-(8)----|----------8-----------------------------|
|----------------------8-------10-|---10-------10-10-(10)\-/19----------15-|
|-------5-(5)-----/7-9------------|----------------------------17\-9h12----|
|-----5-------7-7-----------------|----------------------------------------|
|-5h7-----------------------------|----------------------------------------|
|---------------------------------|----------------------------------------|
|
| S S e    S  S e  e   S S  S   S   a  E a E S  S  E   H
|---------------------------------|----------------------------------------|
|---------------------------------|----------------------------------------|
|---------------------------------|----------------------------------------|
|-----5---------7------7----------|-5h=7-5h7-5-----------------------------|
|-5-7------5--7----4-----5------7-|-------------7--------------------------|
|---------------------------------|----------------8-----------------------|


 7/8
                              ~~~~~~~~
   S     S  E  a      +S   S  E  +S    S S S S S
|-------15-15------------------------------5-----|
|-15b17-------15pb17r(15)-13-------------5---8p5-|
|----------------------------14-(14)\-/6---------|
|------------------------------------------------|
|------------------------------------------------|
|------------------------------------------------|
|
|  S     S  e          S   S  e   e      S S S S
|------------------------------------------------|
|------------------------------------------------|
|------------------------------------------------|
|-----------5-----------------7----------7-------|
|--5-----7-------------5---7------4--------5---7-|
|------------------------------------------------|


 4/4                                    7/8
        ~~~~~                        ~                 ~~~~~~
                   |---3---|
    E   E E.     S S   +S  S S S S S E   S S S S a S S E +S  S S S S   +S
|--------------------------------------|-----------------------------------|
|---8---8-8------5---------------------|---------------------------5---(5)-|
|---0--------------7b9r(7)p5-7-5-------|-------5-------------5-----5b6-(5)-|
|--------------------------------5-7-7-|-5---5---5h7-7-7-(7)---7-7---------|
|--------------------------------------|-5h7-------------------------------|
|--------------------------------------|-----------------------------------|
|
| a E a E S  S E   E         E   Q       S S e     S S e  e    S S S    S
|--------------------------------------|-----------------------------------|
|--------------------------------------|-----------------------------------|
|--------------------------------------|-----------------------------------|
|-5h7-5h7-5----------------------------|-----5---------7-------7-----------|
|------------7-------------------------|-5-7-------5-7----4------5------7--|
|--------------8s==3\------------------|-----------------------------------|


 4/4
    ~   ~     ~~~~~~
    E a E S S E +S  S S S S  S  S  S
|-----------------------8------------|
|---------5-5---------8---8h10-10s15-|
|---------5-5-------9----------------|
|---7-5s7-----7-(7)------------------|
|------------------------------------|
|------------------------------------|
|
| a E a E S S E  E    E   Q
|------------------------------------|
|------------------------------------|
|------------------------------------|
|-5h7-5h7-5--------------------------|
|-----------7------------------------|
|-------------8s=3\------------------|


 7/8
   S     S  S  S     S  S  S     S  S  S     S  a      +S   S     S
|-------15-15-------15-15-------15-15-------15-------------------15--||
|-15b17-------15b17-------15b17-------15b17----15pb16r(15)-15b17-----||
|--------------------------------------------------------------------||
|--------------------------------------------------------------------||
|--------------------------------------------------------------------||
|--------------------------------------------------------------------||
|
|  S     S  e        S  S  e        e        S          S   S     S
|--------------------------------------------------------------------||
|--------------------------------------------------------------------||
|--------------------------------------------------------------------||
|-----------5--------------7-----------------7-----------------------||
|--5-----7-----------5--7-----------4-------------------5---------7--||
|--------------------------------------------------------------------||


 4/4
  Gtr III
  S S S       S E S S S S E e e   e S S S S E Q    S   E.
|-------------------------------|-------------------------|
|-7-7-7-------7---5-5-5-5-------|---5-7-7-7------/12--13\-|
|---------------------------7-6-|-7-----------------------|
|-------------------------------|-------------------------|
|-------------------------------|-------------------------|
|-------------------------------|-------------------------|
|
| Gtrs I, II
| S S T   +T  S E S S S S E e E   E S S S S E Q    Q
|-------------------------------|-------------------------|
|-------------------------------|----------------/13\-----|
|-5-7-7b8r(7)-5---5-5-5-5---7---|---5-7-7-5---------------|
|-7-7-7-------7---5-5-5-5---5-4-|-7-5-7-7-7-------/7--10\-|
|-----------------7-7-7-7---0---|---3-5-5-5---------------|
|-------------------------------|-------------------------|
  S S S       S E S S S S E e e   E S S S S E Q    S   E.


  S S S S E S S S S E e e     e S S S S E Q    Q
|-------------------------|------------------/11\----|
|-7-7-7-7---5-5-5-5-------|-----5-7-7-7--------------|
|---------------------7-6-|---7----------------------|
|-------------------------|--------------------------|
|-------------------------|--------------------------|
|-------------------------|--------------------------|
|
| S S S S E S S S S E E E     E S S S S E Q    Q
|-------------------------|------------------/10\----|
|-------------------------|------------------/12\----|
|-5-7-7-7---5-5-5-5-------|-----5-7-7-7--------------|
|-7-7-7-7---5-5-5-5---7-5-|-5h7-5-7-7-7--------------|
|-----------7-7-7-7---0---|---0-3-5-5-5--------------|
|-------------------------|--------------------------|
  S S S S E S S S S E e E   a E S S S S E Q    Q


  S S S S E S S S S E   e e   e S S S S E Q    Q
|---------------------------|----------------/12\--|
|-7-7-7-7---5-5-5-5---------|---5-7-7-7------------|
|-----------------------7-6-|-7--------------------|
|---------------------------|----------------------|
|---------------------------|----------------------|
|---------------------------|----------------------|
|
| Q       E S S S S E   Q     E S S S S E Q    Q
|---------------------------|----------------/12\--|
|---------------------------|----------------/12\--|
|-5-5-5-5---5-5-5-5---------|---5-7-7-7------------|
|-7-7-7-7---5-5-5-5---5h7-4-|-5-5-7-7-7------------|
|-----------7-7-7-7-----0---|-0-3-5-5-5------------|
|---------------------------|----------------------|
  S S S S E S S S S E a e e   e S S S S E Q    Q


                             7/8
  S S S S E S S S S E   e e   e S S S S E Q     E
|---------------------------|------------------------||
|-7-7-7-7---5-5-5-5---------|---5-7-7-7--------------||
|-----------------------7-6-|-7----------------------||
|---------------------------|------------------------||
|---------------------------|------------------------||
|---------------------------|------------------------||
|
| Q       E S S S S E   Q     E S S S S E Q     E
|---------------------------|------------------------||
|---------------------------|------------------------||
|-5-5-5-5---5-5-5-5---------|---5-7-7-7--------------||
|-7-7-7-7---5-5-5-5---5h7-4-|-7-5-7-7-7-----7--------||
|-----------7-7-7-7-----0---|-7-3-5-5-5---4---5---7--||
|---------------------------|------------------------||
  S S S S E S S S S E a e e   E S S S S E e S S S S


 Interlude
 4/4
  Gtr I
  W          W          W
|----------|----------|------|
|----------|----------|------|
|----------|----------|------|
|-7--------|----------|------|
|----------|----------|------|
|----------|----------|------|


  W          W          W
|----------|----------|------|
|----------|----------|------|
|----------|----------|------|
|----------|----------|------|
|----------|----------|------|
|----------|----------|------|


                        3rd Verse
                         D         C         A
                         Gtr I
  W          W           S S S S E S S S S E E E
                         | | | |   | | | |   | |
                         / / / /   / / / /   / o

  W          W           W
|----------|----------||--------------------------|
|----------|----------||--------------------------|
|----------|----------||--------------------------|
|----------|----------||--------------------------|
|----------|----------||--------------------------|
|----------|----------||--------------------------|


  A C5D5D7       Am7  D         C         A     A C5D5D7       Am7
  E S S S S E Q  Q    S S S S E S S S S E E E   E S S S S E Q  Q
  | | | | |      |    | | | |   | | | |   | |   | | | | |      |
  / / / / /      /    / / / /   / / / /   / o   / / / / /      /

  W                   W                         W
|-------------------|-------------------------|-------------------|
|-------------------|-------------------------|-------------------|
|-------------------|-------------------------|-------------------|
|-------------------|-------------------------|-------------------|
|-------------------|-------------------------|-------------------|
|-------------------|-------------------------|-------------------|


  D         C         A     A C5D5D7       Am7
  S S S S E S S S S E E E   E S S S S E Q  Q
  | | | |   | | | |   | |   | | | | |      |
  / / / /   / / / /   / o   / / / / /      /

  W                         W
|-------------------------|-------------------|
|-------------------------|-------------------|
|-------------------------|-------------------|
|-------------------------|-------------------|
|-------------------------|-------------------|
|-------------------------|-------------------|


  D         C         A     A C5D5D
                           7/8
  S S S S E S S S S E E E   E S S S S E Q  E
  | | | |   | | | |   | |   | | | | |
  / / / /   / / / /   / o   / / / / /

  W                         W
|-------------------------|------------------||
|-------------------------|------------------||
|-------------------------|------------------||
|-------------------------|------------------||
|-------------------------|------------------||
|-------------------------|------------------||


 Chorus
 4/4                          7/8
  Gtr I
                PM------|                      PM  PM
  a E a E S S e S S S S e E    S S e S S e e S S S S
|----------------------------|-----------------------|
|----------------------------|-----------------------|
|----------------------------|-----------------------|
|-5h7-5h7-5------------------|-----5-----7---7-------|
|-----------7-----------8----|-5-7---5-7---4---5---7-|
|-------------8-8-8-8-8-8-8\-|-----------------------|


 4/4
                PM--------|
  a E a E S S e S S S S S S E
|--------------------------------|
|--------------------------------|
|--------------------------------|
|-5h7-5h7-5----------------------|
|-----------7---x-x-x-x-x-x------|
|-------------8-x-x-x-x-x-x-8\---|


 7/8                      4/4                          7/8
                                         PM----|                     PM  PM  PM
   S S e S S e E S S S S   a E a E S S e E S S S S E     S S E S S E E S S S S
|------------------------|----------------------------|------------------------|
|------------------------|----------------------------|------------------------|
|------------------------|----------------------------|------------------------|
|------5-----7---7-------|-5h7-5h7-5------------------|------5-----7---7-------|
|-/5s7---5-7---4---5---7-|-----------7---x-x-x-x------|-/5h7---5-7---4---5---7-|
|------------------------|-------------8-x-x-x-x-8-8\-|------------------------|


 4/4                             7/8
              PM--------------|
  a E a E S S E S S S S S S S S   S S E S S E E S S S S
|-------------------------------|------------------------||
|-------------------------------|------------------------||
|-------------------------------|------------------------||
|-5h7-5h7-5---------------------|-----5-----7---7--------||
|-----------7---x-x-x-x-x-x-x-x-|-5h7---5h7---4---5---7--||
|-------------8-x-x-x-x-x-x-x-x-|------------------------||


  Faster Q=126(8=s8)
  DVII                                            EIX
 4/4
  Gtr I
         |-3-|  |--3---|  |--3---|  |----3----|     |---3---|  |-3--|    |--3--|  |-3--|
         E E E  E    E E  E E    E  E    E    E     E  E    E  E E  E    E  E  E  E  E E
         | | |  |    | |  | |    |  |    |    |     |  |    |  | |  |    |  |  |  |  | |
         / / /  /    / /  / /    /  /    /    /     /  /    /  / /  /    /  /  /  /  / /

  Gtr II
                                            ~~~~~~~~~~~
                                                               |-3--|    |--3--|  |3-|
   a  a  q      Q         e    E    E       E      +E     E    e E  E    E  E  E  E  Q
|-------10-----12b14-----12---10----------------|----------------------------------------|
|----10----------------------------12b13---12---|-(12)---10--------12b14---12-10----12---|
|-11--------------------------------------------|-------------11-9---------------11------|
|-----------------------------------------------|----------------------------------------|
|-----------------------------------------------|----------------------------------------|
|-----------------------------------------------|----------------------------------------|


  DVII                              EIX
   |-3-| |-3--| |----3----| |-3-|   |--3---| |-3-| |--3---|  |--3--|
   E E E E  E E E E       E E E E   E E    E E E E E E    E  E E   E
   | | | |  | | | |       | | | |   | |    | | | | | |    |  | |   |
   / / / /  / / / /       / / / /   / /    / / / / / /    /  / /   /

                                             ~~
         |-3--|
   q     E  E E E    E      Q       E    E   Q     e    e    e   E
|---------------------------------|-------------------------10--------|
|-10-------10---------------------|-------------------------10--------|
|-------------------11b12---------|-----11---9s====8--------11--------|
|---------------------------------|-----------------------------------|
|---------------------------------|--------------------12-------------|
|---------------------------------|-----------------------------------|


  D7(type 2)                                  EIX
   |--3---|  |--3---|  |----3----|  |--3--|    |----3----|  |--3--|    |--3--|  |----3----|
   E    E E  E E    E  E    E    E  E  E  E    E    E    E  E  E  E    E  E  E  E    E    E
   |    | |  | |    |  |    |    |  |  |  |    |    |    |  |  |  |    |  |  |  |    |    |
   /    / /  / /    /  /    /    /  /  /  /    /    /    /  /  /  /    /  /  /  /    /    /

                                    |--3--|                 |--3--|    |--3--|
   Q         E    E    e       E    E  E  E    E       E    E  E  E    E  E  E  S  S    S    S
|-12b14-----12---10-------------------------|---------10---11-12-------------------------------|
|---------------------12b14---12---10----10-|-12b14--------------12b14---12-10----12--------10-|
|-------------------------------------11----|----------------------------------11------11------|
|-------------------------------------------|--------------------------------------------------|
|-------------------------------------------|--------------------------------------------------|
|-------------------------------------------|--------------------------------------------------|


  D7(type 2)                                    EIX
   |-3--|  |----3-----| |---3----|     |-3--|    |---3---| |---3---|  |-3-|
   E  E E  E  E       E E    E   E     E  E E    E  E    E E  E    E  E E E  Q
   |  | |  |  |       | |    |   |     |  | |    |  |    | |  |    |  | | |  |
   /  / /  /  /       / /    /   /     /  / /    /  /    / /  /    /  / / /  /

      ~~~~~~~~                              ~~~~~~~~
   |3-|                                |-3--|              |---3---|  |---3----|
   E  Q    E     E      S  S   S    S  E  E E   +E     e   E  E    E  q   Q    Q
|---------------------------------------------|------------------------------------|
|-12-10---10\---------------------------------|------------------------------------|
|---------------11b13-----11---9------11----9-|-(9)----------11b13---11---9\-------|
|----------------------------------11----11---|-------11---------------------------|
|---------------------------------------------|------------------------------------|
|---------------------------------------------|------------------------------------|


     A  DsDs4EsuEopen   EsuEopen
                                          G
   E Q  E Q   E E   +E   E H.
   | |  | |   | |    |   | |
   o /  / /   / /    /   / /

                                          G
          ~                ~~
   E Q  E Q   E E   +E   E H      a   Q
|-----------------|-----------------------|
|-----------------|-----------------------|
|-/6-4------------|-----------------------|
|-------7-6--/4-2-|-(2)-------------------|
|-----------------|-----/4-2-----(2)s16\--|
|-----------------|-----------------------|


       A  DsDs4EsEopen   EsuEopen
 tr I
     E Q  E Q  E E   +E   E H.
     | |  | |  | |    |   | |
     o /  / /  / /    /   / /

 trs II, III
            ~~              ~~~
  a  E Q  E Q  E E   +E   E H        Q
|------------------|---------------^10---|
|-9h10-9--8-7------|---------------^10---|
|-4h=6-4-------6-4-|-(4)----4------^11---|
|---------7-6--4-2-|-(2)--7--------^12---|
|------------------|-----/4-2------------|
|------------------|---------------------|
  a  E Q  E Q  E E   +E   E Q   Q    q


  DVII                            EIX
  Gtr I
    |-3-|  |--3---| |-3-| |-3-|   |-3-|  |-----3------|  |-3--| |--3---|
    E E E  E    E E E E E E E E   E E E  E     E      E  E  E E E E    E
    | | |  |    | | | | | | | |   | | |  |     |      |  |  | | | |    |
    / / /  /    / / / / / / / /   / / /  /     /      /  /  / / / /    /

  Gtr II
                                                         ~~~
    q      H.                     Q      E        +E     Q.          E
|-^10-----12b14-----------------|-------12pb14r==(12)---12----------10---|
|-^10---------------------------|----------------------------------------|
|-^11---------------------------|----------------------------------------|
|-^12---------------------------|----------------------------------------|
|-------------------------------|----------------------------------------|
|-------------------------------|----------------------------------------|


  DVII                                   EIX
   |--3---|  |--3--|   |-3--|  |--3--|    |-3--|  |-3--|    |--3--|  |--3---|
   E    E E  E  E  E   E  E E  E  E  E    E  E E  E E  E    E E   E  E  E   E
   |    | |  |  |  |   |  | |  |  |  |    |  | |  | |  |    | |   |  |  |   |
   /    / /  /  /  /   /  / /  /  /  /    /  / /  / /  /    / /   /  /  /   /

                   ~~~~~~~                                      ~
             |--3--|           |--3--|    |3-|    |-3--|
   q         E  E  E  +Q       E  E  E    E  Q    E E  E a  E   E   +E    E
|--------------------------------------|----------------------------------------|
|-12b14-----12-10-12-(12)-----10----12-|-10h12----------------------------------|
|--------------------------------11----|---------11-9----9h11---9---(9)---------|
|--------------------------------------|--------------11------------------------|
|--------------------------------------|----------------------------------0-----|
|--------------------------------------|----------------------------------------|


  D7(type 2)                           EIX
      |-3-|  |--3---|  |-3--| |-3--|   |-3-|  |--3---|  |--3---|  |--3--|
      E E E  E    E E  E E  E E  E E   E E E  E E    E  E    E E  E  E  E
      | | |  |    | |  | |  | |  | |   | | |  | |    |  |    | |  |  |  |
      / / /  /    / /  / /  / /  / /   / / /  / /    /  /    / /  /  /  /

                       |----3----|                                |--3--|
   a  q      Q         Q    Q    q     Q      E    E    Q         E  E  E
|-----------12b14-----12---10--------|-----------------14b16-----14-12----|
|----10-------------------------10---|-------12---14-------------------12-|
|-11----------------------------11---|------------------------------------|
|------------------------------------|------------------------------------|
|------------------------------------|------------------------------------|
|------------------------------------|------------------------------------|


  D7(type 2)                                 EIX
   |--3---|  |---3---|  |--3---|  |--3---|    |-----3-----|     |-----3-----|
   E    E E  E     E E  E    E E  E    E E    q     q     q     q     q     q
   |    | |  |     | |  |    | |  |    | |    |     |     |     |     |     |
   /    / /  /     / /  /    / /  /    / /    /     /     /     /     /     /

             ~~~~~~
                                              |--3--|  |--3--|  |--3--|  |--3--|
   Q         Q          Q         Q           E  E  E  E  E  E  E  E  E  E  E  E
|-15b17-----15pb16-------------------------|-17-16----17-16----17-16----17-16----|
|----------------------15b17-----15b17-----|-------17-------17-------17-------17-|
|------------------------------------------|-------------------------------------|
|------------------------------------------|-------------------------------------|
|------------------------------------------|-------------------------------------|
|------------------------------------------|-------------------------------------|


     A  DsDs4EsuEopen   EsuEopen         A  DsDs4EsuEopen   EsEopen
                                    Gtr I
   E Q  E Q   E E   +E   E H.          E Q  E Q   E E   +E  E H.
   | |  | |   | |    |   | |           | |  | |   | |    |  | |
   o /  / /   / /    /   / /           o /  / /   / /    /  / /

                                    Gtrs II, III
          ~     ~~~~~~~~   ~~                 ~~    ~~~~~~~~  ~~~
   E Q  E Q   E E   +E   E H     Q     E Q  E Q   E E   +E  E H     Q
|-----------------|-----------------|-----------------|-----------------|
|-----------------|-----------------|-10-9--7---------|-----------------|
|-/6-4------------|-----------------|-/6-4----9---6-4-|-(4)---4---------|
|-------7-6--/4-2-|-(2)-------------|-------7-6--/4-2-|-(2)-7-----------|
|-----------------|-----/4-2--------|-----------------|-----4-2---------|
|-----------------|-----------------|-----------------|-----------------|
                                       E Q  E Q   E E   +E  E H     Q


  DVII                                          EIX
  Gtr I
    |--3---| |--3--|  |----3----|     |--3--|    |--3---| |--3--|  |----3----|     |--3--|
    E E    E E  E  E  E    E    E     E  E  E    E E    E E  E  E  E    E    E     E  E  E
    | |    | |  |  |  |    |    |     |  |  |    | |    | |  |  |  |    |    |     |  |  |
    / /    / /  /  /  /    /    /     /  /  /    / /    / /  /  /  /    /    /     /  /  /

  Gtr II
             |--3--|                  |--3--|             |--3--|                  |--3--|
    E    e   E  E  E  S  S    S    S  E  E  E    E    E   E  E  E  S  S    S    S  E  E  E
|--------------------10h12p==10---10----------|-------------------12h14p==12---------------|
|--------------10h12--------------10h12p10-10-|-------------12h14--------------12h14p12----|
|-/11---11---------------------------------11s|=12--------------------------------------13s|
|-/12-----------------------------------------|------14------------------------------------|
|---------------------------------------------|--------------------------------------------|
|---------------------------------------------|--------------------------------------------|


  DVII                                         EIX
   |--3---| |--3--|  |----3----|     |--3--|    |--3---| |--3--|  |----3----|     |--3--|
   E E    E E  E  E  E    E    E     E  E  E    E E    E E  E  E  E    E    E     E  E  E
   | |    | |  |  |  |    |    |     |  |  |    | |    | |  |  |  |    |    |     |  |  |
   / /    / /  /  /  /    /    /     /  /  /    / /    / /  /  /  /    /    /     /  /  /

            |--3--|                  |--3--|             |--3--|                  |--3--|
   E    E   E  E  E  S  S    S    S  E  E  E    E    E   E  E  E  S  S    S    S  E  E  E
|-------------------10h12p==10---10----------|-------------------12h14p==12------------------|
|-------------10h12--------------10h12p10----|-------------12h14--------------12h14p12-------|
|-11--------------------------------------11s|=13--------------------------------------13s===|
|------12------------------------------------|------14---------------------------------------|
|--------------------------------------------|-----------------------------------------------|
|--------------------------------------------|-----------------------------------------------|


  D7(type 2)                                   EIX
   |--3---| |--3--|  |----3----|     |--3--|     |--3---|  |--3--|  |----3----|     |--3--|
   E E    E E  E  E  E    E    E     E E   E     E E    E  E  E  E  E    E    E     E  E  E
   | |    | |  |  |  |    |    |     | |   |     | |    |  |  |  |  |    |    |     |  |  |
   / /    / /  /  /  /    /    /     / /   /     / /    /  /  /  /  /    /    /     /  /  /

            |--3--|                                        |--3--|                  |--3--|
   E    E   E  E  E  S  S    S    S  E   E       E    E    e  E  E  S  S    S    S  E  E  e
|-------------------12h14p==12---------------|---------------------12h14p==12---------------|
|-------------12h14--------------12h14-------|---------------12h14--------------12h14p12----|
|-11-----------------------------------------|-/13--------14-----------------------------13-|
|------12--------------------------------0---|-------14-------------------------------------|
|--------------------------------------------|----------------------------------------------|
|--------------------------------------------|----------------------------------------------|


  D7(type 2)                                         EIX
   |---3----|  |---3----|  |---3----|  |---3----|     |----3-----|  |----3-----|  |----3-----|  |------3-------|
   E     E  E  E     E  E  E     E  E  E     E  E     E      E   E  E      E   E  E      E   E  E     E        E
   |     |  |  |     |  |  |     |  |  |     |  |     |      |   |  |      |   |  |      |   |  |     |        |
   /     /  /  /     /  /  /     /  /  /     /  /     /      /   /  /      /   /  /      /   /  /     /        /

   |---3----|  |---3----|  |---3----|  |---3----|     |----3-----|  |----3-----|  |----3-----|
   E     E  E  E     E  E  E     E  E  E     E  E     E     +E   E  E     +E   E  E     +E   E  E        +E
|----------10----------10----------10----------10/-|------------12------------12------------12-14b16====(14)r\-----|
|-------10----------10----------10----------10-----|-12b14r(12)----12b13r(12)----12b13r(12)------------------------|
|-12b14-------12b14-------12b14-------12b14--------|---------------------------------------------------------------|
|--------------------------------------------------|---------------------------------------------------------------|
|--------------------------------------------------|---------------------------------------------------------------|
|--------------------------------------------------|---------------------------------------------------------------|


    A  DsDs4EsEopen   EsuEopen              A  DsDs4EsEopen   EsEopen
                                      Gtr I
  E Q  E Q  E E   +E   E H.               E Q  E Q  E E   +E  E H.
  | |  | |  | |    |   | |                | |  | |  | |    |  | |
  o /  / /  / /    /   / /                o /  / /  / /    /  / /

                                      Gtrs II, III
    ~    ~    ~~~~~~~~   ~~~~~~~~           ~    ~~             ~~~
  E Q  E Q  E E   +E   E Q   +E  E Q      E Q  E Q  E E   +E  E H.
|---------------|---------------------|-----------------|-------------*|
|---------------|---------------------|-/10-9--7--------|-------------*|
|-6-4-----------|---------------------|--/6-4----9--6-4-|-(4)---4-----*|
|------7-6--4-2-|-(2)-----------------|--------7-6--4-2-|-(2)-7-------*|
|---------------|-----/4-2---(2)------|-----------------|-----4-2-----*|
|---------------|---------------------|-----------------|-------------*|
                                          E Q  E Q  E E   +E  E H.


Duration Legend
---------------
W - whole; H - half; Q - quarter; E - 8th; S - 16th; T - 32nd; X - 64th; a - acciaccatura
+ - note tied to previous; . - note dotted; .. - note double dotted
Uncapitalized letters represent notes that are staccato (1/2 duration)
Irregular groupings are notated above the duration line
Duration letters will always appear directly above the note/fret number it represents the
duration for.  Duration letters with no fret number below them represent rests.  Multi-
bar rests are notated in the form Wxn, where n is the number of bars to rest for.  Low
melody durations appear below the staff

Tablature Legend
----------------
 h   - hammer-on
 p   - pull-off
 b   - bend
 pb  - pre-bend
 r   - bend release (if no number after the r, then release immediately)
 /\  - slide into or out of (from/to "nowhere")
 s   - legato slide
 S   - shift slide
  - natural harmonic
[n]  - artificial harmonic
n(n) - tapped harmonic
 ~   - vibrato
 tr  - trill
 T   - tap
 TP  - trem. picking
 PM  - palm muting
\n/  - tremolo bar dip; n = amount to dip
 \n  - tremolo bar down
 n/  - tremolo bar up
/n\  - tremolo bar inverted dip
 =   - hold bend; also acts as connecting device for hammers/pulls
 <>  - volume swell (louder/softer)
 x   - on rhythm slash represents muted slash
 o   - on rhythm slash represents single note slash

Misc Legend
-----------
 |  - bar
||  - double bar
||o - repeat start
o|| - repeat end
*|  - double bar (ending)
 :  - bar (freetime)
 $  - Segno
 &  - Coda
Tempo markers -  = BPM(8/16=s8/s16), where s8 = swing 8ths, s16 = swing 16ths




ok there u go this is a wicked zep album so enjoy!




comments
print report bad tab
6 comments total. Showing first comments.
+1 reply
ballz2thewallz wrote on March 2 2006, 12:32 am

not bad...not bad at all

0 reply
guitarm103 wrote on May 14 2006, 02:51 pm

howlong did it take u to do this wow

0 reply
burningaprilman wrote on December 17 2006, 08:44 am

same question!!
great job though
awesome on the ocean

I want to post or [tab]
guest
You may want to rate the tab now too:
select rating
Please do not post tabs as comments. Select "correction" instead!