Oops, an error
Loading. Please wait.

In Through The Out Door Tab

2,993 views 6 this week
no commentswrite comment
1 2 3 4 5
accurate
x 4
Autoscroll
+/-
esc
set tempo
stop
Contributor
Hey! There's an official Ultimate Guitar app which is ideal
for learning songs when you're away from computer. Get the app
WARNING: You are trying to view
                                    content from Ultimate-Guitar.com
                                    in an unauthorized application,
                                    which is prohibited.

                                    Please use an official Ultimate
                                    Guitar Tabs application for iPhone,
                                    iPad or Android to access legitimate
                                    chords, guitar, bass, and drum tabs
                                    from Ultimate-Guitar.com database.

                                    Type "ultimate guitar tabs" in Apple
                                    App Store's or Android Market's
                                    search to find the application.
In Through The Out Door Album (1979) - Led Zeppelin

Track list:

1. In the Evening
2. South Bound Saurez
3. Fool In The Rain
4. Hot Dog
5. Carouselambra
6. All my Love
7. I'm Gonna Crawl



In The Evening:



Standard Tuning

  In the eeeeeeeeeeeeeeeeeeeeeeeeeeeeeeeevening

E|----------------|----------------|
B|--5-5-5-5-3-----|----------------|
G|--4-4-4-2-0---2-|----------------|
D|--2-2-2-0-0---2-|----2-----225-2-| Play 8
A|----------------|----------------| times
E|----------------|----------------|
                Depress
                whammy bar

E|----------------|----------------|----------------|----------------|
B|------7---------|--7---7-------7-|------7-8-7-----|----------5---7-|
G|------7---------|--7---7---6---7-|------7-9-7-----|----------6---7-|
D|------7---------|--7---7---7---7-|----7---------7-|9-7---7---7---7-|
A|------5---------|--5---5---7---5-|--99--------9---|----9-----7---5-|
E|----------------|----------5-----|----------------|----------------|
  Oh             I need your love.....

E|----------------|----------------|----------------|----------------||
B|--------8-7-----|--------------7-|------7---------|------7---------||
G|------7-9-7-----|----------6---7-|----9-7-----7---|--6---7---------||
D|----9-7---------|9-7---7---7---7-|----------9-7---|--7---7---------||
A|--9-----------9-|----9-----7---5-|--9-----9-------|--7---5---------||
E|----------------|----------5-----|----------------|--5-------------||
  D.S.
E|----------------|----------------|
B|--5-5-5-5-3-----|----------------|
G|--4-4-4-2-0---2-|----------------|
D|--2-2-2-0-0---2-|----2-----225-2-| Play 8
A|----------------|----------------| times
E|----------------|----------------|

E|----------------|7---6-7---------|----------------|7---6-7---------|
B|--------8-----8-|8---7-8---------|--------8---8-10|8---7-8---------|
G|------7---7-7---|----------------|------7---7-----|----------------|
D|---99-----------|----------------|--9-9-----------|----------------|
A|----------------|----------------|----------------|----------------|
E|----------------|----------------|----------------|----------------|
 |                                                                   |
E|--3-------3-----|3-3---3-------3-|------3-------3-|--3---3---------|
B|--3-------3-----|3-3---3---7---3-|------3---7---3-|--3---3-------5-|
G|--4-------4-----|4-4---4---7---4-|------4---7---4-|--4---4---9---6-|
D|--5-------5-----|5-5---5---7---5-|------5---7---5-|--5---5---9---7-|
A|--5-------5-----|5-5---5---5---5-|------5---5---5-|--5---5---7---7-|
E|--3-------3-----|3-3---3-------3-|------3-------3-|--3---3-------5-|

                                              to Coda
E|----------------|9---8-9---------|--------------9-||----------------|
B|--------10--1012|10--9-10--------|--------10--10--||----------------|
G|------9---9-----|----------------|------9---9-----||----------------|
D|--1111----------|----------------|--1111----------||----------------|
A|----------------|----------------|----------------||----------------|
E|----------------|----------------|----------------||----------------|
 |                                                                    |
E|----------------|--------------5-|----------------||----------------|
B|----------------|----------9---5-|----------------||----------------|
G|----------------|----------9---6-|----------------||----------------|
D|----------------|----------9---7-|----------------||4-4-4-----------|
A|------------7---|----------7---7-|----------7-----||2-2-2-----------|
E|------------5---|--------------5-|----------5-----||----------------|
                                                                Oh its

E|----------------|----------------|
B|--5-5-5-5-3-----|----------------|
G|--4-4-4-2-0---2-|----------------|
D|--2-2-2-0-0---2-|----2-----225-2-| Play 8
A|----------------|----------------| times
E|0---------------|----------------|

E|----------------|----------------|----------------|----------------|
B|7-7-----7-7-----|--------------7-|--------8-7-----|--------------7-|
G|7-7-----7-7-----|----------6---7-|----7-7-9-7---7-|----------6---7-|
D|7-7-----7-7-----|----97----7---7-|----7-7-------7-|9-7---7---7---7-|
A|5-5-----5-5-----|--9---9---7---5-|--9---------9---|----9-----7---5-|
E|----------------|----------5-----|----------------|----------5-----|
  Oh      oh     I need your love.....

                                                     Guitar solo
                                                   E|------0----12----||
                                                   B|------0--12--14--|| Depress trem. bar
                                                   G|------1--------14|| fully, release
                                                   D|------2----------|| suddenly on E chord
                                                   A|------2----------||
                                                   E|------0----------||
                                                    |                 ||
E|----------------|----------------|----------------|-----------------||
B|--------8-7-----|--------------7-|--787---------7-|------7----------||
G|--------9-7-----|------7---6---7-|--797---------7-|--6---7----------||
D|----9-7---------|9-7---7---7---7-|--------9-7---7-|--7---7----------||
A|--9-----------9-|----9-----7---5-|------9-----9---|--7---5----------||
E|----------------|----------5-----|----------------|--5--------------||


E|---------12-----|-------12-------|12----12----12----12-1719|-17151715--16--|
B|-------12--15---|-----12--15---12|----12----12----12-------|-------------17|
G|--11516---------|-1516-------16--|--16----16----16---------|---------------|
D|----------------|----------------|-------------------------|---------------|
A|----------------|----------------|-------------------------|---------------|
E|----------------|----------------|-------------------------|---------------|

E|----------------|--22--191817--121819|----------------|-------12-------------|
B|15--14--15------|------------20------|211917--19--17--|---------1412-------12|
G|----------------|--------------------|------18--18----|-------------1213-16--|
D|----------------|--------------------|----------------|------0---------------|
A|----------------|--------------------|----------------|----0-----------------|
E|----------------|--------------------|----------------|--0-------------------|
                         \--3-/

E|12----12----12----12-------|--------------12|----------------------|-----------------------------|
B|----12----12----12--17-15--|-121012---------|----------------------|-12--------------------------|
G|--16----16----16-----------|-------128------|--12--12141416-16-1616|---1514121514121412--1212----|
D|---------------------------|----------------|----14----------------|-------------------14----1214|
A|---------------------------|----------------|----------------------|-----------------------------|
E|---------------------------|----------------|----------------------|-----------------------------|

E|----------------|------------------------|----------------12--|17---171717-15--|
B|----------------|------------------------|--------------12--12|--------------13|
G|12----------1514|1215141412--------------|------------16------|----------------|
D|--14------------|----------1141414---11--|14------------------|----------------|
A|----------------|------------------------|--------------------|----------------|
E|----------------|------------------------|--------------------|----------------|

E|----------------|----------------|----------------|----------------|
B|13--------------|(13)------------|----------------|----------------|
G|----------------|------------1414|1416------------|(16)----1614--14|
D|----------------|----------------|----------------|------------14--|
A|----------------|----------------|----------------|----------------|
E|----------------|----------------|----------------|----------------|
 |                           \-3--/                                  |
E|----------------|--3-------------|----------------|--0-------------|
B|--------------5-|------5---------|--------------3-|------3---------|
G|----------4-----|--------4---4---|----------4-----|--------4-------|
D|------5---------|----------------|------4---------|------------4---|
A|3---------------|----------------|2---------------|----------------|
E|----------------|----------------|----------------|----------------|

E|----------------|----------------|----------------|----------------|
B|1214------------|(14)------------|----------8-7---|7---------------|
G|----------------|----------------|--------------9-|--9-------9-7---|
D|----------------|----------------|----------------|--------------9-|
A|----------------|----------------|----------------|----------------|
E|----------------|----------------|----------------|----------------|
 |                                                                   |
E|----------------|--0-------------|----------------|----------------|
B|--------------0-|------0---------|----------------|------------3---|
G|----------2-----|----------2---2-|----------0-----|----------0-----|
D|------2---------|------------2---|------4---------|------4---------|
A|0---------------|----------------|----2-----------|----2-----------|
E|----------------|----------------|0-0-------------|0---------------|

E|----------------|----------------|----------------|----------------|
B|----------------|----------------|----------------|----------------|
G|----------------|--------------7-|7-9-9-----------|(9)-------11----|
D|7-5-7-----------|(7)---------9---|----------------|----------------|
A|----------------|----------------|----------------|----------------|
E|----------------|----------------|----------------|----------------|
 |                           \-3--/                                  |
E|--------------2-|----------------|----------------|--3-------------|
B|----------0-----|----0-----------|--------------5-|------5---------|
G|------2---------|------2---2-----|----------4-----|--------4-------|
D|----2-----------|----------------|------5---------|------------5---|
A|0---------------|----------------|3---------------|----------------|
E|----------------|----------------|----------------|----------------|

                                                         D.S. al Coda
E|----------------|----------------|----------------|----------------||
B|----------------|----------------|----------------|----------------||
G|9---------------|----------11----|9---------------|----------------||
D|--7-7-----------|(7)-------------|----------------|----------------||
A|----------------|----------------|--101012--------|(12)------------||
E|----------------|----------------|----------------|----------------||
 |                                                                   ||
E|----------------|--2-------------|----------------|----------------||
B|--------------3-|------3---------|----------------|----------------||
G|----------4-----|--------4---4---|----------2-----|----------------||
D|------4---------|----------4---4-|------2-------2-|----------------||
A|2---------------|2---------------|0---------------|0---------------||
E|----------------|----------------|----------------|----------------||
                                                     Ooh        what-

  CODA
E| ----------------|----------------|----------------|----------------|
B| ----------------|----------------|----------------|----------------|
G|o----------------|----------------|----------------|----------------|
D|o----------------|----------------|----------------|----------------|
A| ----------------|----------------|----------------|----------------|
E| ----------------|----------------|----------------|----------------|
 |                                                                    |
E| ----------------|----------------|----------------|----------------|
B| --5-5-5-5-3-----|----------------|--5-5-5-5-3-----|----------------|
G|o--4-4-4-2-0---2-|----------------|--4-4-4-2-0---2-|----------------|
D|o--2-2-2-0-0---2-|----2-----225-2-|--2-2-2-0-0---2-|----------------|
A| ----------------|----------------|----------------|----------------|
E| ----------------|----------------|----------------|----------------|

                                                       repeat ad lib to fade
E|----151719171515|----------------|12--9-12--------|---------------- ||
B|--17------------|----171517151717|----------------|12--8-12-------- ||
G|----------------|----------------|----------------|----------------o||
D|----------------|----------------|----------------|----------------o||
A|----------------|----------------|----------------|---------------- ||
E|----------------|----------------|----------------|---------------- ||
 |                                                                    ||
E|----------------|----------------|----------------|---------------- ||
B|--5-5-5-5-3-----|----------------|--5-5-5-5-3-----|---------------- ||
G|--4-4-4-2-0---2-|----------------|--4-4-4-2-0---2-|----------------o||
D|--2-2-2-0-0---2-|----2-----225-2-|--2-2-2-0-0---2-|----------------o||
A|----------------|----------------|----------------|---------------- ||
E|----------------|----------------|----------------|---------------- ||

E|----------------|----------------|
B|--5-5-5-5-3-----|----------------|
G|--4-4-4-2-0---2-|----------------|
D|--2-2-2-0-0---2-|----2-----225-2-| Play 8
A|----------------|----------------| times
E|----------------|----------------|



South Bound Saurez:



Standard Tuning

E|----------------|----------------|-----5-----5-89-|-----5-----5-89-|
B|----------------|----------------|-----5-----5----|-----5-----5----|
G|----------------|----------------|--56-6--56-6-89-|--56-6--56-6-89-|
D|----------------|----------------|--67----67------|--67----67------|
A|----------------|----------------|--67----67------|--67----67------|
E|----------------|----------------|--45----45------|--45----45------|

E|-----8-----81112|-----8-----81112|-----5-----5-89-|-----5-----5-89-|
B|-----8-----8----|-----8-----8----|-----5-----5----|-----5-----5----|
G|--89-9--89-91112|--89-9--89-91112|--56-6--56-6-89-|--56-6--56-6-89-|
D|--910---910-----|--910---910-----|--67----67------|--67----67------|
A|--910---910-----|--910---910-----|--67----67------|--67----67------|
E|--78----78------|--78----78------|--45----45------|--45----45------|

E|-----8-----81112|-----8-----81112|-----5-----5-89-|-----5-----5-89-|
B|-----8-----8----|-----8-----8----|-----5-----5----|-----5-----5----|
G|--89-9--89-91112|--89-9--89-91112|--56-6--56-6-89-|--56-6--56-6-89-|
D|--910---910-----|--910---910-----|--67----67------|--67----67------|
A|--910---910-----|--910---910-----|--67----67------|--67----67------|
E|--78----78------|--78----78------|--45----45------|--45----45------|

E|----------------|------8-----8-12|
B|----------------|-----88-----8---|
G|------10-141210-|--89-9-9-8999-12| Repeat 2X
D|--10--1012------|--910----910----|
A|--1012----------|----------------|
E|----------------|----------------|

E|----------------|----------------|
B|6---------------|-1--------------|
G|7---------------|-200------------|
D|8---------------|---3--(3)-------|
A|8---------------|----------------|
E|6---------------|----------101-5-|

Repeat that 3 times


  Outro
E|----------------|----------------|------------6---|----------------|
B|----------------|----------------|--------68---86-|----------------|
G|---------5--3---|---------------5|5---------------|----------------|
D|3---------------|---13-----------|----------------|----------------|
A|----------------|----------------|----------------|----------------|
E|----------------|------------01--|----------------|----------------|
 |                                                                   |
E|----------------|----------------|-----8-----81112|-----8-----81112|
B|----------------|----------------|-----8-----8----|-----8-----8----|
G|7---------------|--20------------|--89-9--89-91112|--89-9--89-91112|
D|8---------------|----3-----------|--910---910-----|--910---910-----|
A|8---------------|----------------|--910---910-----|--910---910-----|
E|6---------------|----------101---|--78----78------|--78----78------|

E|----6-----------|----6-----------|---6------------|---6------------|
B|-86----86-64----|--68---86-6-----|--8----864------|--8----864------|
G|------------5-55|------------5555|----------5-55--|----------5-55--|
D|----------------|----------------|----------------|----------------|
A|----------------|----------------|----------------|----------------|
E|----------------|----------------|----------------|----------------|
 |          \3/                                                      |
E|----------------|----------------|----------------|----------------|
B|----------------|----------------|----------------|----------------|
G|----------------|----------------|----------------|----------------|
D|----------------|----------------|----------------|----------------|
A|8-10121010101210|--10121010101210|1010121010101210|1010121010101210|
E|6-8-8-8-8-8-8-8-|--8-8-8-8-8-8-8-|8-8-8-8-8-8-8-8-|8-8-8-8-8-8-8-8-|

E|----8-----------|---6------------|----8-----------|----8-----------|
B|-68----864------|-68----864------|-68----864------|-68----86-------|
G|----------5-55--|----------5555--|----------5-55--|----------5-5555|
D|----------------|----------------|----------------|----------------|
A|----------------|----------------|----------------|----------------|
E|----------------|----------------|----------------|----------------|
 |                                                                   |
E|----------------|----------------|----------------|----------------|
B|----------------|----------------|----------------|----------------|
G|----------------|----------------|----------------|----------------|
D|----------------|----------------|----------------|----------------|
A|1010121010101210|1010121010101210|1010121010101210|1010121010101210|
E|8-8-8-8-8-8-8-8-|8-8-8-8-8-8-8-8-|8-8-8-8-8-8-8-8-|8-8-8-8-8-8-8-8-|

E|----6-----------|---6------------|----8-----------|----8-----------|
B|-68----86-------|-68----864------|-68----864------|-68----86-------|
G|---------55-55--|----------5555--|----------5-55--|----------5-5555|
D|----------------|----------------|----------------|----------------|
A|----------------|----------------|----------------|----------------|
E|----------------|----------------|----------------|----------------|
 |                                                                   |
E|----------------|----------------|----------------|----------------|
B|----------------|----------------|----------------|----------------|
G|----------------|----------------|----------------|----------------|
D|----------------|----------------|----------------|----------------|
A|1010121010101210|1010121010101210|1010121010101210|1010121010101210|
E|8-8-8-8-8-8-8-8-|8-8-8-8-8-8-8-8-|8-8-8-8-8-8-8-8-|8-8-8-8-8-8-8-8-|

E|-6-8-86---------|
B|-------8666-----|
G|-----------6-5-5|
D|----------------|
A|--------------7-|
E|----------------|
 |                |
E|----------------|
B|----------------|
G|----------------|
D|----------------|
A|1010121010101210|
E|8-8-8-8-8-8-8-8-|

  Solo
E|1515151515151515151515--15151515|151515151515151515151515--151515|
B|171717171717171717171715--131513|17171717171717171717171715131513|
G|--------------------------------|--------------------------------|
D|--------------------------------|--------------------------------|
A|--------------------------------|--------------------------------|
E|--------------------------------|--------------------------------|

E|151515151515151515151515--151515|151515151515151515151515--1515--|
B|17171717171717171717171515131513|171717171717171717171715151315--|
G|--------------------------------|--------------------------------|
D|--------------------------------|--------------------------------|
A|--------------------------------|--------------------------------|
E|--------------------------------|--------------------------------|

E|--------5-8-5-10------14------14|14-13-12------------------------|
B|------5---8-5-----5-------------|--------141312------------131513|
G|----6---------------------12----|--------------141312--1214------|
D|--------------------------------|--------------------------------|
A|--------------------------------|--------------------------------|
E|--------------------------------|--------------------------------|
                                   \---3--/          \--3-/

E|------------------------15------|--------------------------------|
B|13--------------------------13--|--131513--13--1317--1513----13--|
G|--------------------------------|14----------14------------------|
D|--------------------------------|--------------------------------|
A|--------------------------------|--------------------------------|
E|--------------------------------|--------------------------------|

E|---------------------131415-----|----------------------15--------|
B|-----------------1517---------15|171513--15----15131517--13--13--|
G|--------------------------------|--------------------------------|
D|--------------------------------|--------------------------------|
A|--------------------------------|--------------------------------|
E|--------------------------------|--------------------------------|

E|---------------18--15---1514--13|--131415------------------------|
B|--------------------------------|17------1715--13----15--13------|
G|--------------------------------|------------------14--14--------|
D|--------------------------------|--------------------------------|
A|--------------------------------|--------------------------------|
E|--------------------------------|--------------------------------|

E|----18------15--1413--131415----|--------------------------------|
B|--------------------17--------15|17----151713--------------------|
G|--------------------------------|--------------------------------|
D|--------------------------------|--------------------------------|
A|--------------------------------|--------------------------------|
E|--------------------------------|--------------------------------|



Fool In The Rain:



Standard Tuning


  12/8 time
E|0---1---3---5-----5---3-|------------------------|0---1---3---5-----5---3-|------------------------|
B|1---3---3---5-----5---3-|--3---------------------|1---3---3---5-----5---3-|------------------------|
G|0---2---4---5-----5---4-|--4---------------------|0---2---4---5-----5---4-|------------------------|
D|------------------------|--5---------------------|------------------------|------------------------|
A|------------------------|------------------------|------------------------|------------------------|
E|------------------------|------------------------|------------------------|------------------------|
x 10 times


E|0---0-------5-----5---3-|--3---------------------|0---0-------5-----5---3-|--3---------------------|
B|1---1-------5-----5---3-|--3---------------------|1---1-------5-----5---3-|--3---------------------|
G|0---0-------5-----5---4-|--4---------------------|0---0-------5-----5---4-|--4---------------------|
D|------------------------|------------------------|------------------------|------------------------|
A|------------------------|------------------------|------------------------|------------------------|
E|------------------------|------------------------|------------------------|------------------------|
 |                                                                                                   |
E|------------------------|------------------------|------------------------|------------------------|
B|--------------------5---|------------------------|--------------------5---|------------------------|
G|--------5-------5-------|7---4-------7-4-5---4---|--------5-------5-------|7---4-------7-4-5---4---|
D|----5-------7-----------|------------------7---5-|----5-------7-----------|------------------7---5-|
A|7-----------------------|------------------------|7-----------------------|------------------------|
E|------------------------|------------------------|------------------------|------------------------|
x2 times


E|0---1---3---5-----5---3-|------------------------|0---1---3---5-----5---3-|------------------------|
B|1---3---3---5-----5---3-|--3---------------------|1---3---3---5-----5---3-|------------------------|
G|0---2---4---5-----5---4-|--4---------------------|0---2---4---5-----5---4-|------------------------|
D|------------------------|--5---------------------|------------------------|------------------------|
A|------------------------|------------------------|------------------------|------------------------|
E|------------------------|------------------------|------------------------|------------------------|
x5 times


E|0---0-------5-----5---3-|--3---------------------|0---0-------5-----5---3-|--3---------------------|
B|1---1-------5-----5---3-|--3---------------------|1---1-------5-----5---3-|--3---------------------|
G|0---0-------5-----5---4-|--4---------------------|0---0-------5-----5---4-|--4---------------------|
D|------------------------|------------------------|------------------------|------------------------|
A|------------------------|------------------------|------------------------|------------------------|
E|------------------------|------------------------|------------------------|------------------------|
 |                                                                                                   |
E|------------------------|------------------------|------------------------|------------------------|
B|--------------------5---|------------------------|--------------------5---|------------------------|
G|--------5-------5-------|7---4-------7-4-5---4---|--------5-------5-------|7---4-------7-4-5---4---|
D|----5-------7-----------|------------------7---5-|----5-------7-----------|------------------7---5-|
A|7-----------------------|------------------------|7-----------------------|------------------------|
E|------------------------|------------------------|------------------------|------------------------|
x2 times


E|0---1---3---5-----5---3-|------------------------|0---1---3---5-----5---3-|------------------------|
B|1---3---3---5-----5---3-|--3---------------------|1---3---3---5-----5---3-|------------------------|
G|0---2---4---5-----5---4-|--4---------------------|0---2---4---5-----5---4-|------------------------|
D|------------------------|--5---------------------|------------------------|------------------------|
A|------------------------|------------------------|------------------------|------------------------|
E|------------------------|------------------------|------------------------|------------------------|
x3 times

  2/2 time  Interlude
E|----------------|----------------|----------------|----------------|
B|----------------|----------------|----------------|----------------|
G|----------------|----------------|----------------|----------------|
D|----------------|----------------|----------------|----------------|
A|----------------|----------------|----------------|----------------|
E|----------------|----------------|----------------|----------------|

E|----------------|----------------|----------------|----------------||
B|----------------|----------------|----------------|----------------||
G|----------------|----------------|----------------|----------------||
D|----------------|----------------|----------------|----------------||
A|----------------|----------------|----------------|----------------||
E|----------------|----------------|----------------|----------------||

E|0---0-----1---1-|--1-----3-3-3---|
B|1---1-----1---1-|--1-----3-3-3---|
G|0---0-----2---2-|--2-----4-4-4---| Play 28
D|----------------|----------------| times
A|----------------|----------------|
E|----------------|----------------|

E|----0-0-----1-1-|----3-3-----1-1-|
B|----1-1-----1-1-|----3-3-----1-1-|
G|----0-0-----2-2-|----4-4-----2-2-| Play 7
D|----------------|----------------| times
A|----------------|----------------|
E|----------------|----------------|

E|----0-0-----1-1-|3---------------||
B|----1-1-----1-1-|3---------------||
G|----0-0-----2-2-|4---------------||
D|----------------|----------------||
A|----------------|----------------||
E|----------------|----------------||

  12/8 time  Guitar synth solo (w/ main rhythm riff)
E|------------------------|------------------------|------------------------|------------------------|
B|------------------------|----5-8-5-6-----5-8-5-6-|----5-------------------|----3-6-3-5-----3-5-3-5-|
G|------------------------|------------------------|------------------------|------------------------|
D|------------------------|--7-----------7---------|------------------------|--5-----------5---------|
A|------------------------|------------------------|------------------------|------------------------|
E|------------------------|------------------------|------------------------|------------------------|

E|------------------------|------------------------|------------------------|------------------------|
B|----3-1-----3-----1-----|------------------------|------------------------|----6-5---6-5-----------|
G|----------2-----2-------|2-----------------------|------------7---5-------|--------------7-5-7-5---|
D|------------------------|---------------5-7---5--|----------7---7---------|----------------------7-|
A|------------------------|---------5-7------------|------------------------|------------------------|
E|------------------------|------------------------|------------------------|------------------------|

E|------------------------|------------------------|----------------------------------5-|
B|------------------------|------------------------|--------------------5-6-5---5-6-8---|
G|5---------7-5---5-------|5---4-------------------|------4-5-4---4-5-7-------7---------|
D|----7-----------------7-|------5-----------------|--5-7-------7-----------------------|
A|------------------------|------------------------|------------------------------------|
E|------------------------|------------------------|------------------------------------|

E|------------------------------------|----------------------------5-5-|------------------------|
B|8-6-5-6-5-6-5-----------------------|----------------6-5---5-6-8-----|8---6---5---6---5-------|
G|--------------7-5-7-5-7-5-------5-7-|5-7-5-------5-------7-----------|--------------------7---|
D|--------------------------7-5-7-----|------7-7-7---------------------|------------------------|
A|------------------------------------|--------------------------------|------------------------|
E|------------------------------------|--------------------------------|------------------------|

E|------------------------|------------------------|
B|---------------------10-|8-----------------------|
G|5-----7---5-----9------9|------------------------|
D|--------7---------------|------------------------|
A|------------------------|------------------------|
E|------------------------|------------------------|

E|------------------------|----------------------3-|------------------------|------------------------|
B|(8)---------------------|------------5---6-------|5---6-3---5-3-----------|------------------------|
G|------------------------|------------------------|----------------5-4---5-|4-----------------------|
D|------------------------|------------------------|------------------------|----5-------------------|
A|------------------------|------------------------|------------------------|------------121415141214|
E|------------------------|------------------------|------------------------|------------------------|

E|------------------------------------------|12--------------------------------|
B|--------------------------12--------121215|--151215121212--12----------------|
G|----------------121214--14--14121414------|--------------14--14--1412--12----|
D|--12141514121415--------------------------|--------------------------15--1415|
A|15----------------------------------------|----------------------------------|
E|------------------------------------------|----------------------------------|

E|--------------------------|------------------------|
B|--------------------------|------------------------|
G|--------------------------|------------------------|
D|141514121412--------------|------------------------|
A|------------15151412151415|14----------------------|
E|--------------------------|----15------------------|

E|----12----12------------|------------------------|----------------------10|------------------------|
B|------------------------|------------------------|------------------------|------------------------|
G|------------9---9-9---10|9-----------------------|------------------------|----777---7-----9-797---|
D|------------------------|----10------------------|------------------------|------------------------|
A|------------------------|------10----------------|------------------------|------------------------|
E|------------------------|------------------------|------------------------|------------------------|

E|------------------------|------------------------|------------------------|------------------------|
B|------------------------|------------------------|------------------------|------------------------|
G|7---9-7-----------------|------------------------|------------7-5---5-----|7---------5-------4-----|
D|----------9-7---9-7---5-|7---5-------------------|----------7-----7-------|------------------------|
A|------------------------|------------------------|----5-10----------------|------------------------|
E|------------------------|------------------------|------------------------|------------------------|

E|----------------------------|5---------------------------------|------------------------|
B|--------------5-6-5---5-6---|--8-8-5-6-5---5-------------------|------------------------|
G|----4-------7-------7-------|------------7---7-5-7-5-4-5-4---4-|5-----4-----5-----4-----|
D|7---------7-----------------|------------------------------7---|----------7-----7-----5-|
A|----------------------------|----------------------------------|------------------------|
E|----------------------------|----------------------------------|------------------------|

E|------------------------||
B|------------------------||
G|------------------------||
D|7-5---------------------||
A|------------------------||
E|------------------------||
        Ooh,  now   my


E|0---1---3---5-----5---3-|------------------------|0---1---3---5-----5---3-|------------------------|
B|1---3---3---5-----5---3-|--3---------------------|1---3---3---5-----5---3-|------------------------|
G|0---2---4---5-----5---4-|--4---------------------|0---2---4---5-----5---4-|------------------------|
D|------------------------|--5---------------------|------------------------|------------------------|
A|------------------------|------------------------|------------------------|------------------------|
E|------------------------|------------------------|------------------------|------------------------|
 |                                                                                                   |
E|------------------------|------------------------|------------------------|------------------------|
B|------------------------|------------------------|------------------------|------------------------|
G|------------------------|------------------------|------------------------|------------------------|
D|------------3---------5-|(5)---------------2---5-|------------3---------5-|(5)---------------2---5-|
A|3-----------------------|--------------2-5-------|3-----------------------|--------------2-5-------|
E|------------------------|------------3-----------|------------------------|------------3-----------|
x4 times

E|0---0-------5-----5---3-|(3)-3-------------------|
B|1---1-------5-----5---3-|(3)-3-------------------|
G|0---0-------5-----5---4-|(4)-4-------------------|
D|------------------------|------------------------|
A|------------------------|------------------------|
E|------------------------|------------------------|
 |                                                 | Play 11
E|3-----------5-----------|------------------------| times
B|--5-5---------5-6-------|8---6-5-----6---5-------|
G|------4-5---------5-5---|--------7-5-------7-5-4-|
D|------------------------|------------------------|
A|------------------------|------------------------|
E|------------------------|------------------------|

E|------------5-----5---7-|(7)---------------------||
B|5---5-------6-----6---8-|(8)---------------------||
G|5---5-------5-----5---7-|(7)---------------------||
D|5---5-------------------|------------------------||
A|------------------------|------------------------||
E|------------------------|------------------------||
 |                                                 ||
E|------------5-----5---7-|(7)---------------------||
B|8-5-5-------6-----6---8-|(8)---------------------||
G|------------5-----5---7-|(7)---------------------||
D|------9-5---------------|------------------------||
A|------------------------|------------------------||
E|------------------------|------------------------||



Hot Dog:



Standard Tuning

E|----------------|----------------|----------------|----------------|
B|---0------------|---0------------|---0------------|---0------------|
G|----20-----20---|----20----------|----20-----20---|----2---0-------|
D|545---2---------|545---2---0-----|545---2----0----|545--020--------|
A|--------323-----|-------05-----5-|--------323-----|----------------|
E|----------------|----------------|----------------|----------------|
 |                                                                   |
E|----------------|----------------|----------------|----------------|
B|----------------|----------------|----------------|----------------|
G|----------------|----------------|----------------|----------------|
D|----------------|----------------|----------------|----------------|
A|----------------|----------------|----------------|----------------|
E|----------------|----------------|----------------|----------0-1-2-|


E|--333-333-------|--000-000-------|--333-333-------|--222-222-------|
B|--333-333-------|--111-111-------|--333-333-------|--111-111-------|
G|--000-000-------|--000-000-------|--000-000-------|--222-222-------|
D|--000-000-------|--222-222-------|--000-000-------|--000-000-------|
A|----------------|--333-333-------|----------------|----------------|
E|--333-333-------|----------------|--333-333-------|----------------|
 |                                                                   |
E|----------------|----------------|----------------|----------------|
B|----------------|----------------|----------------|----------------|
G|--000-00--------|--000-00--------|--000-00--------|----------------|
D|--000-00--------|--222-22--------|--000-00--------|----------------|
A|----------0-1-2-|3-------3-------|----------2-3-4-|5-2-3-4-5-------|
E|3-------3-------|----------0-1-2-|3-------3-------|----------0-1-2-|


E|--333-333-------|--000-000-------|--333-332-------|--333-333-------|
B|--000-000-------|--111-111-------|--000-001-------|--000-000-------|
G|--000-000-------|--000-000-------|--000-002-------|--000-000-------|
D|--000-000-------|--222-222-------|--000-000-------|--000-000-------|
A|----------------|--333-333-------|----------------|----------------|
E|--333-333-------|----------------|--333-33--------|--333-333-------|
 |                                                                   |
E|----------------|----------------|----------------|--333-333-------|
B|----------------|----------------|----------------|--000-000-------|
G|--000-00--------|--000-00--------|----------------|--000-000-------|
D|--000-00--------|--222-22--------|----------------|--000-000-------|
A|----------0-1-2-|3-------3-------|--2-3-4-5-------|----------------|
E|3-------3-------|----------0-1-2-|3---------0-1-2-|3---------0-1-2-|


E|--333-333-------|--000-000-------|--333-333-------|--222-222-------|
B|--333-333-------|--111-111-------|--333-333-------|--111-111-------|
G|--000-000-------|--000-000-------|--000-000-------|--222-222-------|
D|--000-000-------|--222-222-------|--000-000-------|--000-000-------|
A|----------------|--333-333-------|----------------|----------------|
E|--333-333-------|----------------|--333-333-------|----------------|
 |                                                                   |
E|----------------|----------------|----------------|----------------|
B|----------------|----------------|----------------|----------------|
G|--00--00--------|--000-00--------|--000-00--------|----------------|
D|--00--00--------|--222-22--------|--000-00--------|----------------|
A|----------0-1-2-|3-------3-------|----------2-3-4-|5-2-3-4-5-------|
E|3---3---3-------|----------0-1-2-|3-------3-------|----------0-1-2-|


E|--333-333-------|--000-000-------|--333-332-------|--333-333-------||
B|--000-000-------|--111-111-------|--000-001-------|--000-000-------||
G|--000-000-------|--000-000-------|--000-002-------|--000-000-------||
D|--000-000-------|--222-222-------|--000-000-------|--000-000-------||
A|----------------|--333-333-------|----------------|----------------||
E|--333-333-------|----------------|--333-33--------|--333-333-------||
 |                                                                   ||
E|----------------|----------------|----------------|--333-333-------||
B|----------------|----------------|----------------|--000-000-------||
G|--000-00--------|--000-00--------|----------------|--000-000-------||
D|--000-00--------|--222-22--------|----------------|--000-000-------||
A|----------0-1-2-|3-------3-------|--2-3-4-5-------|----------------||
E|3-------3-------|----------0-1-2-|3---------0-1-2-|3---------0-1-2-||
                                                               Well I, well I, well I.....


E|--333-333-------|--000-000-------|--333-333-------|--222-222-------|
B|--333-333-------|--111-111-------|--333-333-------|--111-111-------|
G|--000-000-------|--000-000-------|--000-000-------|--222-222-------|
D|--000-000-------|--222-222-------|--000-000-------|--000-000-------|
A|----------------|--333-333-------|----------------|----------------|
E|--333-333-------|----------------|--333-333-------|----------------|
 |                                                                   |
E|----------------|----------------|----------------|----------------|
B|----------------|----------------|----------------|----------------|
G|--00--00--------|--000-00--------|--000-00--------|----------------|
D|--000-000-------|--222-22--------|--000-00--------|----------------|
A|----------0-1-2-|3-------3-------|----------2-3-4-|5-2-3-4-5-------|
E|3---------------|----------0-1-2-|3-------3-------|----------0-1-2-|


E|--333-333-------|--000-000-------|--333-332-------|--333-333-------|
B|--000-000-------|--111-111-------|--000-001-------|--000-000-------|
G|--000-000-------|--000-000-------|--000-002-------|--000-000-------|
D|--000-000-------|--222-222-------|--000-000-------|--000-000-------|
A|----------------|--333-333-------|----------------|----------------|
E|--333-333-------|----------------|--333-33--------|--333-333-------|
 |                                                                   |
E|----------------|----------------|----------------|--333-333-------|
B|----------------|----------------|----------------|--000-000-------|
G|--000-00--------|--000-00--------|----------------|--000-000-------|
D|--000-00--------|--222-22--------|----------------|--000-000-------|
A|----------0-1-2-|3-------3-------|--2-3-4-5-------|----------------|
E|3-------3-------|----------0-1-2-|3---------0-1-2-|3---------0-1-2-|


E|--333-333-------|--000-000-------|--333-333-------|--222-222-------|
B|--333-333-------|--111-111-------|--333-333-------|--111-111-------|
G|--000-000-------|--000-000-------|--000-000-------|--222-222-------|
D|--000-000-------|--222-222-------|--000-000-------|--000-000-------|
A|----------------|--333-333-------|----------------|----------------|
E|--333-333-------|----------------|--333-333-------|----------------|
 |                                                                   |
E|----------------|----------------|----------------|----------------|
B|----------------|----------------|----------------|----------------|
G|--00--00--------|--000-00--------|--000-00--------|----------------|
D|--00--00--------|--222-22--------|--000-00--------|----------------|
A|----------0-1-2-|3-------3-------|----------2-3-4-|5-2-3-4-5-------|
E|3---3---3-------|----------0-1-2-|3-------3-------|----------0-1-2-|


E|--333-333-------|--000-000-------|--333-332-------|--333-333-------||
B|--000-000-------|--111-111-------|--000-001-------|--000-000-------||
G|--000-000-------|--000-000-------|--000-002-------|--000-000-------||
D|--000-000-------|--222-222-------|--000-000-------|--000-000-------||
A|----------------|--333-333-------|----------------|----------------||
E|--333-333-------|----------------|--333-33--------|--333-333-------||
 |                                                                   ||
E|----------------|----------------|----------------|--333-333-333---||
B|----------------|----------------|----------------|--000-000-000---||
G|--000-00--------|--000-00--------|----------------|--000-000-000---||
D|--000-00--------|--222-22--------|----------------|--000-000-000---||
A|----------0-1-2-|3-------3-------|--2-3-4-5-------|--------------4-||
E|3-------3-------|----------0-1-2-|3---------0-1-2-|3---------------||


E|--2------2------|--3-3-----3-----|--2------2------|--3-3-33--3-----|
B|----5-3-----53--|--0-0-100----00-|----5-3-----53--|----------------|
G|--2-----2-2---2-|--0-0-000-------|--2-----2-2---2-|----------------|
D|0---------------|----------------|0---------------|----------------|
A|----------------|----------------|----------------|2---2---2---1-2-|
E|----------------|3---------------|----------------|----------------|
  And now my baby's gone.....

E|----------------|----------------|----------------|----------------||
B|----------------|----------------|--22--22--------|----------------||
G|--000-00--------|--00--00--00----|--22--22--------|----------------||
D|--222-22--------|--000-000-00----|--222-22--------|----------------||
A|3-------3-------|----------------|0-------0-2-3-4-|5---------------||
E|----------0-1-2-|3-----------3-4-|----------------|----------0-1-2-||


E|--333-333-------|--000-000-------|--333-333-------|--222-222-------|
B|--333-333-------|--111-111-------|--333-333-------|--111-111-------|
G|--000-000-------|--000-000-------|--000-000-------|--222-222-------|
D|--000-000-------|--222-222-------|--000-000-------|--000-000-------|
A|----------------|--333-333-------|----------------|----------------|
E|--333-333-------|----------------|--333-333-------|----------------|
 |                                                                   |
E|----------------|----------------|----------------|----------------|
B|----------------|----------------|----------------|----------------|
G|--000-00--------|--000-00--------|--000-00--------|----------------|
D|--000-00--------|--222-22--------|--000-00--------|----------------|
A|----------0-1-2-|3-------3-------|----------2-3-4-|5-2-3-4-5-------|
E|3-------3-------|----------0-1-2-|3-------3-------|----------0-1-2-|
  I took her love at seventeen.....


E|--333-333-------|--000-000-------|--333-332-------|--333-333-------||
B|--000-000-------|--111-111-------|--000-001-------|--000-000-------||
G|--000-000-------|--000-000-------|--000-002-------|--000-000-------||
D|--000-000-------|--222-222-------|--000-000-------|--000-000-------||
A|----------------|--333-333-------|----------------|----------------||
E|--333-333-------|----------------|--333-33--------|--333-333-------||
 |                                                                   ||
E|----------------|----------------|----------------|--333-333-------||
B|----------------|----------------|----------------|--000-000-------||
G|--000-00--------|--000-00--------|----------------|--000-000-------||
D|--000-00--------|--222-22--------|----------------|--000-000-------||
A|----------0-1-2-|3-------3-------|--2-3-4-5-------|----------------||
E|3-------3-------|----------0-1-2-|3---------0-1-2-|3---------0-1-2-||


E|----------------|-----------5----|-----57----57---|10--10----1010--|
B|-----------5----|----5-57878-8---|8-878---878---0-|101212108-1210--|
G|----4-47767-7---|5457-7----------|----------------|----------------|
D|5457------------|----------------|----------------|----------------|
A|----------------|----------------|----------------|----------------|
E|----------------|----------------|----------------|----------------|
 |                                                                   |
E|--333-333-------|--000-000-------|--333-333-------|--222-222-------|
B|--333-333-------|--111-111-------|--333-333-------|--111-111-------|
G|--000-000-------|--000-000-------|--000-000-------|--222-222-------|
D|--000-000-------|--222-222-------|--000-000-------|--000-000-------|
A|----------------|--333-333-------|----------------|----------------|
E|--333-333-------|----------------|--333-333-------|----------------|
 |                                                                   |
E|----------------|----------------|----------------|----------------|
B|----------------|----------------|----------------|----------------|
G|--000-00--------|--000-00--------|--000-00--------|----------------|
D|--000-00--------|--222-22--------|--000-00--------|----------------|
A|----------0-1-2-|3-------3-------|----------2-3-4-|5-2-3-4-5-------|
E|3-------3-------|----------0-1-2-|3-------3-------|----------0-1-2-|


E|--15----15151715--------15--|101010--8--8---8----|--5-3-----5--55-|---575----------|
B|--15----1515---------15-----|8-8-8----11--11--8--|--3--33535-5-55-|878---878----810|
G|------1414------------------|9-9-9---9----11---10|0---------------|----------------|
D|--14--------------14------17|--------------------|--5-5-----------|----------------|
A|0---14------------14--------|--------------------|----------------|----------------|
E|----------------------------|--------------------|----------------|----------------|
 |                                                                   |
E|--333-333-------|--000-000-------|--333-332-------|--333-333-------|
B|--000-000-------|--111-111-------|--000-001-------|--000-000-------|
G|--000-000-------|--000-000-------|--000-002-------|--000-000-------|
D|--000-000-------|--222-222-------|--000-000-------|--000-000-------|
A|----------------|--333-333-------|----------------|----------------|
E|--333-333-------|----------------|--333-33--------|--333-333-------|
 |                                                                   |
E|----------------|----------------|----------------|--333-333-------|
B|----------------|----------------|----------------|--000-000-------|
G|--000-00--------|--000-00--------|----------------|--000-000-------|
D|--000-00--------|--222-22--------|----------------|--000-000-------|
A|----------0-1-2-|3-------3-------|--2-3-4-5-------|----------------|
E|3-------3-------|----------0-1-2-|3---------0-1-2-|3---------0-1-2-|

E|----------1515----1715|--10-8------8---|--5--3-------3-3|-3--------------|
B|----------1715--------|--------11----9-|--------6-----3-|-----3--5---55--|
G|--------12------------|--9-------89--10|--------4--34---|6--6--34----4---|
D|---1214---14----14--14|--10------------|----------------|---------5-45-5-|
A|710-------------------|----------------|----------------|----------------|
E|----------------------|8---------------|3---------------|----------------|
 |                                                                   |
E|--333-333-------|--000-000-------|--333-333-------|--222-222-------|
B|--333-333-------|--111-111-------|--333-333-------|--111-111-------|
G|--000-000-------|--000-000-------|--000-000-------|--222-222-------|
D|--000-000-------|--222-222-------|--000-000-------|--000-000-------|
A|----------------|--333-333-------|----------------|----------------|
E|--333-333-------|----------------|--333-333-------|----------------|
 |                                                                   |
E|----------------|----------------|----------------|----------------|
B|----------------|----------------|----------------|----------------|
G|--000-00--------|--000-00--------|--000-00--------|----------------|
D|--000-00--------|--222-22--------|--000-00--------|----------------|
A|----------0-1-2-|3-------3-------|----------2-3-4-|5-2-3-4-5-------|
E|3-------3-------|----------0-1-2-|3-------3-------|----------0-1-2-|


E|----------------|-----------5----|------1513----------|1010------1010--10--||
B|----------------|----5-57878-8-8-|--1315----15131113--|1212-121081212--1012||
G|----4-------4---|5456-7----------|------------------12|--------------------||
D|5457-7545457-75-|----------------|--------------------|--------------------||
A|----------------|----------------|--------------------|--------------------||
E|----------------|----------------|--------------------|--------------------||
 |                                                                   ||
E|--333-333-------|--000-000-------|--333-332-------|--333-333-------||
B|--000-000-------|--111-111-------|--000-001-------|--000-000-------||
G|--000-000-------|--000-000-------|--000-002-------|--000-000-------||
D|--000-000-------|--222-222-------|--000-000-------|--000-000-------||
A|----------------|--333-333-------|----------------|----------------||
E|--333-333-------|----------------|--333-33--------|--333-333-------||
 |                                                                   ||
E|----------------|----------------|----------------|--333-333-------||
B|----------------|----------------|----------------|--000-000-------||
G|--000-00--------|--000-00--------|----------------|--000-000-------||
D|--000-00--------|--222-22--------|----------------|--000-000-------||
A|----------0-1-2-|3-------3-------|--2-3-4-5-------|----------------||
E|3-------3-------|----------0-1-2-|3---------0-1-2-|3---------0-1-2-||


E|2-2-22222-222-2-|----------------|2-2-22222-222-2-|----------------|
B|3-3-33333-333-3-|--000-0000000-00|3-3-33333-333-3-|000-000-0---530-|
G|2-2-22222-222-2-|--000-0000000-00|2-2-22222-222-2-|000-000-0-------|
D|0-0-00000-000-0-|--000-0000000-00|0-0-00000-000-0-|000-000-0-------|
A|----------------|----------------|----------------|----------------|
E|----------------|3---------------|----------------|333-333-3-------|
 |                                                                   |
E|--2------2------|---------3-3-3--|--2-------2-----|--3-------------|
B|----5-3-----53--|----------0---0-|----5-3-----5353|--0-------------|
G|--2-----2-2---2-|-----0--0---0---|2---------------|--0-000-0-------|
D|0---------------|--0-2-2---------|0---------------|--0-000-0-------|
A|----------------|----------------|--------0-------|----------0-1-2-|
E|----------------|3---------------|----------------|----------------|
  Well now my baby's gone, I don't know what to do.....


E|--000-00000-----|----------33----|----------------|----------------||
B|--111-11111-1--1|------------5-3-|----------------|----------------||
G|--000-00000---0-|0---------------|2----2222-------|----------------||
D|--222-22222-----|----------------|----------------|----------------||
A|--333-33333-----|----------------|----------------|----------------||
E|----------------|----------------|----------------|----------------||
 |                                                                   ||
E|----------------|----------------|----------------|----------------||
B|----------------|----------------|--22--22--------|----------------||
G|--000-00--------|--00--00--00----|--22--22--------|----------------||
D|--000-00--------|--000-000-00----|--222-22--------|----------------||
A|----------0-1-2-|----------------|0-------0-2-3-4-|5---------------||
E|3-------3-------|3-----------3-4-|----------------|----------0-1-2-||


E|--333-333-------|--000-000-------|--333-333-------|--222-222-------|
B|--333-333-------|--111-111-------|--333-333-------|--111-111-------|
G|--000-000-------|--000-000-------|--000-000-------|--222-222-------|
D|--000-000-------|--222-222-------|--000-000-------|--000-000-------|
A|----------------|--333-333-------|----------------|----------------|
E|--333-333-------|----------------|--333-333-------|----------------|
 |                                                                   |
E|----------------|----------------|----------------|----------------|
B|----------------|----------------|----------------|----------------|
G|--000-00--------|--000-00--------|--000-00--------|----------------|
D|--000-00--------|--222-22--------|--000-00--------|----------------|
A|----------0-1-2-|3-------3-------|----------2-3-4-|5-2-3-4-5-------|
E|3-------3-------|----------0-1-2-|3-------3-------|----------0-1-2-
  I thought I had it all sewn up.....


E|--333-333-------|--000-000-------|--333-332-------|--333-333-------|
B|--333-333-------|--111-111-------|--000-001-------|--333-333-------|
G|--000-000-------|--000-000-------|--000-002-------|--000-000-------|
D|--000-000-------|--222-222-------|--000-000-------|--000-000-------|
A|----------------|--333-333-------|----------------|----------------|
E|--333-333-------|----------------|--333-33--------|--333-333-------|
 |                                                                   |
E|----------------|----------------|----------------|----------------|
B|----------------|----------------|----------------|--3333333-------|
G|--000-00--------|--000-00--------|----------------|--0000000-------|
D|--000-00--------|--222-22--------|----------------|--0000000-------|
A|----------0-1-2-|3-------3-------|--2-3-4-5-------|----------------|
E|3-------3-------|----------0-1-2-|3---------0-1-2-|3---------------|


E|--333-333-------|--333-333-------|--333-332-------|--333-333-------|
B|--333-333-------|--333-333-------|--333-331-------|--333-333-------|
G|--000-000-------|--000-000-------|--000-002-------|--000-000-------|
D|--000-000-------|--000-000-------|--000-000-------|--000-000-------|
A|----------------|----------------|----------------|----------------|
E|--333-333-------|--333-333-------|--333-33--------|--333-333-------|
 |                                                                   |
E|----------------|----------------|----------------|----------------|
B|----------------|--33----3-------|----------------|--3333333-------|
G|----------------|--00----0-------|----------------|--0000000-------|
D|----------------|-----02---------|----------------|--0000000-------|
A|--2-3-4-5-------|----2-----------|--2-3-4-5-------|----------------|
E|3---------0-1-2-|3---------0-1-2-|3---------0-1-2-|3---------------|


E|----------------|----------2-----|----------------|----------2-3---|(3)-------------||
B|----------------|----------3-----|----------------|----------3-0---|(3)-------------||
G|----------------|----------2-----|----------------|----------2-0---|(0)-------------||
D|----------------|----------0-----|----------------|----------0-0---|(0)-------------||
A|----------------|----------------|----------------|----------------|----------------||
E|----------------|----------------|----------------|------------3---|(3)-------------||
 |                                                                                    ||
E|----------------|----------------|----------------|----------------|----------------||
B|----------------|----------------|----------------|----------------|----------------||
G|----------------|----------------|----------------|----------------|----------------||
D|----------------|----------------|----------------|----------------|----------------||
A|----------------|----------------|----------------|----------------|----------------||
E|----------------|----------------|----------------|----------------|----------------||



Carouselambra:



Standard Tuning

E|--|----------5-5---|
B|--|----------5-5---|
G|--|2---------------|
D|22|2-------------22| Play 8
A|00|0-------------00| times
E|--|----------------|

                                                Whammy
E|----------------|----------------|----------------|----------------|
B|----------------|----------------|----------------|----------------|
G|--------000-0---|--------0---0---|----------------|----------------|
D|----------------|2---------------|2-------0---2---|2-------22------|
A|3---------------|3---------------|3-------3-------|3-------33--2-3-|
E|----------------|----------------|----------------|----------------|
  Sisters by the wayside.....

E|----------5-5---|
B|----------5-5---|
G|2---------------|
D|2-------------22| Play 4
A|0-------------00| times
E|----------------|


E|----------------|----------------|----------------|----------------|
B|----------------|----------------|----------------|----------------|
G|--------0---0---|----------------|----------------|----------------|
D|2-------0---20--|2-------0-------|2-------0-------|2-------0-------|
A|3---------------|3-----------2---|3-----------2---|3-------2---2-3-|
E|----------------|----------------|----------------|----------------|

E|----------5-5---|
B|----------5-5---|
G|2---------------|
D|2-------------22| Play 4
A|0-------------00| times
E|----------------|

E|2---2---2-------|----2-2---2-----|----2---2-------|----------------|
B|3---3---3-------|----3-3---3-3---|----3---3-------|----------------|
G|2---2---2-------|----2-2---2-2---|----2---2-------|2222--2222------|
D|0---0---0-------|----2-2---2-----|0---0---0---0---|0000--0000------|
A|----------------|----------------|----------------|----------------|
E|----------------|----------------|----------------|----------------|

E|----------------|----------------|----------------|----------------|
B|----------------|----------------|----------------|----------------|
G|----------------|----------------|----------------|----------------|
D|----------------|------------2---|3-----------2---|3-----------5---|
A|3-----------3-2-|3-----------2---|3-----------2---|3-----------5---|
E|1-----------1-0-|1-----------0---|1-----------0---|1-----------3---|

E|----------5-5---|
B|----------5-5---|
G|2---------------|
D|2-------------22| Play 4
A|0-------------00| times
E|----------------|

                                                Whammy
E|----------------|----------------|----------------|----------------|
B|----------------|----------------|----------------|----------------|
G|--------000-0---|--------0---0---|----------------|----------------|
D|----------------|2---------------|2-------0---2---|2-------22------|
A|3---------------|3---------------|3-------3-------|3-------33--2-3-|
E|----------------|----------------|----------------|----------------|
  Still in their bliss unchallenged mighty feast.....

E|----------5-5---|
B|----------5-5---|
G|2---------------|
D|2-------------22| Play 4
A|0-------------00| times
E|----------------|


E|----------------|----------------|----------------|----------------|
B|----------------|----------------|----------------|----------------|
G|--------0---0---|----------------|----------------|----------------|
D|2-------0---20--|2-------0-------|2-------0-------|2-------0-------|
A|3---------------|3-----------2---|3-----------2---|3-------2---2-3-|
E|----------------|----------------|----------------|----------------|

E|----------5-5---|
B|----------5-5---|
G|2---------------|
D|2-------------22| Play 4
A|0-------------00| times
E|----------------|

E|2---2---2-------|----2-2---2-----|----2---2-------|----------------|
B|3---3---3-------|----3-3---3-3---|----3---3-------|----------------|
G|2---2---2-------|----2-2---2-2---|----2---2-------|2222--2222------|
D|0---0---0-------|----2-2---2-----|0---0---0---0---|0000--0000------|
A|----------------|----------------|----------------|----------------|
E|----------------|----------------|----------------|----------------|

E|----------------|----------------|----------------|----------------|----------------||
B|----------------|----------------|----------------|----------------|----------------||
G|----------------|----------------|----------------|----------------|----------------||
D|----------------|------------2---|3-----------2---|3-----------2---|3-----------2---||
A|3-----------3-2-|3-----------2---|3-----------2---|3-----------2---|3-----------2---||
E|1-----------1-0-|1-----------0---|1-----------0---|1-----------0---|1-----------0---||

E|----------------|----------------|----------------|----------------|
B|----------------|----------------|----------------|----------------|
G|2---------------|----------------|2---------------|----------------|
D|2---------------|--------3---5---|2---------------|--------3---5---|
A|0---------------|--------3---5---|0---------------|--------3---5---|
E|----------------|--------1---3---|----------------|--------1---3---|

E|----------------|----------------|----------------|----------------|
B|----------------|----------------|----------------|----------------|
G|----------------|----------------|----------------|----------------|
D|77-7--2-77-7--2-|77-7--2-3---5---|77-7--2-77-7--2-|77-7--2-3---5---|
A|----------------|--------3---5---|----------------|--------3---5---|
E|----------------|--------1---3---|----------------|--------1---3---|

E|----------------|----------------|----------------|----------------|
B|----------------|----------------|----------------|----------------|
G|0-------------0-|------------0-0-|--------000-0-0-|0-------0-------|
D|2-------20------|2-------000-2---|2-------000-0-0-|2-------0-------|
A|3---------3-3---|3---------------|3---------------|------------2-3-|
E|----------------|----------------|----------------|----------------|
  How keen the soaring hunter's eye.....

E|----------5-5---|
B|----------5-5---|
G|2---------------|
D|2-------------22| Play 4
A|0-------------00| times
E|----------------|

E|----------------|----------------|----------------|----------------|
B|--------0-------|------------0---|----------------|----------------|
G|--------0---0---|--------0---0---|--------0---0---|----------------|
D|------------2---|2-------0-------|2-------0---2---|2-------2-------|
A|3---------------|3---------------|3---------------|3-------3---2-3-|
E|----------------|----------------|----------------|----------------|

E|----------5-5---|
B|----------5-5---|
G|2---------------|
D|2-------------22| Play 4
A|0-------------00| times
E|----------------|

E|----------------|----22222--22--2|----22222-------|----------------|
B|3---------------|----33333--33--3|----33333-------|3333--3333------|
G|2---------------|----22222--22--2|2---22222-------|2222--2222------|
D|0---------------|----00000--00--0|0---00000-------|0000--0000------|
A|----------------|----------------|----------------|----------------|
E|----------------|----------------|----------------|----------------|

E|----------------|----------------|----------------|----------------|
B|----------------|----------------|----------------|----------------|
G|----------------|----------------|----------------|----------------|
D|----------------|----------------|----------------|----------------|
A|3-----------2---|3-----------2---|3-----------2---|3-------3---5---|
E|1-----------0---|1-----------0---|1-----------0---|1-------1---3---|

E|----------------|----------------|----------------|----------------|
B|----------------|----------------|----------------|----------------|
G|2---------------|----------------|2---------------|----------------|
D|2---------------|--------3---5---|2---------------|--------3---5---|
A|0---------------|--------3---5---|0---------------|--------3---5---|
E|----------------|--------1---3---|----------------|--------1---3---|

E|----------------|----------------|----------------|----------------|
B|----------------|----------------|----------------|----------------|
G|----------------|----------------|----------------|----------------|
D|77-7--2-77-7--2-|77-7--2-3---5---|77-7--2-77-7--2-|77-7--2-3---5---|
A|----------------|--------3---5---|----------------|--------3---5---|
E|----------------|--------1---3---|----------------|--------1---3---|


E|----------------|----------------|----------------|----------------|----------------|
B|----------------|----------------|----------------|----------------|----------------|
G|2-------4---0---|2-----457-5-4-5-|542-----4---0---|2-----457-5-4540|----------------|
D|----------------|----------------|----------------|----------------|----------------|
A|----------------|----------------|----------------|----------------|----------------|
E|----------------|----------------|----------------|----------------|----------------|
 |                                                               \3/                  |
E|----------------|----------------|----------------|----------------|----------------|
B|----------------|----------------|----------------|----------------|----------------|
G|2-------4---0---|2-------4---0---|2-------4---0---|2---------------|77-7--2-77-7--2-|
D|3-------5---2---|3-------5---2---|3-------5---2---|3-------3---5---|----------------|
A|3-------5---2---|3-------5---2---|3-------5---2---|3-------3---5---|----------------|
E|1-------3---0---|1-------3---0---|1-------3---0---|1-------1---3---|----------------|


E|----------------|----------------|----------------|----------------|----------------|
B|----------------|----------------|----------------|----------------|----------------|
G|----------------|----------------|----------------|2-------4---0---|2-----457-5-4-5-|
D|----------------|----------------|----------------|----------------|----------------|
A|----------------|----------------|----------------|----------------|----------------|
E|----------------|----------------|----------------|----------------|----------------|
 |                                                                                    |
E|----------------|----------------|----------------|----------------|----------------|
B|----------------|----------------|----------------|----------------|----------------|
G|----------------|----------------|----------------|2-------4---0---|2-------4---0---|
D|77-7--2-3---5---|77-7--2-77-7--2-|77-7--2-3---5---|3-------5---2---|3-------5---2---|
A|--------3---5---|----------------|--------3---5---|3-------5---2---|3-------5---2---|
E|--------1---3---|----------------|--------1---3---|1-------3---0---|1-------3---0---|


E|----------------|----------------|----------------|----------------|----------------|
B|----------------|----------------|----------------|----------------|----------------|
G|542-----4---0---|2-----457-5-4540|2---------------|(2)-------------|(2)-------------|
D|----------------|----------------|----------------|----------------|----------------|
A|----------------|----------------|----------------|----------------|----------------|
E|----------------|----------------|----------------|----------------|----------------|
 |                             \3/                                                    |
E|----------------|----------------|----------------|----------------|----------------|
B|----------------|----------------|----------------|----------------|----------------|
G|2-------4---0---|2---------------|----------------|----------------|----------------|
D|3-------5---2---|3-------3---5---|77-7--2-77-7--2-|77-7--2-3---5---|77-7--2-77-7--2-|
A|3-------5---2---|3-------3---5---|----------------|--------3---5---|----------------|
E|1-------3---0---|1-------1---3---|----------------|--------1---3---|----------------|


E|----------------|----------------|----------------|----------------|----------------||
B|----------------|------------5---|8---6-----------|----------------|----------------||
G|(2)-------------|5-------2-------|------------9---|9---2---2---4---|5---2---2---0---||
D|----------------|----------------|----------------|----------------|----------------||
A|----------------|----------------|----------------|----------------|----------------||
E|----------------|----------------|----------------|----------------|----------------||
 |                                                                                    ||
E|----------------|----------------|----------------|----------------|----------------||
B|----------------|----------------|----------------|----------------|----------------||
G|----------------|2-------4---0---|2-------4---0---|2-------4---0---|2---------------||
D|77-7--2-3---5---|3-------5---2---|3-------5---2---|3-------5---2---|3-------3---5---||
A|--------3---5---|3-------5---2---|3-------5---2---|3-------5---2---|3-------3---5---||
E|--------1---3---|1-------3---0---|1-------3---0---|1-------3---0---|1-------1---3---||


E|7-----5---------|5-----5---------|3-----0-----0---|----------------|
B|--8-------7-----|--7-------5-----|--3-----1-----1-|----------------|
G|----9-------7---|----7-------6---|----4-----2-----|----------------|
D|----------------|----------------|----------------|0---------------|
A|----------------|----------------|----------------|----------------|
E|----------------|----------------|----------------|----------------|

E|7-----5---------|5-----5---------|3-----0---------||
B|--8-------7-----|--7-------5-----|--3-----1-------||
G|----9-------7---|----7-------6---|----4-----202-2-||
D|----------------|----------------|----------------||
A|----------------|----------------|----------------||
E|----------------|----------------|----------------||

E|----------------|----------------|----------------|----------------|
B|----------------|0---------------|2---------------|0---------------|
G|----------------|0---------------|2---------------|0---------------|
D|2------------424|2------------424|2------------424|2------------424|
A|0-----------0-2-|3-----------0---|0-----------0-0-|3-----------0-0-|
E|----------------|----------------|----------------|----------------|
                                                     Where was your word, where did you go?

E|--------575-----|--------353-----|----------------|----------------|
B|2-------575-----|0-------353-----|2---------------|0---------------|
G|2--2422---------|0---------------|2---------------|0---------------|
D|2--2422------424|2------------424|2------------424|2------------424|
A|0-----------0-0-|3-----------0-0-|0-----------0-0-|3-----------0-0-|
E|----------------|----------------|----------------|----------------|

E|----------------|--------353-----|----------------|
B|2---------------|0-------353-----|2---------------|
G|2---------------|0---------------|2---------------|
D|2------------424|2------------424|2---------------|
A|0-----------0-0-|3-----------0-0-|0---------------|
E|----------------|----------------|----------------|

E|7-----5---------|5-----5---------|3-----0-----0---|----------------|
B|--8-------7-----|--7-------5-----|--3-----1-----1-|----------------|
G|----9-------7---|----7-------6---|----4-----2-----|----------------|
D|----------------|----------------|----------------|0---------------|
A|----------------|----------------|----------------|----------------|
E|----------------|----------------|----------------|----------------|

E|7-----5---------|5-----5---------|3-----0---------||
B|--8-------7-----|--7-------5-----|--3-----1-------||
G|----9-------7---|----7-------6---|----4-----202-2-||
D|----------------|----------------|----------------||
A|----------------|----------------|----------------||
E|----------------|----------------|----------------||

E|----------------|----------------|----------------|----------------|
B|----------------|0---------------|2---------------|0---------------|
G|----------------|0---------------|2---------------|0---------------|
D|2------------424|2------------424|2------------424|2------------424|
A|0-----------0-2-|3-----------0---|0-----------0-0-|3-----------0-0-|
E|----------------|----------------|----------------|----------------|
                                                     Dull is the armor, cold is the day.....

E|--------575-----|--------353-----|----------------|----------------|
B|2-------575-----|0-------353-----|2---------------|0---------------|
G|2--2422---------|0---------------|2---------------|0---------------|
D|2--2422------424|2------------424|2------------424|2------------424|
A|0-----------0-0-|3-----------0-0-|0-----------0-0-|3-----------0-0-|
E|----------------|----------------|----------------|----------------|

E|----------------|--------353-----|----------------|
B|2---------------|0-------353-----|2---------------|
G|2---------------|0---------------|2---------------|
D|2------------424|2------------424|2---------------|
A|0-----------0-0-|3-----------0-0-|0---------------|
E|----------------|----------------|----------------|

E|7-----5---------|5-----5---------|3-----0---------|----------------|
B|--8-------7-----|--7-------5-----|--3-----1-------|----------------|
G|----9-------7---|----7-------6---|----4-----2-4---|----------------|
D|----------------|----------------|--------------5-|0---------------|
A|----------------|----------------|----------------|----------------|
E|----------------|----------------|----------------|----------------|

E|7-----5---------|5-----5---------|3-----0---------||
B|--8-------7-----|--7-------5-----|--3-----1-------||
G|----9-------7---|----7-------6---|----4-----2-4-2-||
D|----------------|----------------|----------------||
A|----------------|----------------|----------------||
E|----------------|----------------|----------------||

E|----------------|----------------|----------------|----------------|
B|----------------|0---------------|2---------------|0---------------|
G|----------------|0---------------|2---------------|0---------------|
D|2------------424|2------------424|2------------424|2------------424|
A|0-----------0-2-|3-----------0---|0-----------0-0-|3-----------0-0-|
E|----------------|----------------|----------------|----------------|
                   I heard the word, I couldn't stay.....

E|--------575-----|--------353-----|----------------|----------------|
B|2-------575-----|0-------353-----|2---------------|0---------------|
G|2--2422---------|0---------------|2---------------|0---------------|
D|2--2422------424|2------------424|2------------424|2------------424|
A|0-----------0-0-|3-----------0-0-|0-----------0-0-|3-----------0-0-|
E|----------------|----------------|----------------|----------------|

E|----------------|----------------||
B|----------------|----------------||
G|2---------------|(2)-------------||
D|2---------------|(2)-------------||
A|0---------------|(0)-------------||
E|----------------|----------------||

  When guitar comes back in at 7:57
E|----------------|----------------|----------------|----------------|
B|----5-3-5-------|----5-3-5-------|----5-3-5-------|7--5--3--5-53-3-|
G|---05-4-5-------|---05-4-5-------|---05-4-5-------|7--5--4--5-5402-|
D|-34--------0340-|-34--------0340-|-34--------0340-|0--0--0--0-0--0-|
A|----------------|----------------|----------------|----------------|
E|----------------|----------------|----------------|----------------|

E|----------------|----------------|
B|2--2--0---------|(0)-------------|
G|2--2--2---------|(2)-------------|
D|2--2--4---------|(4)-------------| Play 4
A|0--0--0---------|(0)-------------| times
E|----------------|----------------|

E|----------------|----------------|
B|----------------|----------------|
G|----2-0-2-------|----2-0-2-------|
D|----3-2-3-------|----3-2-3-------| Play 2
A|--12-------112--|--12-------112--| times
E|-3------------3-|-3------------3-|

E|----------------|----------------|----------------|----------------|----------------|
B|----------------|----------------|----------------|3--3------------|----------------|
G|----4-2-4-------|----4-2-4-------|----4-2-4-------|2--2--4--5--4-5-|4---------------|
D|---05-4-5-------|---05-4-5-------|---05-4-5-------|0---------------|5---------------|
A|-34--------0340-|-34--------0340-|-34--------0340-|---3--2--3--2-3-|----------------|
E|----------------|----------------|----------------|----------------|3---------------|

  When guitar comes in at 8:58
E|----------------|----------------|----------------|----------------|----------------|
B|----5-3-5-------|----5-3-5-------|----5-3-5-------|7--5--3--5-53-3-|----------------|
G|---05-4-5-------|---05-4-5-------|---05-4-5-------|7--5--4--5-5402-|2---------------|
D|-34--------0340-|-34--------0340-|-34--------0340-|0--0--0--0-0--0-|2---------------|
A|----------------|----------------|----------------|----------------|0---------------|
E|----------------|----------------|----------------|----------------|----------------|

E|----------------|----------------|----------------|----------------|
B|----5-3-5-------|----5-3-5-------|----5-3-5-------|7--5--3--5--3-5-|
G|---05-4-5-------|---05-4-5-------|---05-4-5-------|7--5--4--5--4-5-|
D|-34--------0340-|-34--------0340-|-34--------0340-|0--0--0--0--0-0-|
A|----------------|----------------|----------------|----------------|
E|----------------|----------------|----------------|----------------|


E|----------------|----------------|
B|2--2--0---------|(0)-------------|
G|2--2--2---------|(2)-------------|
D|2--2--4---------|(4)-------------| Play 12
A|0--0--0---------|(0)-------------| times
E|----------------|----------------| then fade



All My Love:



Standard Tuning

Chord legend:

Bb : [x13331]
F  : [133211]
Dm : [xx0231]
C  : [x3555x]

[Intro]
       Am       G       Dm         Am        G       D
      *        *        *          *        *        *
E|--0-0-0-0--3-3-3-3--1-1-1~--|--0-0-0-0--3-3-3-3--2-2-2~------------|
B|--1-1-1-1--3-3-3-3--3-3-3~--|--1-1-1-1--3-3-3-3--3-3-3~------------|
G|--2-2-2-2--0-0-0-0--2-2-2~--|--2-2-2-2--0-0-0-0--2-2-2~------------|
D|--2-2-2-2--0-0-0-0--0-0-0~--|--2-2-2-2--0-0-0-0--0-0-0~------------|
A|--0-0-0-0--2-2-2-2----------|--0-0-0-0--2-2-2-2--------------------|
E|-----------3-3-3-3----------|-----------3-3-3-3--------------------|

* = Page does a quick sweep of the same chord (or some such move)

[Fill 1]                 [Fill 2]
E|---------------------|----5---5--7p5-------------------------------|
B|--6b8r6~----6b8r6~---|------5--------5s3--5-3----------------------|
G|---------------------|-7b9-----------------------------------------|
D|---------------------|---------------------------------------------|
A|---------------------|---------------------------------------------|
E|---------------------|---------------------------------------------|

[Fill 3]
E|-----------------------------------------------------------|-------|
B|-15b17---15b17~~----13-15--15b17~~---15--13--15---13h15p13-|--6-8--|
G|-----------------------------------------------------------|-------|
D|-----------------------------------------------------------|-------|
A|-----------------------------------------------------------|-------|
E|-----------------------------------------------------------|-------|

e|------------------------|------------------------------------------|
B|-8b10--8b10--8---6h8p6--|-15b17~--15--13--15--15b17~--15-13h15p13--|
G|------------------------|------------------------------------------|
D|------------------------|------------------------------------------|
A|------------------------|------------------------------------------|
E|------------------------|------------------------------------------|

E|------------------------|------------------------------------------|
B|-13h15p13~~--13h15p13.--|--6-8--8b10--8b10~~~----------------------|
G|------------------------|------------------------------------------|
D|------------------------|------------------------------------------|
A|------------------------|------------------------------------------|
E|------------------------|------------------------------------------|

[Fill 4]                      [Fill 5]
E|----5---5-7p5-----7p5-----|----------------------------------------|
B|------5-------6p5-----6p5-|-------5b7r5---5b7r5--------------------|
G|7b9-----------------------|----7-----------------------------------|
D|--------------------------|--7-------------------------------------|
A|--------------------------|----------------------------------------|
E|--------------------------|----------------------------------------|

[Fill 6]
E|-------------------------------------------------------------------|
B|-15b17~--15-13-15-15b17~17~~--15--13h15p13---13h15p13~-13h15p13~---|
G|-------------------------------------------------------------------|
D|-------------------------------------------------------------------|
A|-------------------------------------------------------------------|
E|-------------------------------------------------------------------|
                        hold bend

E|------------------------|------------------------------------------|
B|--6--8--8b10---8b10~~~--|---15b17~--15--13-15--15b17~---15-13-15---|
G|------------------------|------------------------------------------|
D|------------------------|------------------------------------------|
A|------------------------|------------------------------------------|
E|------------------------|------------------------------------------|

E|-------------------------------------------------------------------|
B|--13h15p13~--13h15p13~----6--8--8b10---8b10~-----------------------|
G|-------------------------------------------------------------------|
D|-------------------------------------------------------------------|
A|-------------------------------------------------------------------|
E|-------------------------------------------------------------------|

[Fill 7]                        [Fill 8]
E|----------------------------|--------------------------------------|
B|----------------------------|--10b12r10~---------------------------|
G|---------5---5--7-7b9--7-5~-|---------------7p5-----7p5-----5~-----|
D|-5---5-7---7----------------|-------------------7~------7~---------|
A|---7------------------------|--------------------------------------|
E|----------------------------|--------------------------------------|


[Fill 9]                           [Fill 10]
E|-----------------5---------------|----------5-----------------------|
B|-------------------8p5--8b10r8---|--------5---8p5--8b10r8-----------|
G|-----5---5-7b9-------------------|--7b9---------------------7-5-----|
D|-5h7---7-------------------------|----------------------------------|
A|---------------------------------|----------------------------------|
E|---------------------------------|----------------------------------|

[Fill 11]
E|-------------------------------------------------------------------|
B|-5-----------------------------------------------------------------|
G|---7-7----7b9--7b9--7b9~~------------------------------------------|
D|-------7-----------------------------------------------------------|
A|-------------------------------------------------------------------|
E|-------------------------------------------------------------------|

Progression:

[Intro] x2

This fill is right before the lyrics begin:

E|-------8.-------7.--------5~--------|
B|---/5-------/5-------/5-------------|
G|------------------------------------|
D|------------------------------------|
A|------------------------------------|
E|------------------------------------|

[Intro] x4 w/ lyrics:

Should I fall out of love, my fire in the night, [Fill 1]
To chase a feather in the wind. [Fill 2]
Within the glow that weaves a cloak of delight, [Fill 1]
There moves a thread that has no end. [Fill 2]
For many hours and days that pass ever soon, [Fill 1]
The tides have caused the flame to dim. [Fill 2]
At last the arm is straight, the hand to the loom, [Fill 1]
Is this the end or just begin? [Fill 2]

[Fill 3] x1 /w lyrics:

 C             Em/B             Am      Am/G  G           F  G7
All of my love, all of my love, all of my love to you now.

 C             Em/B                Am            G           F
All of my love, all of my love, oh all of my love to you now.

[Intro] x2 w/ lyrics:

The cup is raised the toast is made yet again, [Fill 1]
One voice is clear above the din. [Fill 4]
Proud Arian, one word my will to sustain, [Fill 1]
For me the cloth once more to spin, oh. [Fill 5]

[Fill 6] x1 /w lyrics:

 C             Em/B             Am      Am/G  G           F  G7
All of my love, all of my love, all of my love to you now.

 C             Em/B                Am            G             F
All of my love, all of my love, oh all of my love to you child.

Next section:

Bb Bb Bb  F F F  Bb Bb Bb  F F F  Bb Bb Bb  F   C  C [Fill 7]
Bb Bb Bb  F F F  Bb Bb Bb  F F F  Bb Bb Bb  F   C  C [Fill 8]
Bb Bb Bb  F F F  Bb Bb Bb  F F F  Bb Bb Bb  F  Dm Dm Dm   C

   G         F         G6          Dm         C/G      G7   Am/G       G
E|----------------------------------------------------------------------|
B|--8b10r8----6b8r6-----10b12r10-----8b10r8-----6b8r6---/5--------------|
G|-----------------------------------------------------------7b9r7------|
D|---------------------------------------------------------5---------5~-|
A|----------------------------------------------------------------------|
E|----------------------------------------------------------------------|

Trumpet synth solo (arranged for guitar) over [Intro] x2:

E|--------------------5-4-5-7-5-4-5-8~~-7-5-------------5------------|
B|--------------5-4-5-----------------------8-6~~--5~~----5-----5----|
G|--------5-4-5---------------------------------------------5-7---5-7|
D|--7-6-7------------------------------------------------------------|
A|-------------------------------------------------------------------|
E|-------------------------------------------------------------------|

E|-------------------------------------------------------------------|
B|------------------------------------------------------------5~---5-|
G|-5-4-------4---5-4----------------------------4~---4-5~-4-5----7---|
D|-----7-5-7---5-----7-5-4-------------7-7~-6-7----7-----------------|
A|-------------------------7-5~~~----7-------------------------------|
E|-------------------------------------------------------------------|

E|--5~-4-5-7-5-4-5-8~~--7-8-10~--7-8-10-7-8-10-8-7---------7-8----7~-|
B|-------------------------------------------------10-8-10-----10----|
G|-------------------------------------------------------------------|
D|-------------------------------------------------------------------|
A|-------------------------------------------------------------------|
E|-------------------------------------------------------------------|

E|-5-5~---5~~~-------|
B|------8------------|
G|-------------------|
D|-------------------|
A|-------------------|
E|-------------------|

String synth and gtr over [Intro] x2:

Repeat four times: 3rd time with [Fill 1], 4th time with [Fill 4]

E| ------------------------------------------------------------------ |
B| -----12-13---15b17---15b17---15-15~---13-12----------------------- |
G|o-14----------------------------------------14~--12-10-12-/14~~----o|
D|o------------------------------------------------------------------o|
A| ------------------------------------------------------------------ |
E| ------------------------------------------------------------------ |

Then:

Bb Bb Bb  F F F  Bb Bb Bb  F F F  Bb Bb Bb  F   C  C [Fill 9]
Bb Bb Bb  F F F  Bb Bb Bb  F F F  Bb Bb Bb  F   C  C [Fill 10]
Bb Bb Bb  F F F  Bb Bb Bb  F F F  Bb Bb Bb  F  Dm Dm Dm   C

       G        F       G6          Dm        C/G       G7   Am/G       G
E|-----------------------------------------------------------------------|
B|6b8r6--8b10r8---6b8r6----10b12r10----8b10r8----6b8r6---/5--------------|
G|------------------------------------------------------------7b9r7------|
D|----------------------------------------------------------5---------5~-|
A|-----------------------------------------------------------------------|
E|-----------------------------------------------------------------------|

[Intro] x2 w/ lyrics:

Yours is the cloth, mine is the hand that sews time, [Fill 1]
His is the voice that lies within. [Fill 4]
Ours is the fire all the warmth we can find, [Fill 1]
He is a feather in the wind, oh. [Fill 11]

[Fill 6] simile /w lyrics:

 C             Em/B             Am      Am/G  G           F  G7
All of my love, all of my love, all of my love to you now.

 C             Em/B                Am            G           F
All of my love, all of my love, oh all of my love to you now.


[Outro]:

 Play [Fill 3] and [Fill 6] simile 2 frets higher (key change from C to D)

A A7 | D             F#m              Bm        Bm/A      A A/G G     A7
      All of my love, all of my love, all of my......love.........love...



I'm Gonna Crawl:



Standard Tuning

  12/8 time
E|--------0---------3-5---|
B|------1---1-----1-4-----|
G|----0---------1---4-----|
D|--2---------1-----------| Play
A|3-----------------------| 8 times
E|------------------------|

E|5-----------------1-----|
B|5-----------------1-----|
G|5-----------------2-----|
D|7---------5-353-------5-|
A|7-----------------------|
E|5-----------------------|

                                                               6/8 time
E|------5-----------1-----|          |------5-----------------|1110--------|
B|------5-----------1-----|          |------5-----------------|3331--------|
G|------5-----------2-----|          |------5-----------------|------------|
D|7---------5-353-------5-| Play     |7---------5-353---------|------------|
A|------------------------| 2 times  |------------------------|------------|
E|------------------------|          |------------------------|------------|

  12/8 time
E|--------0---------3-5---|
B|------1---1-----1-4-----|
G|----0---------1---4-----|
D|--2---------1-----------| Play
A|3-----------------------| 6 times
E|------------------------|

E|5-----------------1-----|
B|5-----------------1-----|
G|5-----------------2-----|
D|7---------5-353-------5-|
A|7-----------------------|
E|5-----------------------|

                                                               6/8 time
E|------5-----------1-----|          |------5-----------------|1110--------|
B|------5-----------1-----|          |------5-----------------|3331--------|
G|------5-----------2-----|          |------5-----------------|------------|
D|7---------5-353-------5-| Play     |7---------5-353---------|------------|
A|------------------------| 2 times  |------------------------|------------|
E|------------------------|          |------------------------|------------|

  12/8 time
E|2-----2---------2---2---|------3-----------------||55555-55555-55555-5-----|
B|3-----3---------3---3---|--------3-3---------3---||55555-55555-55555-5-----|
G|2-----2-------2-----2---|------------------------||55555-55555-55555-5---4-|
D|0-----0-----0-------0---|----0-----------0-------||77777-77777-77777-7---5-|
A|------------------------|--2-----------2---------||77777-77777-77777-7-----|
E|------------------------|3-----------3-----------||55555-55555-55555-5-----|

E|------------------------|55555-55555-55555-5-----|------------------------||
B|------------------------|55555-55555-55555-5-----|------------------------||
G|4-2---------------------|55555-55555-55555-5---4-|4-2---------------------||
D|5-3---------------------|77777-77777-77777-7---5-|5-3---------------------||
A|------------------------|77777-77777-77777-7-----|------------------------||
E|------------------------|55555-55555-55555-5-----|------------------------||

  Guitar Solo
E|------------------------|-----------------5-----------|
B|------------------------|------------------85855------|
G|--------9---8---------9-|975---------5-59-------75-5-5|
D|------------------------|----------57-7-----------7-7-|
A|------------------------|--------67-------------------|
E|------------------------|-----------------------------|
 |                                     \3/   \-3-/\3/   |
E|--------0---------3-5---|--------0---------3-5---|
B|------1---1-----1-4-----|------1---1-----1-4-----|
G|----0---------1---4-----|----0---------1---4-----|
D|--2---------1-----------|--2---------1-----------|
A|3-----------------------|3-----------------------|
E|------------------------|------------------------|

E|------------------------|------------------------|
B|------------------------|---------8101313-8------|
G|9-------9-9-8---------78|7-5---------------------|
D|------------------------|-------10---------------|
A|------------------------|------------------------|
E|------------------------|------------------------|
 |                     \3/                         |
E|--------0---------3-5---|--------0---------3-5---|
B|------1---1-----1-4-----|------1---1-----1-4-----|
G|----0---------1---4-----|----0---------1---4-----|
D|--2---------1-----------|--2---------1-----------|
A|3-----------------------|3-----------------------|
E|------------------------|------------------------|

E|---------------------------|--------78787----------------------|
B|10------10-1086--585-------|-------------108-------------------|
G|--------------------775--57|5-5-------------91097975 7575------|
D|-----------------------77--|-7----------------------7----7-57-5|
A|---------------------------|------------------------------7--7-|
E|---------------------------|-----------------------------------|
 |                                                 |
E|5-----------------1-----|------5-----------1-----|
B|5-----------------1-----|------5-----------1-----|
G|5-----------------2-----|------5-----------2-----|
D|7---------5-353-------5-|7---------5-353-------5-|
A|7-----------------------|------------------------|
E|5-----------------------|------------------------|

                                                    6/8 time
E|---------------------787|5------8---81012108----810-1215|1717--------|
B|------------------578---|---------10--------1010--------|------------|
G|------------565568------|-----0-------------------------|------------|
D|7-7-57----57------------|-------------------------------|------------|
A|-7-7--------------------|-------------------------------|------------|
E|------------------------|-------------------------------|------------|
 |            \3/\3/\3/\3/      \-3--/   \-3-/                  |
E|------5-----------1-----|------5-----------------|1110--------|
B|------5-----------1-----|------5-----------------|3331--------|
G|------5-----------2-----|------5-----------------|------------|
D|7---------5-353-------5-|7---------5-353---------|------------|
A|------------------------|------------------------|------------|
E|------------------------|------------------------|------------|

  12/8 time
E|--19--17------1516171919|191715--1517191715171517|1515151515-1515151515-1515151515-15----|
B|--------151518----------|------------------------|1717171717-1717171717-1717171717-17--12|
G|------------------------|------------------------|1717171717-1717171717-1717171717-17--12|
D|------------------------|------------------------|-------------------------------------12|
A|------------------------|------------------------|---------------------------------------|
E|------------------------|------------------------|---------------------------------------|
 |                                                                          |
E|2-----2---------2---2---|------3-----------------|55555-55555-55555-5-----|
B|3-----3---------3---3---|--------3-3---------3---|55555-55555-55555-5-----|
G|2-----2-------2-----2---|------------------------|55555-55555-55555-5---4-|
D|0-----0-----0-------0---|----0-----------0-------|77777-77777-77777-7---5-|
A|------------------------|--2-----------2---------|77777-77777-77777-7-----|
E|------------------------|3-----------3-----------|55555-55555-55555-5-----|

E|------------------------|1515151515-1515151515-1515151515-------|1513--------------17----||
B|------------------------|1717171717-1717171717-1717171717-17----|------------------------||
G|1210----141210--141210--|1717171717-1717171717-1717171717-----16|1614--------------------||
D|------------------------|---------------------------------------|------------------------||
A|------------------------|---------------------------------------|------------------------||
E|------------------------|---------------------------------------|------------------------||
 |        \--3-/  \--3-/                                                    ||
E|------------------------|55555-55555-55555-5-----|------------------------||
B|------------------------|55555-55555-55555-5-----|------------------------||
G|4-2---------------------|55555-55555-55555-5---4-|4-2---------------------||
D|5-3---------------------|77777-77777-77777-7---5-|5-3---------------------||
A|------------------------|77777-77777-77777-7-----|------------------------||
E|------------------------|55555-55555-55555-5-----|------------------------||

E|(17)--15----------------|
B|------------------------|
G|------------------------|
D|------------------------|
A|------------------------|
E|------------------------|
 |
E|--------0---------3-5---|--------0---------3-5---|
B|------1---1-----1-4-----|------1---1-----1-4-----|
G|----0---------1---4-----|----0---------1---4-----|
D|--2---------1-----------|--2---------1-----------|
A|3-----------------------|3-----------------------|
E|------------------------|------------------------|

E|--------0---------3-5---|
B|------1---1-----1-4-----|
G|----0---------1---4-----|
D|--2---------1-----------| Play
A|3-----------------------| 18 times
E|------------------------|

E|------------------------|
B|3-----------------------|
G|2-----------------------|
D|2-----------------------|
A|3-----------------------|
E|------------------------|
  I'm gonna crawl



The last album recorded by Led Zeppelin and definitely the most underrated :)


1000 views - 14 April 2013
2000 views - 18 January 2014
comments
print report bad tab
I want to post or [tab]
guest
You may want to rate the tab now too:
select rating
Please do not post tabs as comments. Select "correction" instead!