Oops, an error
Loading. Please wait.

Latter Days Best Of Led Zeppelin Tab

17,051 views 24 this week
7 commentsread comments
1 2 3 4 5
accurate
x 5
add to favorites launch autoscroll
font size
0
reset
Autoscroll
+/-
esc
set tempo
stop
Contributor
WARNING: You are trying to view
                                    content from Ultimate-Guitar.com
                                    in an unauthorized application,
                                    which is prohibited.

                                    Please use an official Ultimate
                                    Guitar Tabs application for iPhone,
                                    iPad or Android to access legitimate
                                    chords, guitar, bass, and drum tabs
                                    from Ultimate-Guitar.com database.

                                    Type "ultimate guitar tabs" in Apple
                                    App Store's or Android Market's
                                    search to find the application.
Led Zeppelin
Latter Days: The Best Of Led Zeppelin 

1. The Song Remains The Same
2. No Quarter
3. Houses Of The Holy
4. Trampled Underfoot
5. Kashmir
6. Ten Years Gone
7. Achilles Last Stand
8. Nobody's Fault But Mine
9. All My Love
10. In The Evening






THE SONG REMAINS THE SAME
                           As recorded by Led Zeppelin
                    (From the 1973 Album HOUSES OF THE HOLY)



Gtr I (E A D G B E) - 'Elec. w/dist.'
Gtr II (E A D G B E) - '12 String Elec. w/dist'
Gtr III (E A D G B E) - '12 String Effect'
Gtr IV (E A D G B E) - 'Elec. w/dist.'

 Intro (0:00)
  Moderately Fast Q=148
 4/4
  Gtr I

|-----------------------2--|-----------------------7--|
|-----------------------3--|-----------------------8--|
|-----------------------2--|-----------------------7--|
|-----------------------0--|--------------------------|
|--------------------------|--------------------------|
|--------------------------|--------------------------|

 Gtrs II, III

|-----------------------2--|-----------------------5--|
|-----------------------3--|-----------------------6--|
|-----------------------2--|-----------------------5--|
|-0-0-0-(0)-0-0-0-0-0-0-0--|-0-0-0-(0)-0-0-0-0-0-0-0--|
|--------------------------|--------------------------|
|--------------------------|--------------------------|

|-----------------------12--|-----------------------12---|
|-----------------------12--|-----------------------12---|
|-----------------------12--|-----------------------12---|
|---------------------------|----------------------------|
|---------------------------|----------------------------|
|---------------------------|----------------------------|

|------------------------7--|------------------------9---|
|------------------------8--|-----------------------10---|
|------------------------7--|------------------------9---|
|-0-0-0-(0)-0-0-0-0-0-0--0--|-0-0-0-(0)-0-0-0-0-0-0--0---|
|---------------------------|----------------------------|
|---------------------------|----------------------------|

|-----------------------14--|-(14)---------------------14\--|
|-----------------------15--|-(15)---------------------15\--|
|-----------------------14--|-(14)---------------------14\--|
|---------------------------|-------------------------------|
|---------------------------|-------------------------------|
|---------------------------|-------------------------------|

|-----------------------14--|--------------------------14\--|
|-----------------------15--|--------------------------15\--|
|-----------------------14--|--------------------------14\--|
|-0-0-0-(0)-0-0-0-0-0-0--0--|---0--0-0-(0)-0-0-0-0-0-0--0---|
|---------------------------|-------------------------------|
|---------------------------|-------------------------------|

|-0---------2-2-|-2---------0-0---|
|-3---------3-3-|-3---------3-3---|
|-x---------0-0-|-0---------x-x---|
|-2---------2-2-|-2---------2-2---|
|---------------|-----------------|
|---------------|-----------------|

|-0---------2-2-|-2---------0-0---|
|-3---------3-3-|-3---------3-3---|
|-x---------0-0-|-0---------x-x---|
|-2---------2-2-|-2---------2-2---|
|---------------|-----------------|
|---------------|-----------------|
  Gtrs I, II, III

|-0---------2-2-|-2---------0-0-|-0---------2-2-|-2---------0-0-|
|-3---------3-3-|-3---------3-3-|-3---------3-3-|-3---------3-3-|
|-x---------0-0-|-0---------x-x-|-x---------0-0-|-0---------x-x-|
|-2---------2-2-|-2---------2-2-|-2---------2-2-|-2---------2-2-|
|---------------|---------------|---------------|---------------|
|---------------|---------------|---------------|---------------|

|-0---------2-2-|-2--------||--2--2-2-----2----2-2-|-3--3-3------5-----3--x--|
|-3---------3-3-|-3--------||o-3--3-3-----3----3-3-|-3--3-3------7-----5--x--|
|-x---------0-0-|-0--------||--2--2-2-----2----2-2-|-2--2-2------------------|
|-2---------2-2-|-2--------||--0--0-0-----0----0-0-|-0--0-0-----(0)---(0)----|
|---------------|----------||o---------------------|-------------------------|
|---------------|----------||----------------------|-------------------------|
                                                   Gtrs II, III

|-2--2-2-----2----2-2-|-3--3-3------5-----3--x--||---0----0---0-|
|-3--3-3-----3----3-3-|-3--3-3------7-----5--x-o||---1-1----1---|
|-2--2-2-----2----2-2-|-2--2-2------------------||--------------|
|-0--0-0-----0----0-0-|-0--0-0-----(0)---(0)----||-3------------|
|---------------------|------------------------o||--------------|
|---------------------|-------------------------||--------------|

|-0-0---0----|-----0---------|-0-------!0--^0--^0--|
|-0---0---0--|-1-3---3---1-3-|---0-(0)-!0--^0--^0--|
|-----x------|---------------|---------!2--^2--^2--|
|-----3------|---------3-----|---------------------|
|------------|---------------|---------------------|
|------------|---------------|---------------------|
  Gtr IV

|---------------|---------------|---------------|------------------------------|
|---------------|---------------|---------------|------------------------------|
|---------------|---------------|---------------|------------------------------|
|---------------|---------------|---------------|------------------------------|
|---------------|---------------|---------------|------------------------------|
|---------------|---------------|---------------|----------3b3.5==(3)r-0-3b3.5-|

 Gtrs II, III

|-0---------2-2-|-2---------0-0-|-0---------2-2-|-2----(2)---------------------|
|-3---------3-3-|-3---------3-3-|-3---------3-3-|-3----(3)---------------------|
|-x---------0-0-|-0---------x-x-|-x---------0-0-|-0----(0)---------------------|
|-2---------2-2-|-2---------2-2-|-2---------2-2-|-2----(2)---------------------|
|-0---------0-0-|-0---------0-0-|-0---------0-0-|-0----(0)---------------------|
|---------------|---------------|---------------|----------3------(3)--0-3-----|

|---------------------------|---------------------------|
|---------------------------|---------------------------|
|---------------------------|---------------------------|
|---------------------------|---------------------------|
|-0-----(0)-----------------|-0-----(0)-----------------|
|-0-----(0)-3b3.5==(3)r-0-3-|-0-----(0)-3b3.5==(3)r-0-3-|

|----0--(0)-----------------|----2--(2)-----------------|
|----3--(3)-----------------|----3--(3)-----------------|
|----x----------------------|----0--(0)-----------------|
|----2--(2)-----------------|----2--(2)-----------------|
|-0--0--(0)-----------------|-0--0--(0)-----------------|
|-0---------3------(3)--0-3-|-0---------3------(3)--0-3-|

|---------------------------|---------------------------|
|---------------------------|---------------------------|
|---------------------------|---------------------------|
|---------------------------|---------------------------|
|-0-----(0)-----------------|-0-----(0)-3b3.5==(3)r-0-3-|
|-0-----(0)-3b3.5==(3)r-0-3-|---------------------------|
|

|----0--(0)-----------------|----2--(2)-----------------|
|----3--(3)-----------------|----3--(3)-----------------|
|----x----------------------|----0--(0)-----------------|
|----2--(2)-----------------|----2--(2)-----------------|
|-0--0--(0)-----------------|-0--0--(0)-----------------|
|-0---------3------(3)--0-3-|-0---------3------(3)--0-3-|
  1st Guitar Solo (0:56)
  Gtr IV

|---------------------------------|------------------------|
|---------------------------------|------------------------|
|-----------------2-4p2-----4p2---|-2---2-2--------9p7-----|
|-0----0-----3s4---------4------4-|-0--------0-7h9-----9---|
|---------------------------------|------------------------|
|---------------------------------|------------------------|
|
| Gtrs I, II, III
| E E +S  E.   E.     S +E    E     E E Q    E E   S E   S
|---2-(2)------2--------------2---|---3--------5-----3---x-|
|---------3-----------3-(3)-------|-3---3------7-----5---x-|
|-2-------------------------------|-2----------------------|
|-0-------------------------------|------------------------|
|---------------------------------|------------------------|
|---------------------------------|------------------------|

|---------------------------7-|-----------------------------------|
|-----------------------------|-10p7------------------------------|
|-7----------7-9b11---(9)-----|------9p7---9p7---7-9p7---7-7------|
|------9----------------------|----------9-----9-------9-----9----|
|-----------------------------|-----------------------------------|
|-----------------------------|-----------------------------------|

|---2-(2)------2----------2---|------3---------------5-----3---x--|
|---------3---------3-(3)-----|--3-------3-----------7-----5---x--|
|-2---------------------------|--2--------------------------------|
|-0---------------------------|-----------------------------------|
|-----------------------------|-----------------------------------|
|-----------------------------|-----------------------------------|

|----------------10--(10)-------------|---------------------------|
|-------------------------------------|-7b8---7-------------------|
|-7-9b11==(9)----(9)--(9)-9r(9)-(9)-7-|---------7-(7)-----7-9p7---|
|-------------------------------------|---------------7h9-------9-|
|-------------------------------------|---------------------------|
|-------------------------------------|---------------------------|

|---2-----(2)----------2------------2-|-----3---------5-----3---x-|
|-------------3--------------3--(3)---|-3-----3-------7-----5---x-|
|-2-----------------------------------|-2-------------------------|
|-0-----------------------------------|---------------------------|
|-------------------------------------|---------------------------|
|-------------------------------------|---------------------------|

|---------------------------7-|-----------------------------------|
|-----------------------------|-10p7------------------------------|
|-7----------7-9b11---(9)-----|------9p7---9p7----7\---2s5----4---|
|------9----------------------|----------9-----9------------------|
|-----------------------------|-----------------------------------|
|-----------------------------|-----------------------------------|

|---2-(2)------2----------2---|------3---------------3-----5------|
|---------3---------3-(3)-----|----------3-------(3)-5-----7------|
|-2---------------------------|----------2-------(2)-5-----7------|
|-0---------------------------|--0--------------------------------|
|-----------------------------|-----------------------------------|
|-----------------------------|-----------------------------------|

|------------------------|----------0--0--------------|
|------------------------|----------------------------|
|--2------2----5-----4---|--2----2----------5-----4---|
|------3-----------------|-----3----------------------|
|------------------------|----------------------------|
|------------------------|----------------------------|

|--8---8--8----3---5---x-|--8-------8--8----3---5---x-|
|-10--10-10----5---7---x-|-10------10-10----5---7---x-|
|-10--10-10----5---7-----|-10------10-10----5---7-----|
|--0---0--0--------------|--0-------0--0--------------|
|------------------------|----------------------------|
|------------------------|----------------------------|

|------------------------|----------0--0--------------|
|------------------------|----------------------------|
|--2------2----5-----4---|--2----2----------5-----4---|
|------3-----------------|-----3----------------------|
|------------------------|----------------------------|
|------------------------|----------------------------|
|
|  E.  S  q  E E S E   S    E.      S  q  E E S E   S
|--8---8--8----3---5---x-|--8-------8--8----3---5---x-|
|-10--10-10----5---7---x-|-10------10-10----5---7---x-|
|-10--10-10----5---7-----|-10------10-10----5---7-----|
|--0---0--0--------------|--0-------0--0--------------|
|------------------------|----------------------------|
|------------------------|----------------------------|

|---------------------------|--------0--0--------------|
|---------------------------|--------------------------|
|--2---------2----5-----4---|--2---2---------5-----4---|
|---------3-----------------|----3---------------------|
|---------------------------|--------------------------|
|---------------------------|--------------------------|

|--8--7-7-7--8----3---5---x-|--8-7-7-7--8----3---5---x-|
|-10--9-9-9-10----5---7---x-|-10-9-9-9-10----5---7---x-|
|-10--9-9-9-10----5---7-----|-10-9-9-9-10----5---7-----|
|--0--0-0-0--0--------------|--0-0-0-0--0--------------|
|---------------------------|--------------------------|
|---------------------------|--------------------------|

|---------------------------|----------------------|
|---------------------------|----------------------|
|--2---------2----5-----4---|--2--------0-(0)------|
|---------3-----------------|-------------------3--|
|---------------------------|----------------------|
|---------------------------|----------------------|

|--8--7-7-7--8----3---5---x-|--8---8--8----8----8--|
|-10--9-9-9-10----5---7---x-|-10--10-10---10---10--|
|-10--9-9-9-10----5---7-----|-10--10-10---10---10--|
|--0--0-0-0--0--------------|---------0----0----0--|
|---------------------------|----------------------|
|---------------------------|----------------------|

|-------------------------|-----------||-------|
|-------------------------|-----------||-------|
|-------------------------|-----------||-------|
|-(3)--2-------0----------|-----------||-------|
|--------------------3--2-|--0--------||-------|
|-------------------------|-----------||-------|

|--8---8---8---8--8--8--8-|--8--------||-0--0--|
|-10--10--10--10-10-10-10-|-10--------||-1--1--|
|-10--10--10--10-10-10-10-|-10--------||-0--0--|
|--0---0---0---0--0--0--0-|--0--------||-2--2--|
|-------------------------|-----------||-3--3--|
|-------------------------|-----------||-------|

|------3-(3)-------------------------------|
|--------------------------------------1---|
|------------2b4r(2)---(2)-----------------|
|------------------------------0-(0)-2---2-|
|------------------------------------------|
|------------------------------------------|

|------0-(0)---------0-(0)-----0--0------0-|
|----3-------3-------------3---------3-----|
|-----------------0----------0---------0---|
|-0----------------------------------------|
|------------------------------------------|
|------------------------------------------|

|---2-------------|-----------------------3--------------|
|-----------------|---------------------3---------0------|
|-----------------|-----0-(0)--------6------3h=4---------|
|-0---------------|---0----------------------------------|
|-----------------|--------------------------------------|
|-----------------|--------------------------------------|

|-0---------0--0--|-----0-(0)-----0-(0)-----0-(0)------0-|
|---3----0--1--1--|-----------3---------3---------3------|
|------0----0--0--|-------------0---------0----------0---|
|-----------2--2--|---0----------------------------------|
|-----------3--3--|--------------------------------------|
|-----------------|-3------------------------------------|

|-------------------------|-------------------7---6-(6)---6----|
|-(0)---------------------|-----------------------------7------|
|---------0---------------|----------3----4s7------------------|
|-------------------------|-----4------------------------------|
|-----4s5----1s=2---------|-------------4----------------------|
|-----------------3-------|------------------------------------|

|-(0)---------------0--0--|-0-----0-(0)-------0---------0------|
|-----3-------------1--1--|---2---------2-0h2---2-0h=2----2-0--|
|-------0---(0)-----0--0--|------------------------------------|
|-------------------2--2--|------------------------------------|
|-------------------3--3--|------------------------------------|
|-------------------------|------------------------------------|

|-----5---5-------10---8S==13---13p12--------|-------15--(15)------------------|
|-------6------------------------------------|---------------------------------|
|--------------------9----------------14b16==|=(14)-(14)-(14)-14r(14)----14-12-|
|--------------------------------------------|---------------------------------|
|--------------------------------------------|---------------------------------|
|--------------------------------------------|---------------------------------|

|---0-------0--------0--------0--------------|---------------------------------|
|-1---1-0h1---1-0h=1---1-0h=1-------1--------|---0-----------------------------|
|--------------------------------------------|---0-----------------------------|
|--------------------------------------------|---0-----------------------------|
|--------------------------------------------|---x-----------------------------|
|--------------------------------------------|---3-----------------------------|

|--------------------------------------------|-------------------------------------|
|--------------------------------------------|-------------------------------------|
|--------12----------------12----------------|-------------------------------------|
|-----------------12----------------12-------|-------------------------------------|
|-13h=14----13-14----13-14----13-14----13h14-|-10----------------------------------|
|--------------------------------------------|-------------------------------------|

|---------------------0-----------0----------|------0-(0)-----0-(0)-----0-0-----0--|
|-(0)-----------------1-----------1----------|----3-------3---------3-------3------|
|-(0)-----------------0-----------0----------|--------------0---------0-------0----|
|-(0)-----------------2-----------2----------|--0----------------------------------|
|---------------------3-----------3----------|-------------------------------------|
|-(3)----------------------------------------|-------------------------------------|

|----------------|-------------3-----------------------|----------------------|
|----------------|-----------3-------------------------|----------------------|
|----------------|--------0------3h=4----------------0-|-(0)------------------|
|----------------|-----------------------4h5-(5)-------|----------------------|
|----------------|-------------------------------4h5---|-------2--------------|
|----------------|-------------------------------------|---------3-(3)--------|

|-0--------0--0--|-----0-(0)-----0-(0)-----0-(0)-----0-|-(0)------------0--0--|
|---3---0--1--1--|-----------3---------3---------3-----|-----3----------1--1--|
|-----0----0--0--|-------------0---------0---------0---|-------0---(0)--0--0--|
|----------2--2--|---0---------------------------------|----------------2--2--|
|----------3--3--|-------------------------------------|----------------3--3--|
|----------------|-3-----------------------------------|----------------------|

|----------------------------------------|---------------5---5s10----8---8----|
|----------------------------------------|-----1-0-1-----0-----------------10s|
|----------------------------------------|-1-2-------3s5-----5s10-10----------|
|-6b8---6b8-------6-4------------6-4-----|------------------------------------|
|------------------------------0---------|------------------------------------|
|----------------------------------------|------------------------------------|

|-0---------0-(0)----------0-------0-----|---0-------0-------0---------0------|
|-----2-----------2---0h2----2-0h2---2-0h|=1---1-0h1---1-0h1----1--0h1---1----|
|----------------------------------------|------------------------------------|
|----------------------------------------|------------------------------------|
|----------------------------------------|------------------------------------|
|----------------------------------------|------------------------------------|

|----10--------------|--------------------------------------|
|-12----12--(12)-----|--------------------------------------|
|--------------------|------5pb7---5pb6-x-5---5---4---------|
|--------------------|--------------------------------------|
|--------------------|--------------------------------------|
|--------------------|--------------------------------------|

|--------------------|-------------------------------0-0----|
|--0-----------------|-(0)---------------------------3-3----|
|--0-----------------|-(0)---------------------------x-x----|
|--0-----------------|-(0)---------------------------2-2----|
|--------------------|-------------------------------0-0----|
|--------------------|--------------------------------------|

|-----------2-2-|-2---------0-0-|-0-------------|------------------------------|
|-----------3-3-|-3---------3-3-|-3-------------|------------------------------|
|-----------0-0-|-0---------0-0-|-0-------------|------------------------------|
|-2---------2-2-|-2---------2-2-|-2-------------|------------------------------|
|-0---------0-0-|-0---------0-0-|-0-------------|------------------------------|
|---------------|---------------|---------------|----------3b3.5==(3)r-0-3b3.5-|

|-0---------2-2-|-2---------0-0-|-0---------2-2-|-2----(2)---------------------|
|-3---------3-3-|-3---------3-3-|-3---------3-3-|-3----(3)---------------------|
|-x---------0-0-|-0---------x-x-|-x---------0-0-|-0----(0)---------------------|
|-2---------2-2-|-2---------2-2-|-2---------2-2-|-2----(2)---------------------|
|-0---------0-0-|-0---------0-0-|-0---------0-0-|-0----(0)---------------------|
|---------------|---------------|---------------|----------3------(3)--0-3-----|

|-------------------------------|-------------------------------|
|-------------------------------|-------------------------------|
|-------------------------------|-------------------------------|
|-------------------------------|-------------------------------|
|-0-----(0)---------------------|-0-----(0)---------------------|
|-0-----(0)-3b3.5==(3)r-0-3b3.5-|-0-----(0)-3b3.5==(3)r-0-3b3.5-|

|----0--(0)---------------------|----2--(2)---------------------|
|----3--(3)---------------------|----3--(3)---------------------|
|----x--------------------------|----0--(0)---------------------|
|----2--(2)---------------------|----2--(2)---------------------|
|-0--0--(0)---------------------|-0--0--(0)---------------------|
|-0---------3------(3)--0-3-----|-0---------3------(3)--0-3-----|

|-------------------------------|----------------------|
|-------------------------------|----------------------|
|-------------------------------|----------------------|
|-------------------------------|----------------------|
|-0-----(0)---------------------|-0--------------------|
|-0-----(0)-3b3.5==(3)r-0-3b3.5-|----0-----------------|

|----0--(0)---------------------|----2---(2)-----------|
|----3--(3)---------------------|----3---(3)-----------|
|----x--------------------------|----0---(0)-----------|
|----2--(2)---------------------|----2---(2)-----------|
|-0--0--(0)---------------------|-0--0---(0)-----------|
|-0---------3------(3)--0-3-----|-0----------3-(3)-0-3-|
  2nd Guitar Solo (2:34)

|-------------------------------|-------------------------7---|
|-7------7----------------------|-------------------7---------|
|-9b11---9b11--9p7----9p7---7---|-7------------9b11-----------|
|------------------9------9-----|------9----------------------|
|-------------------------------|-----------------------------|
|-------------------------------|-----------------------------|

|-2----2-2---------2------2---2-|-3--3-3-------5-------3----x-|
|-3----3-3---------3------3---3-|-3--3-3-------7-------5----x-|
|-2----2-2---------2------2---2-|-2--2-2----------------------|
|-0----0-0---------0------0---0-|-0--0-0------(0)-----(0)-----|
|-------------------------------|-----------------------------|
|-------------------------------|-----------------------------|

|--------------------------|---------------------7---------|
|-10----10--7--------------|------------------7-----10p7---|
|-------------9p7----9p7---|-7-----------9b11--------------|
|------------------------9-|------9------------------------|
|--------------------------|-------------------------------|
|--------------------------|-------------------------------|

|--2--2--2--------2----2-2-|-3--3-3------5-------3-----x---|
|--3--3--3--------3----3-3-|-3--3-3------7-------5-----x---|
|--2--2--2--------2----2-2-|-2--2-2------------------------|
|--0--0--0--------0----0-0-|-0--0-0-----(0)-----(0)--------|
|--------------------------|-------------------------------|
|--------------------------|-------------------------------|

|---------------------------------|----------------------------------|
|---------------------------------|----------------------------------|
|-9p7-9p7----7-9p7---7------------|----------------------------------|
|----------9-------9----9p7---7-9p|=7--7-9-7h9---9-7----7------------|
|---------------------------9-----|------------0-----9-----9s=7--5---|
|---------------------------------|----------------------------------|

|-2---2-2------------2------2---2-|-3----3-3------------5-----3----x-|
|-3---3-3------------3------3---3-|-3----3-3------------7-----5----x-|
|-2---2-2------------2------2---2-|-2----2-2-------------------------|
|-0---0-0------------0------0---0-|-0----0-0-----------(0)---(0)-----|
|---------------------------------|----------------------------------|
|---------------------------------|----------------------------------|

|-----------------------------|---------10----------------------------------|
|-----------------------------|--------------13p10-----10-------------------|
|-----------------9p7---9p7---|-7--9s11------------12-----10b10.5-----------|
|---------------7-----9-----9-|---------------------------------------12----|
|-5----5\---7s9---------------|---------------------------------------------|
|-----------------------------|---------------------------------------------|

|-2--2-2----------2-----2---2-|-3-----3--3----------5--------------3-----x--|
|-3--3-3----------3-----3---3-|-3-----3--3----------7--------------5-----x--|
|-2--2-2----------2-----2---2-|-2-----2--2----------------------------------|
|-0--0-0----------0-----0---0-|-0-----0--0---------(0)------------(0)-------|
|-----------------------------|---------------------------------------------|
|-----------------------------|---------------------------------------------|

|------------------------------|------------------------------------------|
|--------------13---15b17---15-|-(15)--------------------13-(13)-15-15b17-|
|--------10s14-----------------|------12---------12s14--------------------|
|------------------------------|------------------------------------------|
|------------------------------|------------------------------------------|
|------------------------------|------------------------------------------|

|---0--------0------------0----|---0-----0-----0--------------------------|
|---1-1-----------1------------|---0---------0---------0------------------|
|------------------------------|-------------x----------------------------|
|-3----------------------------|-------------3----------------------------|
|------------------------------|------------------------------------------|
|------------------------------|------------------------------------------|

|------15-----------------------------|----------------------------------------|
|-(15)------15b17---15----------15b17-|-(15)-15--------------------------------|
|-------------------------------------|-----------------12-(12)-14b16==(14)r---|
|-------------------------------------|----------------------------------------|
|-------------------------------------|----------------------------------------|
|-------------------------------------|----------------------------------------|

|-----------------0-------------------|---0---------!0-----^-0---------^-0-----|
|---1-----3------------3---1--3-------|-------0-(0)-!0-----^-0---------^-0-----|
|-------------------------------------|-------------!2-----^-2---------^-2-----|
|------------------------3------------|----------------------------------------|
|-------------------------------------|----------------------------------------|
|-------------------------------------|----------------------------------------|

|-----------------|----------------------------------------|
|-----------------|----------------------------------------|
|-----------------|-12b14-----------------------12---15b17-|
|-14--------------|-------14-(14)--(14)-14-(14)------------|
|-----------------|----------------------------------------|
|-----------------|----------------------------------------|

|--0----------2-2-|--2-----------------------------0--0----|
|--3----------3-3-|--3-----------------------------3--3----|
|--x----------0-0-|--0-----------------------------x--x----|
|--2----------2-2-|--2-----------------------------2--2----|
|--0----------0-0-|--0-----------------------------0--0----|
|-----------------|----------------------------------------|

|-------15---------------------------|---------------------------------------|
|----------15b17-15------------------|---------------------------------------|
|-(15)--------------16b17---16b18====|=(16)r(16)-14-(14)------------16p14----|
|------------------------------------|------------------------------------16-|
|------------------------------------|---------------------------------------|
|------------------------------------|---------------------------------------|

|---0------------------------2-----2-|---2----------------(2)----------------|
|---3------------------------3-----3-|---3----------------(3)----------------|
|---x------------------------0-----0-|---0----------------(0)----------------|
|---2------------------------2-----2-|---2----------------(2)----------------|
|---0------------------------0-----0-|---0----------------(0)----------------|
|------------------------------------|------------------------3-(3)--0--3----|

|-----------------------------|--------------------------|
|-----------------------------|--------------------------|
|-14-----------------2--5p2---|-2---------------2--5p2---|
|-----16\-------2-4---------5-|----/7------2-4---------5-|
|-----------------------------|--------------------------|
|-----------------------------|--------------------------|

|------0----(0)---------------|-----2--(2)---------------|
|------3----(3)---------------|-----3--(3)---------------|
|------x----------------------|-----0--(0)---------------|
|------2----(2)---------------|-----2--(2)---------------|
|--0---0----(0)---------------|-0---0--(0)---------------|
|--0------------3---(3)-0-3---|-0----------3---(3)-0-3---|

|--------------------------|-----------------------|
|--------------------------|-----------------------|
|-2------------------5p2---|-2---------------------|
|----/7------2h4---------5-|-----------------------|
|--------------------------|-----------------------|
|--------------------------|-----------------------|

|-----0--(0)---------------|----2--(2)-------------|
|-----3--(3)---------------|----3--(3)-------------|
|-----x--------------------|----0--(0)-------------|
|-----2--(2)---------------|----2--(2)-------------|
|-0---0--(0)---------------|-0--0--(0)-------------|
|-0----------3---(3)-0-3---|-0---------3-(3)-0-3---|

|---2-(2)----2--------2-|---3----3---5---3-x-|
|---------3-----3-(3)---|-----3------7---5-x-|
|-----------------------|--------------------|
|-0---------------------|-0------------------|
|-----------------------|--------------------|
|-----------------------|--------------------|

|---2-(2)----2--------2-2-|---3-(3)---3---5-3-----|
|---3-(3)-3--3--3-(3)---3-|-3-3-(3)---3---7-5p3-0-|
|-------------------------|---------------7-------|
|-0-----------------------|---------0-----0-------|
|-------------------------|-----------------------|
|-------------------------|-----------------------|

|---2-2---2----2-2--|---3-(3)---5---5---3---|
|---3-3-3-3--3-3-3--|---3-(3)-3-3---7---5-0-|
|---2-----2--2------|---------------7-------|
|-0-----------------|-0-----------0---------|
|-------------------|-----------------------|
|-------------------|-----------------------|

|---2-(2)----2--------2---|---3----3-(3)-3---5---|
|---------3--3--3-(3)-----|-----3--------5---7---|
|-------------------------|--------------5---7---|
|-0-----------------------|-0--------------------|
|-------------------------|----------------------|
|-------------------------|----------------------|

|-------------0---------------|-------------0---------------|-------------------------|
|----------1------------------|----------1------------------|-------------------------|
|--2----2----------5-(5)-4----|--2----2----------5-(5)-4----|--2------2----5-(5)-4----|
|-----3-----------------------|-----3-----------------------|------3------------------|
|-----------------------------|-----------------------------|-------------------------|
|-----------------------------|-----------------------------|-------------------------|
 Gtrs I, II, III

|--8-------8--8----3-----5--x-|--8-------8--8----3-----5--x-|--8---8--8----3-----5--x-|
|-10------10-10----5-----7--x-|-10------10-10----5-----7--x-|-10--10-10----5-----7--x-|
|-10------10-10----5-----7----|-10------10-10----5-----7----|-10--10-10----5-----7----|
|--0-------0--0---------------|--0-------0--0---------------|--0---0--0---------------|
|-----------------------------|-----------------------------|-------------------------|
|-----------------------------|-----------------------------|-------------------------|

|-------------0---------------|-------------------------------|
|----------1------------------|-----------1-------------------|
|--2----2----------5-(5)-4----|--2------2-------5-(5)-4-------|
|-----3-----------------------|------3------------------------|
|-----------------------------|-------------------------------|
|-----------------------------|-------------------------------|

|--8-------8--8----3-----5--x-|--8---8--8-------3-----5--x----|
|-10------10-10----5-----7--x-|-10--10-10-------5-----7--x----|
|-10------10-10----5-----7----|-10--10-10-------5-----7-------|
|--0-------0--0---------------|--0---0--0---------------------|
|-----------------------------|-------------------------------|
|-----------------------------|-------------------------------|

|-----------0---------------|----------------------------|
|--------1------------------|----------------------------|
|--2---2---------5-(5)-4----|--2---------2----5-(5)-4----|
|----3----------------------|---------3------------------|
|---------------------------|----------------------------|
|---------------------------|----------------------------|

|--8-7-7-7--8----3-----5--x-|--8--7-7-7--8----3-----5--x-|
|-10-9-9-9-10----5-----7--x-|-10--9-9-9-10----5-----7--x-|
|-10-9-9-9-10----5-----7----|-10--9-9-9-10----5-----7----|
|--0-0-0-0--0---------------|--0--0-0-0--0---------------|
|---------------------------|----------------------------|
|---------------------------|----------------------------|

|-------------------------|----------------------------|
|-------------------------|----------------------------|
|--2--------0-(0)---------|----------------------------|
|--------------------3----|-(3)--2---------0-----------|
|-------------------------|--------------------------3-|
|-------------------------|----------------------------|

|--8---8--8-7--7--7-10-10-|-10---8---8--8-12--12-12-10-|
|-10--10-10-8--8--8-12-12-|-12--10--10-10-13--13-13-12-|
|-10--10-10-9--9--9-12-12-|-12--10--10-10-14--14-14-12-|
|-------------------------|----------------------------|
|-------------------------|----------------------------|
|-------------------------|----------------------------|

|-----------------------------------|--------------------------------------|
|-----------------------------------|--------------------------------------|
|-----------------------------------|--------------------------------------|
|-----------------------------------|--------------------------------------|
|-(3)-----2--------0----------------|-(0)----------------------------------|
|-----------------------------------|--------------------------------------|

|-10--10-14----14-14----14-14----14-|-14-----14-14----14-14----14-14----14-|
|-12--12-15-15-15-15-15-15-15-15-15-|-15--15-15-15-15-15-15-15-15-15-15-15-|
|-12--12----16-------16-------16----|-----16-------16-------16-------16----|
|-----------------------------------|--------------------------------------|
|-----------------------------------|--------------------------------------|
|-----------------------------------|--------------------------------------|

|-------------------------------------|-----------------------------------|
|-------------------------------------|-----------------------------------|
|-------------------------------------|-----------------------------------|
|-------------------------------------|-----------------------------------|
|-------------------------------------|-----------------------------------|
|-------------------------------------|-----------------------------------|

|-14----14-14----14-14----14-14----14-|-14----14-14----14-14----14-14-----|
|-15-15-15-15-15-15-15-15-15-15-15-15-|-15-15-15-15-15-15-15-15-15-15-15--|
|----16-------16-------16-------16----|----16-------16-------16-------16--|
|-------------------------------------|-----------------------------------|
|-------------------------------------|-----------------------------------|
|-------------------------------------|-----------------------------------|

|-15----------------------------------|-------------------------------|
|--------15pb17r(15)-(15)-------------|-------------------------------|
|--------------------------14b16r(14)-|-(14)-12------------12b12.5----|
|-------------------------------------|--------------12-14---------12-|
|-------------------------------------|-------------------------------|
|-------------------------------------|-------------------------------|

|-----3-----------3-------------------|------------3------------------|
|--5-------------------3-----------3--|----------0-------0------------|
|---------------------------4---------|---4---2-------0---------------|
|-------------------------------------|-------------------------------|
|-------------------------------------|-----------------------------2-|
|-------------------------------------|-------------------------------|

|-------------------------|----------------------------|
|-------------------------|----------------------------|
|-------------------------|------12--------------------|
|-12b14========(12)-------|-(12)----12r(12)-(12)-------|
|-------------------------|----------------------------|
|-------------------------|----------------------------|

|----------------2------3-|----------2-----------0-----|
|--------3----------3-----|---3----------3---------3---|
|----------0--------------|----------------------------|
|-------------------------|----------------------------|
|--0---------0--------0---|-------0-----------0------0-|
|-------------------------|----------------------------|

|-15----------------------------|--------------------------------|
|--------15pb17r(15)-(15)--15---|-15-----------------------------|
|-------------------------------|----14b16r(14)-(14)---12--------|
|-------------------------------|---------------------------12---|
|-------------------------------|--------------------------------|
|-------------------------------|--------------------------------|

|-----3-----------3-------------|--------------------3-----------|
|--5-------------------3------3-|-----------------0-------0------|
|---------------------------4---|--4--2-----------------0--------|
|-------------------------------|--------------------------------|
|-------------------------------|------------------------------2-|
|-------------------------------|--------------------------------|

|-------------------------|-----------------------|
|-------------------------|-----------------------|
|-------------------------|-----------------------|
|-14b16========(14)-------|-(14)r-----------------|
|-------------------------|-----------------------|
|-------------------------|-----------------------|

|----------------2------3-|---------2-----0-------|
|--------3----------3-----|---3-------3-----3-----|
|----------0--------------|-----------------------|
|-------------------------|-----------------------|
|--0---------0--------0---|-------0-----0-----0---|
|-------------------------|-----------------------|
  PM|

|-----------------|-----------------|
|-----------------|-6---5-----------|
|-----------5-5-7-|---7---5-7-5-----|
|-----5-5-7-------|-----------------|
|-5-7-------------|-----------------|
|-----------------|-----------------|

|-------------0---|---1-----0-------|
|-------3-------1-|--------------3--|
|---------0-------|-----0-----------|
|-----------------|-----------------|
|-3---3-----3-----|-3-----3---------|
|-----------------|-----------------|

|----/8-(8)-7-5--------------|---------7b8r(7)p5-(5)---|
|----------------7b8==(7)r-7-|-5-----------------------|
|----------------------------|-------------------------|
|----------------------------|-------------------------|
|----------------------------|-------------------------|
|----------------------------|-------------------------|

|----------------------0-----|---2-----0---------------|
|-1---------3--------------1-|--------------------3----|
|-------------0--------------|-----0-------------------|
|----------------------------|-------------------------|
|--------3-------------------|-3-----3-----------------|
|----------------------------|-------------------------|

|-----------------|-----------------|
|-----------------|-----------------|
|-----------------|-----------------|
|-----------------|-----------------|
|-3-3-3-2-2-2-0---|---0-0-0---------|
|-----------------|---------3-3-2-0-|

|-----------------|-----------------|
|-----------------|---2-2-2---------|
|-----------------|---2-2-2---------|
|-----------------|---2-2-2---------|
|-3-3-3-2-2-2-0---|---0-0-0---------|
|-----------------|---------3-3-2-0-|

|-------------|-------------------------------|
|-3b5=========|=(3)r-----3pb4r(3)p1-(1)-------|
|-------------|-------------------------------|
|-------------|-------------------------------|
|-------------|-------------------------------|
|-------------|-------------------------------|
|
| W             +H.                  E  S S
|-0-----------|-(0)---------------------0-0---|
|-3-----------|-(3)---------------------3-3---|
|-2-----------|-(2)---------------------x-x---|
|-2-----------|-(2)---------------------2-2---|
|-------------|-------------------------0-0---|
|-------------|-------------------------------|

 3rd Guitar Solo (4:09)
|----------------|-------------------------|
|----------------|-------------------------|
|-2--------------|---------2-4p2---2-------|
|----------------|-----2-4-------4---------|
|----------------|-------------------------|
|----------------|-------------------------|

|-0----------2-2-|-2-------------------0-0-|
|-3----------3-3-|-3-------------------3-3-|
|-x----------0-0-|-0-------------------x-x-|
|-2----------2-2-|-2-------------------2-2-|
|-0----------0-0-|-0-------------------0-0-|
|----------------|-------------------------|

|---------------|-------------------------------|
|---------------|-------------------------------|
|---------------|-------2h4p2----2--------------|
|---------------|---2h4-------4-----------------|
|---------------|-------------------------------|
|---------------|-------------------------------|

|-0---------2-2-|-2-------------(2)-------------|
|-3---------3-3-|-3-------------(3)-------------|
|-x---------0-0-|-0-------------(0)-------------|
|-2---------2-2-|-2-------------(2)-------------|
|-0---------0-0-|-0-------------(0)-------------|
|---------------|-------------------3-(3)-0-3---|

|-------------------------------|---------------------------|
|-------------------------------|---------------------------|
|-------------------------------|---------2-----------------|
|-------------------------------|---2-4-2---4---------------|
|-0h2-0---2p0---0-(0)-----------|---------------------------|
|-------4-----4-----------------|---------------------------|

|-----------0-----(0)-----------|---------2---(2)-----------|
|-----------3-----(3)-----------|---------3---(3)-----------|
|-----------x-------------------|---------0---(0)-----------|
|-----------2-----(2)-----------|---------2---(2)-----------|
|-0---------0-----(0)-----------|-0-------0---(0)-----------|
|-0-------------------3-(3)-0-3-|-0---------------3-(3)-0-3-|

|-----2---------------------------|-----5h8-5-(5)---10--10b12-------8---|
|-------5p2-----------------------|---x-----------0---------------------|
|-4b6-------4p2-----4p2----2------|-x-----------------------------------|
|----------------4------4---------|-------------------------------------|
|---------------------------------|-------------------------------------|
|---------------------------------|-------------------------------------|
|-------0-------(0)---------------|------------2----(2)-----------------|
|-------3-------(3)---------------|------------3----(3)-----------------|
|-------x-------------------------|------------0----(0)-----------------|
|-------2-------(2)---------------|------------2----(2)-----------------|
|-0-----0-------(0)---------------|-----0------0----(0)-----------------|
|-0-------------------3---(3)-0-3-|-----0----------------3----(3)-0-3---|

|-------8--------------------------|--------------------------------------|
|-10-------------------------------|--------------------------------------|
|-------------------------14-16----|------12h14-----------------14--16-14-|
|-------------14s16--(16)-------16-|----------------12s=16-(16)-----------|
|----------------------------------|--------------------------------------|
|----------------------------------|--------------------------------------|

|--2--2-2---------2--------2-----2-|-3--3--3---------5-----------3------x-|
|--3--3-3---------3--------3-----3-|-3--3--3---------7-----------5------x-|
|--2--2-2---------2--------2-----2-|-2--2--2------------------------------|
|--0--0-0---------0--------0-----0-|-0--0--0--------(0)---------(0)-------|
|----------------------------------|--------------------------------------|
|----------------------------------|--------------------------------------|

|---------------------------------------|---------------5--------------|
|---------------------------------------|------------------------5b7r==|
|-(14)---16b17-----------------14-16----|-14---------------------------|
|------------------14s16--(16)-------16-|-------16\--------------------|
|---------------------------------------|------------------------------|
|---------------------------------------|------------------------------|

|---2--2--2------------2--------2-----2-|--3--3--3------5-----3------x-|
|---3--3--3------------3--------3-----3-|--3--3--3------7-----5------x-|
|---2--2--2------------2--------2-----2-|--2--2--2---------------------|
|---0--0--0------------0--------0-----0-|--0--0--0-----(0)---(0)-------|
|---------------------------------------|------------------------------|
|---------------------------------------|------------------------------|

|---------------------------|-------------------------------------|
|-(5)-3------3-(3)----------|-------------------------------------|
|---------x-----------------|-2p0---0-2p0---0---------------------|
|---------------------------|-----4-------4---2p0-----0-2p=0----0-|
|---------------------------|----------------------4----------4---|
|---------------------------|-------------------------------------|

|--2----2-2--------2----2-2-|-3-----3-3------------5-------3----x-|
|--3----3-3--------3----3-3-|-3-----3-3------------7-------5----x-|
|--2----2-2--------2----2-2-|-2-----2-2---------------------------|
|--0----0-0--------0----0-0-|-0-----0-0-----------(0)-----(0)-----|
|---------------------------|-------------------------------------|
|---------------------------|-------------------------------------|

|--------------------------------|------------------------------------|
|--------------------------------|------------------------------------|
|-2p0---0---------2p0-0----------|-2p0-0-------------------------6s===|
|-----4---2p0---0--------2p0---0-|---------2p0---0-0-----(0)----------|
|-------------4--------------4---|-------------4----------------------|
|--------------------------------|------------------------------------|

|-2-----2-2-----------2----2---2-|-3-----3-3----------5-------3--x----|
|-3-----3-3-----------3----3---3-|-3-----3-3----------7-------5--x----|
|-2-----2-2-----------2----2---2-|-2-----2-2--------------------------|
|-0-----0-0-----------0----0---0-|-0-----0-0---------(0)-----(0)------|
|--------------------------------|------------------------------------|
|--------------------------------|------------------------------------|

|------------------15--------------|----------------------|
|----13-15-15b17--------15b17---15-|-(15)--------------13-|
|-14-------------------------------|----------------14----|
|----------------------------------|----------------------|
|----------------------------------|----------------------|
|----------------------------------|----------------------|

|-----0----------0------------0----|---0--0-----0---------|
|-----1--1------------1------------|---0------0---0-------|
|----------------------------------|----------x-----------|
|--3-------------------------------|----------3-----------|
|----------------------------------|----------------------|
|----------------------------------|----------------------|

|-------13-14-15------------------|------------------------------|
|-15b17------------15b17==(15)r---|-15---13---------13--(13)\----|
|---------------------------------|--------------14--------------|
|---------------------------------|------------------------------|
|---------------------------------|------------------------------|
|---------------------------------|------------------------------|

|-----------0---------------------|--0-------!0-----^0--^-0------|
|--1-----3-----3------------1---3-|----0-(0)-!0-----^0--^-0------|
|---------------------------------|----------!2-----^2--^-2------|
|----------------3----------------|------------------------------|
|---------------------------------|------------------------------|
|---------------------------------|------------------------------|

|-----------------------|---------------------------|
|-----------------------|---------------------------|
|-----------------2-----|-------------------4p2-----|
|-2-----------2-4---4p2-|-------------2-4p2-----4p2-|
|-0----2--3h4-----------|-0----0--3h4---------------|
|-0----0----------------|---------------------------|

|-0-----------------2-2-|-2---------------------0-0-|
|-3-----------------3-3-|-3---------------------3-3-|
|-x-----------------0-0-|-0---------------------x-x-|
|-2-----------------2-2-|-2---------------------2-2-|
|-0-----------------0-0-|-0---------------------0-0-|
|-----------------------|---------------------------|

|-------------------------|-------------------------------|
|-------------------------|-------------------------------|
|-------------------0-----|--------------------2----------|
|-------------2-4p2---4-2-|-------------4-2h4-------4p2---|
|-0----0--3h4-------------|-0--0--3h=4--------------------|
|-------------------------|-------------------------------|

|-0-------------------2-2-|-2-------(2)-------------------|
|-3-------------------3-3-|-3-------(3)-------------------|
|-x-------------------0-0-|-0-------(0)-------------------|
|-2-------------------2-2-|-2-------(2)-------------------|
|-0-------------------0-0-|-0-------(0)-------------------|
|-------------------------|---------------3---(3)-0-3-----|

|-----------------------------|-----------------------------|
|-----------------------------|-----------------------------|
|--------------------2--------|--------------------4p=2-----|
|-------------4-2h4-------4p2-|-------------2-4p2-------4p2-|
|-0--0--3h=4------------------|-0--0--3h=4------------------|
|-----------------------------|-----------------------------|

|----0----(0)-----------------|----2----(2)-----------------|
|----3----(3)-----------------|----3----(3)-----------------|
|----x------------------------|----0----(0)-----------------|
|----2----(2)-----------------|----2----(2)-----------------|
|-0--0----(0)-----------------|-0--0----(0)-----------------|
|-0-------------3---(3)-0-3---|-0-------------3---(3)-0-3---|

|-----------------------------|--------------------------------|
|-----------------------------|--------------------------------|
|--------------------2--------|--------------------4p=2--------|
|-------------4-2h4-------4p2-|-------------2-4p2-------4p2----|
|-0--0--3h=4------------------|-0--0--3h=4---------------------|
|-----------------------------|--------------------------------|

|----0----(0)-----------------|----2----(2)--------------------|
|----3----(3)-----------------|----3----(3)--------------------|
|----x------------------------|----0----(0)--------------------|
|----2----(2)-----------------|----2----(2)--------------------|
|-0--0----(0)-----------------|-0--0----(0)--------------------|
|-0-------------3---(3)-0-3---|-0-------------3---(3)-0-3------|

|-------------------------|---------------------------|-----------|-------*|
|-------------------------|---------------------------|-----------|-------*|
|--2-------0-(0)----------|---------------------------|-----------|-------*|
|--------------------3----|-(3)--2---------0----------|-----------|-------*|
|-------------------------|----------------------3----|--0--------|--(0)--*|
|-------------------------|---------------------------|-----------|-------*|

|--8----8--8--8---8--8--8-|--8---8---8--8--8--8--8--8-|--8--------|--(8)--*|
|-10---10-10-10--10-10-10-|-10--10--10-10-10-10-10-10-|-10--------|-(10)--*|
|-10---10-10-10--10-10-10-|-10--10--10-10-10-10-10-10-|-10--------|-(10)--*|
|--0----0--0--0---0--0--0-|--0---0---0--0--0--0--0--0-|--0--------|--(0)--*|
|-------------------------|---------------------------|--0--------|--(0)--*|
|-------------------------|---------------------------|-----------|-------*|





NO QUARTER
                           As recorded by Led Zeppelin
                    (From the 1973 Album HOUSES OF THE HOLY)

Gtr I (E A D G B E) - 'Electric Piano Arranged for Guitar'
Gtr II (E A D G B E) - 'Guitar (Clean)'
Gtr III (E A D G B E) - 'Guitar (Distorted)'

 Intro
  Slowly Q=68
 4/4
  Gtr I

|-----------------------|-------------------------|---------------------------|
|-----5-4---4-----------|-------5-4---4---7-------|-------5-4---4-------------|
|---6-----6---4---------|---6-------6---------4---|---6-------6---4-----------|
|-----------------4-6---|-----6-----------------6-|-----6-------------4-6-----|
|-4-------------4-------|-4-------------4---4-----|-4---------------4---------|
|---------------------4-|-------------------------|-----------------------4---|

|-----------------------|-----4----7----9-------11---|-------7-4-6-----------|
|-------5-4---4-----7---|----------------------------|-----4-----------------|
|---6-------6-----4-----|--------4------------8----6-|---6------------6------|
|-----6-----------------|---6------------------------|-----------------------|
|-4-------------4-----4-|-4--------------------------|-4------------4-----4--|
|-----------------------|-------------9---(9)--------|------------------4----|

|-------7----7-9---------|---------------------|-----4----7----9-------11----|
|-----0----0-----7---9---|------5-5-7----------|-----------------------------|
|---6----------6-------6-|---6--6-6-4----------|--------4------------8----6--|
|------------------------|---6--6---4----8-----|---6-------------------------|
|-4----------------9-----|-4----------4------4-|-4---------------------------|
|------------------------|-----------------4---|-------------9---(9)---------|

|-------7-4-6----------|-------7----7-9-----------|----------------------|
|-----4----------------|-----0----0-----7---9-(9)-|------5-5-7-----------|
|---6------------6-----|---6----------6--------6--|---6--6-6-4-----------|
|----------------------|--------------------------|---6--6---4----0------|
|-4------------4-----4-|-4----------------9-------|-4----------4------4--|
|------------------4---|--------------------------|-----------------4----|

  Gtr I
|-----4----7--------9-----11-----|--------------|
|--------------------------------|--------------|
|--------4--------------8----6---|--------------|
|---6----------------------------|--------------|
|-4------------------------------|--------------|
|-----------------9---9----------|--------------|

 Gtr II
|--------------------------------|--------------|
|--------------------------------|---4--4-------|
|--------------------------------|-6----6-------|
|------------------------------7-|------7-------|
|----------------------------7---|------7-------|
|--------------------------------|--------------|

|----------------|----------|------|
|----------------|----------|------|
|----------------|----------|------|
|----------------|----------|------|
|----------------|----------|------|
|----------------|----------|------|

|----------------|----------|------|
|----------------|-7--------|------|
|--------------7-|----------|------|
|----------------|----------|------|





Houses Of The Holy


Intro
Repeat these first 2 bars twice

|----------------------|--------------2--2---------------------------------|
|----------------------|--------------2--2---------------------------------|
|------------2--2------|--------2--2--2--2---------------------------------|
|---2--2-----2--2----2-|--2-----2--2--2--2---------------------------------|
|---3--4--0--0--0----3-|--4--0--0--0---------------------------------------|
|----------------------|---------------------------------------------------|


|-----------------------|--------------2--2-2-|-2---------------------------|
|-----------------------|--------------2--2-2-|-2---------------------------|
|-------------2--2------|--------2--2--2--2-2-|-2-------2-2-----------------|
|----2--2-----2--2----2-|--2-----2--2--2--2-2-|-2-2-----2-2--2--------------|
|----3--4--0--0--0----3-|--4--0--0--0---------|---3-4-0-0-0--3--------------|
|-----------------------|---------------------|-----------------------------|

|-------------2--2----------------------------------------------------------|
|-------------2--0----------------------------------------------------------|
|-------2-2---2--1----------------------------------------------------------|
|--2----2-2---2--2----------------------------------------------------------|
|--4--0-0-0-----------------------------------------------------------------|
|---------------------------------------------------------------------------|


Note that the chords on the verses sustain a little, but notation wasn't easy
so listen to the record to get the timing and feel.

Verses     D        G  D  A    E

|----------2--|--2--3--2--0-|-----------------------------------------------|
|----------3--|--3--3--3--2-|-0-0-------------------------------------------|
|----------2--|--2--4--2--2-|-1-1-------------------------------------------|
|-------2--0--|--0--0--0--2-|-2-2-------------------------------------------|
|---2h4-------|-------------|-----------------------------------------------|
|-------------|-------------|-----------------------------------------------|


                          bend from b to c# and then back to b
|---------------|------------------------------|----------------------------|
|--------2-2----|-----2------------------------|----------------------------|
|--------2-2----|-----2--4b-6b-4-2-4p2-4p2-----|----------------------------|
|--2-----2-2--2-|-2---2--------------------4p2-|----------------------------|
|--3-4-0------3-|-4-0--------------------------|-0--------------------------|
|---------------|------------------------------|----------------------------|
                         riff fill

                         variation something like this
|---------------|--------------2-------------------------------------------|
|--------2-2----|-----2----------5p2---------------------------------------|
|--------2-2----|-----2--4b-6b-------4p2---4p2---2-------------------------|
|--2-----2-2--2-|-2---2------------------4-----4---------------------------|
|--3-4-0------3-|-4-0------------------------------------------------------|
|---------------|----------------------------------------------------------|




TRAMPLED UNDERFOOT
                           As recorded by Led Zeppelin
                     (From the 1975 Album PHYSICAL GRAFFITI)

Words and Music by Jimmy Page, Robert Plant & John Paul Jones
Transcribed by rocktabber

           A                   Bb
      x x x 2 2 x          x x x 3 3 x

Gtr I (E A D G B E) - 'Guitar 1'
Gtr II (E A D G B E) - 'Guitar 2 (with wah and reverb)'
Gtr III (E A D G B E) - 'Electric Piano (arranged for guitar)'
Gtr IV (E A D G B E) - 'Guitar 4 (with wah and slide)'

 Intro (Clavinet1st Verse
  Moderate Rock Q=110
                 N.C.(Gm)
 4/4
  Gtr I
  Wx2            E e e e S S S S S S E   E e e e S S S S S S E  3x
|------------||------------------------|------------------------||
|------------||o---3-2-3-2-3-----------|---3-2-3-2-3-----------o||
|------------||----3-2-3-2-3-----------|---3-2-3-2-3------------||
|------------||--------------5-3---3-5-|-------------5-3---3-5--||
|------------||o-----------------5-----|-----------------5-----o||
|------------||------------------------|------------------------||


  (Bb)            (C)             (Gm)
  Gtrs I, II
  S E S +S  S S S S E S +S  S E   E  e  q   S  S  S  S  S  S  E
|-----6-(6)-6---6-----8-(8)-8---|---10-10-----------------------|
|-------------------------------|---10-11--10-11----------------|
|-5s7---------7---7s9---------9-|----------------12-10----10-12-|
|-------------------------------|----------------------12-------|
|-------------------------------|-------------------------------|
|-------------------------------|-------------------------------|


  E  e  q   S  S  S  S  S  S  E
|---10-10-------------------------||
|---10-11--10-11------------------||
|----------------12-10----10-12\--||
|----------------------12---------||
|---------------------------------||
|---------------------------------||


   2nd & 3rd Verses
    (Gm)
    Gtr I
    E e q  S S S S S S E   E e q  S S S S S S E   E e q  S S S S S S E
||-----------------------|----------------------|----------------------|
||o---2-3--2-3-----------|---2-3--2-3-----------|---2-3--2-3-----------|
||----2-3--2-3-----------|---2-3--2-3-----------|---2-3--2-3-----------|
||-------------5-3---3-5-|------------5-3---3-5-|------------5-3---3-5-|
||o----------------5-----|----------------5-----|----------------5-----|
||-----------------------|----------------------|----------------------|


  E e q  S S S S S S E   E e q  S S S S S S E   E e q  S S S S S S E
|----------------------|----------------------|-----------------------|
|---2-3--2-3-----------|---2-3--2-3-----------|---2-3--2-3------------|
|---2-3--2-3-----------|---2-3--2-3-----------|---2-3--2-3------------|
|------------5-3---3-5-|------------5-3---3-5-|------------5-3---3-5--|
|----------------5-----|----------------5-----|----------------5------|
|----------------------|----------------------|-----------------------|


                                 1.
  (Bb)            (C)             (Gm)
  Gtrs I, II
  S E S +S  S S S S E S +S  S E   E  e  q   S  S  S  S  S  S  E
|-----6-(6)-6---6-----8-(8)-8---|---10-10-----------------------|
|-------------------------------|---10-11--10-11----------------|
|-5s7---------7---7s9---------9-|----------------12-10----10-12-|
|-------------------------------|----------------------12-------|
|-------------------------------|-------------------------------|
|-------------------------------|-------------------------------|


  E  e  q   S  S  S  S  S  S  E
|---10-10--------------------------||
|---10-11--10-11------------------o||
|----------------12-10----10-12\---||
|----------------------12----------||
|---------------------------------o||
|----------------------------------||


  2.
  (Eb)                  (F)
  Gtrs I, II
  S  E  S  +S   S  S  S  S  E  S  +S   S  e
|------11-(11)-11----11-------13-(13)-13----|
|-------------------------------------------|
|-9s12------------12----12s14------------14-|
|-------------------------------------------|
|-------------------------------------------|
|-------------------------------------------|


  (Gm)
  E  e  q   S  S  S  S  S  S  E   E  e  q   S  S  S  S  S  S  E
|---10-10-----------------------|---10-10-------------------------||
|---10-11--10-11----------------|---10-11--10-11------------------||
|----------------12-10----10-12-|----------------12-10----10-12\--||
|----------------------12-------|----------------------12---------||
|-------------------------------|---------------------------------||
|-------------------------------|---------------------------------||


 4th Verse
  (Gm)
  Gtr I
  E e q  S S S S S   S  E
|-------------------------|
|---2-3--2-3--------------|
|---2-3--2-3--------------|
|------------5-3-----3--5-|
|----------------5--------|
|-------------------------|
|
| Gtr II
|                    ~~~~~~
| H      Q       T T E.
|----------------8p6------|
|--------------------8----|
|-------------------------|
|-------------------------|
|-------------------------|
|-------------------------|


   E   e q        S  S S S S S      E      E e q  S S S S S S E
|----------------------------------------|--------------------------|
|------2-3--------2--3-------------------|---2-3--2-3---------------|
|------2-3--------2--3-------------------|---2-3--2-3---------------|
|----------------------5-3---3------5----|------------5-3---3-5-----|
|--------------------------5-------------|----------------5---------|
|----------------------------------------|--------------------------|
|
|~~~~~~                                    ~
| +Q     E E     +Q.            a  +S  S   Q   Q  Q       E   S S
|----------8b10==(8)-----------(8)r(8)p6-|--------------------5h6---|
|-(8)\-----------------------------------|-8------------------------|
|----------------------------------------|--------------------------|
|----------------------------------------|--------------------------|
|----------------------------------------|--------------------------|
|----------------------------------------|--------------------------|


  E   e   q       S S S S S S E     E   e  q   S S S S S S     E
|---------------------------------|---------------------------------|
|-----2---3-------2-3-------------|-----2--3---2-3------------------|
|-----2---3-------2-3-------------|-----2--3---2-3------------------|
|---------------------5-3---3-5---|----------------5-3---3-----5----|
|-------------------------5-------|--------------------5------------|
|---------------------------------|---------------------------------|
|
| S S S S S S S S S S S S S S S S   Q     +Q   Q       E   a a E
|-5-6-5-6-5-6-5-6-5-6-5-6-5-6-6-6-|-6b8---(6)------------------6b8==|
|---------------------------------|--------------------------x------|
|---------------------------------|------------------------x--------|
|---------------------------------|---------------------------------|
|---------------------------------|---------------------------------|
|---------------------------------|---------------------------------|


   E  e      q       S  S S S  S   S E
|----------------------------------------|
|-----2------3-------2--3----------------|
|-----2------3-------2--3----------------|
|-------------------------5-3------3-5---|
|------------------------------5---------|
|----------------------------------------|
|
|                    ~~~~~~~~~~~~~~
| +Q     a  +E  S S +Q        +Q
|-(6)---(6)r(6)--------------------------|
|---------------8-8-(8)-------(8)\-------|
|----------------------------------------|
|----------------------------------------|
|----------------------------------------|
|----------------------------------------|


  (Bb)            (C)
  Gtrs I, II
  S E S +S  S S S S E S +S  S E   E  E  q   S  S  S  S  S  S  E
|-----6-(6)-6---6-----8-(8)-8---|---10-10-----------------------|
|-------------------------------|---10-11--10-11----------------|
|-5s7---------7---7s9---------9-|----------------12-10----10-12-|
|-------------------------------|----------------------12-------|
|-------------------------------|-------------------------------|
|-------------------------------|-------------------------------|


  E  E  q   S  S  S  S  S  S  E
|---10-10---------------------------||
|---10-11--10-11--------------------||
|----------------12-10----10-12\----||
|----------------------12-----------||
|-----------------------------------||
|-----------------------------------||


 5th Verse
  (Gm)
  Gtr I
  E e q  S S S S S S E    E   e q  S S S S S S E    E  e q  S S S S S S E
|----------------------|-------------------------|--------------------------|
|---2-3--2-3-----------|------2-3--2-3-----------|-----2-3--2-3-------------|
|---2-3--2-3-----------|------2-3--2-3-----------|-----2-3--2-3-------------|
|------------5-3---3-5-|---------------5-3---3-5-|--------------5-3---3-5---|
|----------------5-----|-------------------5-----|------------------5-------|
|----------------------|-------------------------|--------------------------|
|
| Gtr II
|                    ~~~~~~~~~                 ~~~~~~~~
| H      E   S S S S E   +Q     Q  E   S S S S E   +E  E Q  Q       E   S S
|------------6-5-6-5---|---------------6-5-6-5---|--------------------------|
|--------------------8-|-(8)\------------------8-|-(8)------------------6p3-|
|----------------------|-------------------------|--------------------------|
|----------------------|-------------------------|--------------------------|
|----------------------|-------------------------|--------------------------|
|----------------------|-------------------------|--------------------------|


  E e   q       S S S S S S E
|-------------------------------|
|---2---3-------2-3-------------|
|---2---3-------2-3-------------|
|-------------------5-3---3-5---|
|-----------------------5-------|
|-------------------------------|
|
| E S S S S S S S S S S S S S S
|-------------------------------|
|-6p3---------------------------|
|-----3s2-3-2---------------3h5-|
|-------------5p3-5p3-----5-----|
|---------------------5---------|
|-------------------------------|


  E e q   S S S S S S E   E e q  S S S S S S E
|-----------------------|------------------------|
|---2-3---2-3-----------|---2-3--2-3-------------|
|---2-3---2-3-----------|---2-3--2-3-------------|
|-------------5-3---3-5-|------------5-3---3-5---|
|-----------------5-----|----------------5-------|
|-----------------------|------------------------|
|
| E E E E H               W
|-----------------------|------------------------|
|-----------------------|------------------------|
|---5-7-----------------|------------------------|
|-8---------------------|------------------------|
|-----------------------|------------------------|
|-----------------------|------------------------|


  (Bb)            (C)             (Gm)
  Gtrs I, II
  S E S +S  S S S S E S +S  S E   E  E  q   S  S  S  S  S  S  E
|-----6-(6)-6---6-----8-(8)-8---|---10-10-----------------------|
|-------------------------------|---10-11--10-11----------------|
|-5s7---------7---7s9---------9-|----------------12-10----10-12-|
|-------------------------------|----------------------12-------|
|-------------------------------|-------------------------------|
|-------------------------------|-------------------------------|


  E  E  q   S  S  S  S  S  S  E
|---10-10-------------------------||
|---10-11--10-11------------------||
|----------------12-10----10-12\--||
|----------------------12---------||
|---------------------------------||
|---------------------------------||


 6th Verse
  (Gm)
  Gtr I
  E e q         S  S S S      S  S E
|------------------------------------|
|---2-3---------2--3-----------------|
|---2-3---------2--3-----------------|
|--------------------5-3---------3-5-|
|-----------------------------5------|
|------------------------------------|
|
| Gtr II
|                                  ~~~
| Q   E. S     +Q         a  +S  S E
|--------8b10==(8)-------(8)r(8)p6---|
|----------------------------------8-|
|------------------------------------|
|------------------------------------|
|------------------------------------|
|------------------------------------|


   E   e q  S S S S S S E    E  e q  S S S S S S E
|-------------------------|---------------------------|
|------2-3--2-3-----------|-----2-3--2-3--------------|
|------2-3--2-3-----------|-----2-3--2-3--------------|
|---------------5-3---3-5-|--------------5-3---3-5----|
|-------------------5-----|------------------5--------|
|-------------------------|---------------------------|
|
|~~~~~~                 ~~~~~~~~
| +e   E Q  S S S S S S E   +Q    Q  Q       E   S S
|-------------------------|----------------------3p0--|
|-(8)\------8-6-8-6-6-6-8-|-(8)-----------------------|
|-------------------------|---------------------------|
|-------------------------|---------------------------|
|-------------------------|---------------------------|
|-------------------------|---------------------------|


  E   e   q     S S S S S S E
|-------------------------------|
|-----2---3-----2-3-------------|
|-----2---3-----2-3-------------|
|-------------------5-3---3-5---|
|-----------------------5-------|
|-------------------------------|
|
| S S S S S S e S S S S S S S S
|-3p0h3p0-3p0-------------------|
|-------------------------------|
|-------------5-3h5-6-5-6-5-3-3-|
|-------------------------------|
|-------------------------------|
|-------------------------------|


  E e q  S S S S S S E   E e q  S S S S S S E
|----------------------|------------------------|
|---2-3--2-3-----------|---2-3--2-3-------------|
|---2-3--2-3-----------|---2-3--2-3-------------|
|------------5-3---3-5-|------------5-3---3-5---|
|----------------5-----|----------------5-------|
|----------------------|------------------------|
|
| ~
| Q   Q  H               W
|----------------------|------------------------|
|----------------------|------------------------|
|----------------------|------------------------|
|-5--------------------|------------------------|
|----------------------|------------------------|
|----------------------|------------------------|


  (Bb)            (C)              (Eb)                  (F)
  Gtrs I, II
  S E S +S  S S S S E S +S  S E    S  E  S  +S   S  S  S  S  E  S  +S   S  e
|-----6-(6)-6---6-----8-(8)-8----|------11-(11)-11----11-------13-(13)-13----|
|--------------------------------|-------------------------------------------|
|-5s7---------7---7s9---------9\-|-9s12------------12----12s14------------14-|
|--------------------------------|-------------------------------------------|
|--------------------------------|-------------------------------------------|
|--------------------------------|-------------------------------------------|


  (Gm)
  E  E  q   S  S  S  S  S  S  E   E  E  q   S  S  S  S  S  S  E
|---10-10-----------------------|---10-10------------------------||
|---10-11--10-11----------------|---10-11--10-11-----------------||
|----------------12-10----10-12-|----------------12-10----10-12\-||
|----------------------12-------|----------------------12--------||
|-------------------------------|--------------------------------||
|-------------------------------|--------------------------------||


  G5                 C/G               Dm/A                C/G
  Gtrs I, II
    W                              +W
|--------------------------------|-------------------------------------|
|---3----------------------------|-(3)---------------------------------|
|---0----------------------------|-(0)---------------------------------|
|---0----------------------------|-(0)---------------------------------|
|--------------------------------|-------------------------------------|
|---3----------------------------|-(3)---------------------------------|
|
| Gtr III
|   Q   E  S  S  +S   S  E  E  E    S   E  S  E  S  S  +S   S  E  E  E
|-/13--13--x-13-(13)-12-12-12-12-|--x--13--x-13--x-13-(13)-12-12-12-12-|
|-/15--15--x-15-(15)-13-13-13-13-|--x--15--x-15--x-15-(15)-13-13-13-13-|
|-/12--12-12-12-(12)-12-12-12-12-|-14--14-14-14-14-14-(14)-12-12-12-12-|
|--------------------------------|-------------------------------------|
|--------------------------------|-------------------------------------|
|--------------------------------|-------------------------------------|


  G5 Dm/A                   C/G            Dm/A                C/G
   W                                   +W
|------------------------------------|-------------------------------------||
|--3---------------------------------|-(3)---------------------------------||
|--0---------------------------------|-(0)---------------------------------||
|--0---------------------------------|-(0)---------------------------------||
|------------------------------------|-------------------------------------||
|--3---------------------------------|-(3)---------------------------------||
|
|  S  E  S  E  S  S  +S   S  E  E  E    S   E  S  E  S  S  +S   S  E  E  E
|-13-13-13-13--x-13-(13)--x-12-12-12-|--x--13--x-13--x-13-(13)-12-12-12-12-||
|-15-15-15-15--x-15-(15)--x-13-13-13-|--x--15--x-15--x-15-(15)-13-13-13-13-||
|-14-14-12-14-14-14-(14)-14-12-12-12-|-14--14-14-14-14-14-(14)-12-12-12-12-||
|------------------------------------|-------------------------------------||
|------------------------------------|-------------------------------------||
|------------------------------------|-------------------------------------||


   Guitar and Elec. Piano Solo
    (Gm)        Dm/G
    Gtr I
     E  e        q                S   S  S  S  S  S  E
||---------------------------------------------------------|
||o-----2--------3----------------2---3--------------------|
||------2--------3----------------2---3--------------------|
||---------------------------------------5--3-----3--5-----|
||o--------------------------------------------5-----------|
||---------------------------------------------------------|
|
|   Gtr II
|       PM---------------------------------|
|    E  S  S     S   S  S     S   S   S  S  S  S  S  S   S
||---------------------------------------------------------|
||o-11-------------------------------------------------/13-|
||-----10-10----10--10-10----10--10--10-10-10-10-10-10-----|
||---------------------------------------------------------|
||o--------------------------------------------------------|
||---------------------------------------------------------|
|
|   Gtr III
|    Q        a  E.        a  S  +S   E     S  Q
||-----------10s13--------10s13-(13)-----------------------|
||o-------------15-----------15-(15)-11--------------------|
||--------------12-----------12-(12)-12--------------------|
||---------------------------------------------------------|
||o--------------------------------------------------------|
||---------------------------------------------------------|


   E    e         q                S   S  S  S  S  S  E
|------------------------------------------------------------|
|-------2---------3----------------2---3---------------------|
|-------2---------3----------------2---3---------------------|
|-----------------------------------------5--3-----3--5------|
|-----------------------------------------------5------------|
|------------------------------------------------------------|
|
|                        PM--------------------|
|  S  E       S   E      S     S   S   S  S  S  S  S  S  S
|------------------------------------------------------------|
|----------------11---------------11--------------11-11s13s==|
|-10-10------10--10-----10----10------10-10-10-10------------|
|------------------------------------------------------------|
|------------------------------------------------------------|
|------------------------------------------------------------|
|
|  S  E    a  S  +S   E     a  S  +E      E     Q
|-----------------------------13-(13)------------------------|
|--8-11---15s13-(13)-13----13s15-(15)------------------------|
|-10---------10-(10)-10-------12-(12)------------------------|
|------------------------------------------------------------|
|------------------------------------------------------------|
|------------------------------------------------------------|


  (Gm)          Dm/G
   E    e        q             S   S  S  S  S   S  E
|----------------------------------------------------------|
|-------2--------3-------------2---3-----------------------|
|-------2--------3-------------2---3-----------------------|
|-------------------------------------5--3------3--5-------|
|-------------------------------------------5--------------|
|----------------------------------------------------------|
|
|     PM------------|              PM---|
|  S  E    S     E   S     S   S   S  S  S  S   S  S     S
|----------------------------------------------------------|
|-11----------------------11----------------------11h===13-|
|----10---10----10--10----10------10-10-10-10--10----------|
|----------------------------------------------------------|
|----------------------------------------------------------|
|----------------------------------------------------------|
|
|  Q          a  E.     a  S  +S   E     S  E.        a  S
|---------------13-----------------------------------------|
|------------13s15-----15s13-(13)-11-----------------15s13-|
|---------------12--------12-(12)-12--------------------12-|
|----------------------------------------------------------|
|----------------------------------------------------------|
|----------------------------------------------------------|


    E        e     q            S   S  S  S  S  S  E
|---------------------------------------------------------||
|------------2-----3------------2---3--------------------o||
|------------2-----3------------2---3---------------------||
|--------------------------------------5--3-----3--5------||
|--------------------------------------------5-----------o||
|---------------------------------------------------------||
|
|   PM------------------|
|   S      E    S  E     S  S   S   E     S  S  S  S   S
|---------------------------------------------------------||
|--------------------------11---------------11-------/13-o||
|--10-----10---10-10----10-10------10----10-10-10-10------||
|---------------------------------------------------------||
|--------------------------------------------------------o||
|---------------------------------------------------------||
|
|  +S   a  E    S  S  S  S  S  +S   S  E     S  S  S   S
|---------------------------------------------------------||
|-(13)-15s13---15-13-11---------------11----13-11-----14-o||
|-(12)----12------12----12-12-(12)----12----12----12--12--||
|---------------------------------------------------------||
|--------------------------------------------------------o||
|---------------------------------------------------------||


     A        Bb              A    Bb G  F  D  F  G
  Gtr I
   E  e        q                S   S  S  S  S  S  E
      |        |                |   |  |  |  |  |  |
      /        /                /   /  o  o  o  o  o

  Gtr II
      PM---------------------------------|
   E  S  S     S   S  S     S   S   S  S  S  S  S  S   S
|--------------------------------------------------------|
|-11-------------------------------------------------/13-|
|----10-10----10--10-10----10--10--10-10-10-10-10-10-----|
|--------------------------------------------------------|
|--------------------------------------------------------|
|--------------------------------------------------------|
|
| Gtr IV
|  W
|--------------------------------------------------------|
|--------------------------------------------------------|
|--------------------------------------------------------|
|--------------------------------------------------------|
|--------------------------------------------------------|
|--------------------------------------------------------|
|
| Gtr III
|  Q        a  E.        a  S  +S   E     S  Q
|----------10s13--------10s13-(13)-----------------------|
|-------------15-----------15-(15)-11--------------------|
|-------------12-----------12-(12)-12--------------------|
|--------------------------------------------------------|
|--------------------------------------------------------|
|--------------------------------------------------------|


        A       Bb               A    Bb G  F  D  F  G
   E    e         q                S   S  S  S  S  S  E
        |         |                |   |  |  |  |  |  |
        /         /                /   /  o  o  o  o  o

                         PM--------------------|
   S  E       S   E      S     S   S   S  S  S  S  S  S  S
|-----------------------------------------------------------|
|----------------11---------------11--------------11-11s13s=|
|-10-10------10--10-----10----10------10-10-10-10-----------|
|-----------------------------------------------------------|
|-----------------------------------------------------------|
|-----------------------------------------------------------|
|
|  H                               Q            E     E
|-----------------------------------------------------------|
|-----------------------------------------------------------|
|-----------------------------------------------------3s====|
|-----------------------------------------------------------|
|-----------------------------------------------------------|
|-----------------------------------------------------------|
|
|  S  E    a  S  +S   E     a  S  +E      E     Q
|-----------------------------13-(13)-----------------------|
|--8-11---15s13-(13)-13----13s15-(15)-----------------------|
|-10---------10-(10)-10-------12-(12)-----------------------|
|-----------------------------------------------------------|
|-----------------------------------------------------------|
|-----------------------------------------------------------|


           A       Bb           A    Bb G  F  D   F  G
     E     e        q             S   S  S  S  S   S  E
           |        |             |   |  |  |  |   |  |
           /        /             /   /  o  o  o   o  o

         PM------------|              PM---|
     S   E    S     E   S     S   S   S  S  S  S   S  S     S
||------------------------------------------------------------|
||o-11-----------------------11----------------------11h===13-|
||------10---10----10--10----10------10-10-10-10--10----------|
||------------------------------------------------------------|
||o-----------------------------------------------------------|
||------------------------------------------------------------|
|
|    H.                                       +E      E
||---------------------------------------------------/6-------|
||o-----------------------------------------------------------|
||---5----------------------------------------(5)-------------|
||------------------------------------------------------------|
||o-----------------------------------------------------------|
||------------------------------------------------------------|
|
|    Q           a  E.     a  S  +S   E     S  E.        a  S
||-----------------13-----------------------------------------|
||o-------------13s15-----15s13-(13)-11-----------------15s13-|
||-----------------12--------12-(12)-12--------------------12-|
||------------------------------------------------------------|
||o-----------------------------------------------------------|
||------------------------------------------------------------|


             A    Bb          A    Bb G  F  D  F  G
    E        e     q            S   S  S  S  S  S  E
             |     |            |   |  |  |  |  |  |
             /     /            /   /  o  o  o  o  o

    PM------------------|
    S      E    S  E     S  S   S   E     S  S  S  S   S
|---------------------------------------------------------|
|--------------------------11---------------11-------/13--|
|--10-----10---10-10----10-10------10----10-10-10-10------|
|---------------------------------------------------------|
|---------------------------------------------------------|
|---------------------------------------------------------|
|
|  +Q.                   E     +Q.                 E
|--(6)s==================3-----(3)------------------------|
|---------------------------------------------------------|
|--------------------------------------------------3s=====|
|---------------------------------------------------------|
|---------------------------------------------------------|
|---------------------------------------------------------|
|
|  +S   a  E    S  S  S  S  S  +S   S  E     S  S  S   S
|---------------------------------------------------------|
|-(13)-15s13---15-13-11---------------11----13-11-----14--|
|-(12)----12------12----12-12-(12)----12----12----12--12--|
|---------------------------------------------------------|
|---------------------------------------------------------|
|---------------------------------------------------------|


  1.,2.
      A        Bb              A    Bb G  F  D   F  G
   E   e        q                S   S  S  S  S   S  E
       |        |                |   |  |  |  |   |  |
       /        /                /   /  o  o  o   o  o

       PM---------------------------------|
   E   S  S     S   S  S     S   S   S  S  S  S   S  S   S
|----------------------------------------------------------|
|-11---------------------------------------------------/13-|
|-----10-10----10--10-10----10--10--10-10-10-10--10-10-----|
|----------------------------------------------------------|
|----------------------------------------------------------|
|----------------------------------------------------------|
|
|  H.                                        +E      E
|----------------------------------------------------------|
|----------------------------------------------------------|
|--5-----------------------------------------(5)-----3-----|
|----------------------------------------------------------|
|----------------------------------------------------------|
|----------------------------------------------------------|
|
|  Q         a  E.        a  S  +S   E     S  Q
|-----------10s13--------10s13-(13)------------------------|
|--------------15-----------15-(15)-11---------------------|
|--------------12-----------12-(12)-12---------------------|
|----------------------------------------------------------|
|----------------------------------------------------------|
|----------------------------------------------------------|


        A       Bb               A    Bb G  F  D  F  G
   E    e         q                S   S  S  S  S  S  E
        |         |                |   |  |  |  |  |  |
        /         /                /   /  o  o  o  o  o

                         PM--------------------|
   S  E       S   E      S     S   S   S  S  S  S  S  S  S  3x
|-----------------------------------------------------------||
|----------------11---------------11--------------11-11s13-o||
|-10-10------10--10-----10----10------10-10-10-10-----------||
|-----------------------------------------------------------||
|----------------------------------------------------------o||
|-----------------------------------------------------------||
|
|  Q              Q               +Q.                 E     3x
|-----------------------------------------------------------||
|----------------------------------------------------------o||
|--3s=============0---------------(0)-----------------3-----||
|-----------------------------------------------------------||
|----------------------------------------------------------o||
|-----------------------------------------------------------||
|
|  S  E    a  S  +S   E     a  S  +E      E     Q           3x
|-----------------------------13-(13)-----------------------||
|--8-11---15s13-(13)-13----13s15-(15)----------------------o||
|-10---------10-(10)-10-------12-(12)-----------------------||
|-----------------------------------------------------------||
|----------------------------------------------------------o||
|-----------------------------------------------------------||


  3.
      A     Bb          A  Bb G  F  D  F  G
   E   e     q           S  S  S  S  S  S  E
       |     |           |  |  |  |  |  |  |
       /     /           /  /  o  o  o  o  o

       PM------------------------|
   E   S  S  S  S  S  S  S  S  S  S  S  S  S   S
|------------------------------------------------|
|-11-----------------------------------------/13-|
|-----10-10-10-10-10-10-10-10-10-10-10-10-10-----|
|------------------------------------------------|
|------------------------------------------------|
|------------------------------------------------|
|
|  H.                                E     E
|------------------------------------------------|
|------------------------------------------------|
|--5---------------------------------5-----3-----|
|------------------------------------------------|
|------------------------------------------------|
|------------------------------------------------|


        A    Bb       A   Bb G  F  D  F  G
   E    e     q        S   S  S  S  S  S  E
        |     |        |   |  |  |  |  |  |
        /     /        /   /  o  o  o  o  o

                 PM----------------|
   S  E    S  E  S  S  S   S  S  S  S  S  S  S
|----------------------------------------------||
|------------11-------11--------------11-11s13-||
|-10-10---10-10-10-10-----10-10-10-10----------||
|----------------------------------------------||
|----------------------------------------------||
|----------------------------------------------||
|
|  Q          Q       +Q.                 E
|----------------------------------------------||
|----------------------------------------------||
|--3s=========0-------(0)----------------------||
|----------------------------------------------||
|----------------------------------------------||
|----------------------------------------------||


  G5                 C/G               Dm/A                C/G
  Gtrs I, II
    W                              +W
|--------------------------------|-------------------------------------|
|---3----------------------------|-(3)---------------------------------|
|---0----------------------------|-(0)---------------------------------|
|---0----------------------------|-(0)---------------------------------|
|--------------------------------|-------------------------------------|
|---3----------------------------|-(3)---------------------------------|
|
| Gtr III
|   Q   E  S  S  +S   S  E  E  E    S   E  S  E  S  S  +S   S  E  E  E
|-/13--13--x-13-(13)-12-12-12-12-|--x--13--x-13--x-13-(13)-12-12-12-12-|
|-/15--15--x-15-(15)-13-13-13-13-|--x--15--x-15--x-15-(15)-13-13-13-13-|
|-/12--12-12-12-(12)-12-12-12-12-|-14--14-14-14-14-14-(14)-12-12-12-12-|
|--------------------------------|-------------------------------------|
|--------------------------------|-------------------------------------|
|--------------------------------|-------------------------------------|


  G5       Dm/A             C/G
   W
|------------------------------------|
|--3---------------------------------|
|--0---------------------------------|
|--0---------------------------------|
|------------------------------------|
|--3---------------------------------|
|
|  S  E  S  E  S  S  +S   S  E  E  E
|-13-13-13-13--x-13-(13)--x-12-12-12-|
|-15-15-15-15--x-15-(15)--x-13-13-13-|
|-14-14-12-14-14-14-(14)-14-12-12-12-|
|------------------------------------|
|------------------------------------|
|------------------------------------|


      Dm/A                C/G
  +W
|-------------------------------------|
|-(3)---------------------------------|
|-(0)---------------------------------|
|-(0)---------------------------------|
|-------------------------------------|
|-(3)---------------------------------|
|
|  S   E  S  E  S  S  +S   S  E  E  E
|--x--13--x-13--x-13-(13)-12-12-12-12-|
|--x--15--x-15--x-15-(15)-13-13-13-13-|
|-14--14-14-14-14-14-(14)-12-12-12-12-|
|-------------------------------------|
|-------------------------------------|
|-------------------------------------|


  (Gm)
  E E q  S S S S S S E   E E q  S S S S S S E
|----------------------|-----------------------||
|---2-3--2S3-----------|---2-3--2S3------------||
|---2-3--2S3-----------|---2-3--2S3------------||
|------------5-3---3-5-|------------5-3---3-5--||
|----------------5-----|----------------5------||
|----------------------|-----------------------||
|
| W                      W
|----------------------|-----------------------||
|----------------------|-----------------------||
|----------------------|-----------------------||
|----------------------|-----------------------||
|----------------------|-----------------------||
|----------------------|-----------------------||


 7th Verse
  (Gm)
  Gtr I
  E e q  S    S  S  S S S E
|---------------------------|
|---2-3--2----3-------------|
|---2-3--2----3-------------|
|----------------5--3---3-5-|
|---------------------5-----|
|---------------------------|
|
| Gtr II
| H      E      +Q.
|---------------------------|
|---------------------------|
|--------3b5====(3)r========|
|---------------------------|
|---------------------------|
|---------------------------|


   E  e q  S   S S S  S  S E   E e q  S S S S S S E
|----------------------------|-----------------------|
|-----2-3--2---3-------------|---2-3--2-3------------|
|-----2-3--2---3-------------|---2-3--2-3------------|
|----------------5-3-----3-5-|------------5-3---3-5--|
|---------------------5------|----------------5------|
|----------------------------|-----------------------|
|
| +E  e Q  Q         +Q        Q   Q  H
|----------------------------|-----------------------|
|----------------------------|-----------------------|
|-(3)p0----3b5-------(3)-----|-x---------------------|
|----------------------------|-----------------------|
|----------------------------|-----------------------|
|----------------------------|-----------------------|


  E e    q   S   S S   S S   S E
|----------------------------------|
|---2----3---2---3-----------------|
|---2----3---2---3-----------------|
|------------------5---3-----3-5---|
|------------------------5---------|
|----------------------------------|
|
|        ~~~
| E E   +Q   S   S S   S S   S S S
|----------------------------------|
|----------------------------------|
|---5b6-(5)--5b6-5-5b6-5-5b6-5-3p0-|
|----------------------------------|
|----------------------------------|
|----------------------------------|


  E e q  S S S S S S E   E e q  S S S S S S E
|----------------------|----------------------|
|---2-3--2-3-----------|---2-3--2-3-----------|
|---2-3--2-3-----------|---2-3--2-3-----------|
|------------5-3---3-5-|------------5-3---3-5-|
|----------------5-----|----------------5-----|
|----------------------|----------------------|
|
| W                      W
|----------------------|----------------------|
|----------------------|----------------------|
|----------------------|----------------------|
|----------------------|----------------------|
|----------------------|----------------------|
|----------------------|----------------------|


  (Bb)            (C)             (Gm)
  Gtrs I, II
  S E S +S  S S S S E S +S  S e   E  e  e E  S  S  S  S  S  S  E
|-----6-(6)-6---6-----8-(8)-8---|---10-10------------------------|
|-------------------------------|---10-11-x-10-11----------------|
|-5s7---------7---7s9---------9-|-x---------------12-10----10-12-|
|-------------------------------|-----------------------12-------|
|-------------------------------|--------------------------------|
|-------------------------------|--------------------------------|


  E  E  q   S  S  S  S  S  S  E
|---10-10-------------------------||
|---10-11--10-11------------------||
|----------------12-10----10-12\--||
|----------------------12---------||
|---------------------------------||
|---------------------------------||


 8th Verse
  (Gm)
  Gtr I
  E e q  S S S   S S S E   E e q  S S S S S     S  E
|------------------------|------------------------------|
|---2-3--2-3-------------|---2-3--2-3-------------------|
|---2-3--2-3-------------|---2-3--2-3-------------------|
|------------5---3---3-5-|------------5-3-------3--5----|
|------------------5-----|----------------5-------------|
|------------------------|------------------------------|
|
| Gtr II
|                                                  |3-|
| H      S S S   S S S E   H      Q       E       +E  S
|------------------------|----------------8pb10r==(8)p6-|
|------------------------|------------------------------|
|----------5-5b6-3-5p3---|------------------------------|
|----------------------5-|------------------------------|
|------------------------|------------------------------|
|------------------------|------------------------------|


  E    e q  S S S S S     S E
|----------------------------------|
|------2-3--2-3--------------------|
|------2-3--2-3--------------------|
|---------------5-3-------3-5------|
|-------------------5--------------|
|----------------------------------|
|
| S E.   Q  Q       E.        +S
|-------------------8b10======(8)r=|
|-8-8------------------------------|
|----------------------------------|
|----------------------------------|
|----------------------------------|
|----------------------------------|


   E    e   q         S   S  S  S S S E
|-----------------------------------------|
|-------2---3---------2---3---------------|
|-------2---3---------2---3---------------|
|----------------------------5--3---3-5---|
|---------------------------------5-------|
|-----------------------------------------|
|
| +S  S S S E     S S E     +S  S S S S S
|-(8)-6-8-6-8b8.5-8-6-8b9r==(8)-6-8-6-----|
|-------------------------------------8-7-|
|-----------------------------------------|
|-----------------------------------------|
|-----------------------------------------|
|-----------------------------------------|


  E e q  S S S S S S E   E e q  S S S S S S E
|----------------------|------------------------|
|---2-3--2-3-----------|---2-3--2-3-------------|
|---2-3--2-3-----------|---2-3--2-3-------------|
|------------5-3---3-5-|------------5-3---3-5---|
|----------------5-----|----------------5-------|
|----------------------|------------------------|
|
| ~
| E e Q  H               W
|---6------------------|------------------------|
|-8--------------------|------------------------|
|----------------------|------------------------|
|----------------------|------------------------|
|----------------------|------------------------|
|----------------------|------------------------|


  (Bb)          (C)               (Gm)
  Gtrs I, II
  S E S +S  S S S S E S +S  S e   E  E  q   S  S  S  S  S  S  E
|-----6-(6)-6---6-----8-(8)-8---|---10-10-----------------------|
|-------------------------------|---10-11--10-11----------------|
|-5s7---------7---7s9---------9-|----------------12-10----10-12-|
|-------------------------------|----------------------12-------|
|-------------------------------|-------------------------------|
|-------------------------------|-------------------------------|


  E  E  q   S  S  S  S  S  S  E
|---10-10-------------------------||
|---10-11--10-11------------------||
|----------------12-10----10-12\--||
|----------------------12---------||
|---------------------------------||
|---------------------------------||


 9th Verse
  (Gm)
  Gtr I
  E e q  S S S S S     S  E     E  e q  S S S S  S  S E
|----------------------------|------------------------------------|
|---2-3--2-3-----------------|-----2-3--2-3-----------------------|
|---2-3--2-3-----------------|-----2-3--2-3-----------------------|
|------------5-3-------3--5--|--------------5-3-----3-5-----------|
|----------------5-----------|-------------------5----------------|
|----------------------------|------------------------------------|
|
| Gtr II
| H      E   E   E       +E    +H.              +E    S     S
|----------------8b10====(8)-|-(8)--------------(8)---8pb10-8pb10-|
|------------6---------------|------------------------------------|
|----------------------------|------------------------------------|
|----------------------------|------------------------------------|
|----------------------------|------------------------------------|
|----------------------------|------------------------------------|


  E             e           q                         S      S      S     S     S      S      E
|---------------------------------------------------------------------------------------------------------|
|---------------2-----------3-------------------------2------3--------------------------------------------|
|---------------2-----------3-------------------------2------3--------------------------------------------|
|-------------------------------------------------------------------5-----3------------3------5-----------|
|-------------------------------------------------------------------------------5-------------------------|
|---------------------------------------------------------------------------------------------------------|
|
| S      S      S     S     S      S      S     S     S      S      S     S     S      S      S     S
|-8pb10==8pb10==8pb10-8pb10-8pb10==8pb10==8pb10-8pb10-8pb10==8pb10==8pb10-8pb10-8pb10==8pb10==8pb10-8pb10-|
|---------------------------------------------------------------------------------------------------------|
|---------------------------------------------------------------------------------------------------------|
|---------------------------------------------------------------------------------------------------------|
|---------------------------------------------------------------------------------------------------------|
|---------------------------------------------------------------------------------------------------------|


  E           e             q                    S S S S S S E
|----------------------------------------------------------------|
|-------------2-------------3--------------------2-3-------------|
|-------------2-------------3--------------------2-3-------------|
|----------------------------------------------------5-3---3-5---|
|--------------------------------------------------------5-------|
|----------------------------------------------------------------|
|
| S     S     S      S      S      S      S    S S S S S S S S S
|-8pb10-8pb10-8pb9.5-8pb9.5-8pb9.5-8pb9.5-8pb9-8r8-8-8-8-6-8p6---|
|--------------------------------------------------------------8-|
|----------------------------------------------------------------|
|----------------------------------------------------------------|
|----------------------------------------------------------------|
|----------------------------------------------------------------|


  E     e  q   S  S S  S S S E   E e q  S S S S S S E
|------------------------------|-----------------------|
|-------2--3---2--3------------|---2-3--2-3------------|
|-------2--3---2--3------------|---2-3--2-3------------|
|-------------------5--3---3-5-|------------5-3---3-5--|
|------------------------5-----|----------------5------|
|------------------------------|-----------------------|
|
|       ~~~~~~~~~~
| E     Q.    +E    E    Q       W
|-6b6.5-------------6\---------|-----------------------|
|-------8-----(8)--------------|-----------------------|
|------------------------------|-----------------------|
|------------------------------|-----------------------|
|------------------------------|-----------------------|
|------------------------------|-----------------------|


  (Bb)          (C)               (Eb)                  (F)
  Gtrs I, II
  S E S +S  S S S S E S +S  S E   S  E  S  +S   S  S  S  S  E  S  +S   S  e
|-----6-(6)-6---6-----8-(8)-8---|------11-(11)-11----11-------13-(13)-13----|
|-------------------------------|-------------------------------------------|
|-5s7---------7---7s9---------9-|-9s12------------12----12s14------------14-|
|-------------------------------|-------------------------------------------|
|-------------------------------|-------------------------------------------|
|-------------------------------|-------------------------------------------|


  (Gm)
  E  E  q   S  S  S  S  S  S  E
|---10-10--------------------------|
|---10-11--10-11-------------------|
|----------------12-10----10-12\---|
|----------------------12----------|
|----------------------------------|
|----------------------------------|


  E  E  e E  S  S  S  S  S  S  E
|---10-10------------------------|
|---10-11-x-10-11----------------|
|-x---------------12-10----10-12-|
|-----------------------12-------|
|--------------------------------|
|--------------------------------|


   Outro
    (Gm)
    Gtr I
    E E q  S S S S S S E   E E q  S S S S S S E   6x
||-----------------------|------------------------||
||o---2-3--2-3-----------|---2-3--2-3------------o||
||----2-3--2-3-----------|---2-3--2-3-------------||
||-------------5-3---3-5-|------------5-3---3-5---||
||o----------------5-----|----------------5------o||
||-----------------------|------------------------||


  E e q  S S S S S S E   E E q  S S S S S S E
|----------------------|----------------------|
|---2-3--2-3-----------|---5-3--2-3-----------|
|---2-3--2-3-----------|---5-3--2-3-----------|
|------------5-3---3-5-|------------5-3---3-5-|
|----------------5-----|----------------5-----|
|----------------------|----------------------|
|
| Gtr II
| W                      W
|----------------------|----------------------|
|----------------------|----------------------|
|----------------------|----------------------|
|----------------------|----------------------|
|----------------------|----------------------|
|----------------------|----------------------|


  E     e        q                  S      S      S      S S     S E
|--------------------------------------------------------------------------------|
|-------2--------3------------------2------3-------------------------------------|
|-------2--------3------------------2------3-------------------------------------|
|-------------------------------------------------5------3-------3-5-------------|
|----------------------------------------------------------5---------------------|
|--------------------------------------------------------------------------------|
|
| E.      S      S      S     E     S      S      S      S E       S      S
|-8b10====8pb10==8pb10==8pb10-8b10==8pb10==8pb10==8pb10==8-8b10====8pb10==8pb10==|
|--------------------------------------------------------------------------------|
|--------------------------------------------------------------------------------|
|--------------------------------------------------------------------------------|
|--------------------------------------------------------------------------------|
|--------------------------------------------------------------------------------|


   E     e    q        S    S   S      S  S  S     E
|-----------------------------------------------------------|
|--------2----3--------2----3-------------------------------|
|--------2----3--------2----3-------------------------------|
|-------------------------------5------3-----3-----5--------|
|-----------------------------------------5-----------------|
|-----------------------------------------------------------|
|
|                      |----3-----|
| +S   S E    S E    S E      E   E      +S  E       S
|-(8)r-8-8b10-8-8b10-6-8b10---8---8b10---(8)-8b10====8pb10==|
|-----------------------------------------------------------|
|-----------------------------------------------------------|
|-----------------------------------------------------------|
|-----------------------------------------------------------|
|-----------------------------------------------------------|


  E    e   q               S   S S     S S S      E
|---------------------------------------------------|
|------2---3---------------2---3--------------------|
|------2---3---------------2---3--------------------|
|--------------------------------5-----3---3------5-|
|----------------------------------------5----------|
|---------------------------------------------------|
|
| E.     S E     S S      +S   S E       S E.
|-8b10---8-8pb10-8-8pb10==(8)r-8-8pb10---8-8pb10====|
|---------------------------------------------------|
|---------------------------------------------------|
|---------------------------------------------------|
|---------------------------------------------------|
|---------------------------------------------------|


       E    e   q       S S S S S S E     E   E   q       S S S S S S E
|---------------------------------------|---------------------------------|
|-----------2---3-------2-3-------------|-----5---3-------2-3-------------|
|-----------2---3-------2-3-------------|-----5---3-------2-3-------------|
|---------------------------5-3---3-5---|---------------------5-3---3-5---|
|-------------------------------5-------|-------------------------5-------|
|---------------------------------------|---------------------------------|
|
|  a  +S  S S S S S S S S S S S S S S S   S S S S S S S S S S S S S S S S
|-(8)r(8)p6---8p6---6-8p6---6-8p6-------|---------------------------------|
|-----------8-----8-------8-------8-6h8p|=6---6---6-8p6---6---------------|
|---------------------------------------|---7---7-------7---7p5-3h5p3---3-|
|---------------------------------------|-----------------------------5---|
|---------------------------------------|---------------------------------|
|---------------------------------------|---------------------------------|


    E E   q       S S   S   S S S E     E   E q  S S S   S   S S E
|-------------------------------------|---------------------------------|
|-----5---3-------2-3-----------------|-----5-3--2-3--------------------|
|-----5---3-------2-3-----------------|-----5-3--2-3--------------------|
|-----------------------5---3---3-5---|--------------5---3-----3-5------|
|-----------------------------5-------|----------------------5----------|
|-------------------------------------|---------------------------------|
|
|                 |---3---|                          |--3--|     |-3-|
| a E S S S S S S E   E   E   S E   S   S S E Q  E   S S   S E   S S S
|-------------------------------------|--------------9p6---8-6---9p6-8--|
|-----6-6-6-----6-6---6---6-----------|---------------------------------|
|-5s7-------4S7-----------------5p==3-|-5p3-----------------------------|
|-------------------------------------|-----5---------------------------|
|-------------------------------------|---------------------------------|
|-------------------------------------|---------------------------------|


  E     E q       S S S S S S E   E   E q     S S S S S S E
|-------------------------------|---------------------------|
|-------5-3-------2-3-----------|-----5-3-----2-3-----------|
|-------5-3-------2-3-----------|-----5-3-----2-3-----------|
|---------------------5-3---3-5-|-----------------5-3---3-5-|
|-------------------------5-----|---------------------5-----|
|-------------------------------|---------------------------|
|
| S S a E S S S S S e   S E   E   E   e E S S S S S S E   E
|-6---6h8-6---------------------|---------------------------|
|---8-------8p6-----------------|---------------------------|
|---------------7-5s3-----3---5-|-5b6-5---6-5-6-5-3---3-----|
|-----------------------6-------|-------------------5-----5-|
|-------------------------------|---------------------------|
|-------------------------------|---------------------------|


    E E q         S S S   S     S S E
|-------------------------------------|
|-----5-3---------2-3-----------------|
|-----5-3---------2-3-----------------|
|---------------------5---3-------3-5-|
|-------------------------------5-----|
|-------------------------------------|
|
|           |-3-|     |--3--|
| a q   E a S S S E   S S   S a S S E
|-------------------------------------|
|-------------------------------------|
|-3h5-----3h5-3-0-------------3h5-3-0-|
|---------------------5-3---0---------|
|-------------------------------------|
|-------------------------------------|


    E e q     S S S S S S E   E E q  S S S S S S E
|---------------------------|------------------------|
|-----2-3-----2-3-----------|---2-3--2-3-------------|
|-----2-3-----2-3-----------|---2-3--2-3-------------|
|-----------------5-3---3-5-|------------5-3---3-5---|
|---------------------5-----|----------------5-------|
|---------------------------|------------------------|
|
| a Q   E S S H               W
|---------------------------|------------------------|
|---------------------------|------------------------|
|-3h5-----3h5---------------|------------------------|
|---------------------------|------------------------|
|---------------------------|------------------------|
|---------------------------|------------------------|


    E E q  S S S S S S E   E E q  S S S S S S E   E E q  S S S S S S E
||-----------------------|----------------------|-----------------------||
||o---2-3--2-3-----------|---2-3--2-3-----------|---2-3--2-3-----------o||
||----2-3--2-3-----------|---2-3--2-3-----------|---2-3--2-3------------||
||-------------5-3---3-5-|------------5-3---3-5-|------------5-3---3-5--||
||o----------------5-----|----------------5-----|----------------5-----o||
||-----------------------|----------------------|-----------------------||


                                                                       G5
  E E q  S S S S S S E   E E q  S S S S S S E   E E q  S S S S S S E   W
|----------------------|----------------------|----------------------|------*|
|---2-3--2-3-----------|---2-3--2-3-----------|---2-3--2-3-----------|------*|
|---2-3--2-3-----------|---2-3--2-3-----------|---2-3--2-3-----------|------*|
|------------5-3---3-5-|------------5-3---3-5-|------------5-3---3-5-|-5----*|
|----------------5-----|----------------5-----|----------------5-----|-5----*|
|----------------------|----------------------|----------------------|-3----*|





KASHMIR
                           As recorded by Led Zeppelin
                     (From the 1975 Album PHYSICAL GRAFFITI)

Words and Music by Jimmy Page, John Paul Jones and John Bonham

Gtr I (D A D G A D) - 'Electric Guitar 1'
Gtr II (D A D G A D) - 'Electric Guitar 2'
Gtr III (E A D G B E) - 'Brass'
Gtr IV (E A D G B E) - 'High Strings'

  Gtr I
|------------------------|-------------------------|-----------------------|
|------------------------|-------------------------|-----------------------|
|-2-2-2---2-2-2----3-3-3-|---3-3-3----4--4-4---4-4-|-4----5-5-5---5-5-5----|
|-0-0-0---0-0-0----0-0-0-|---0-0-0----0--0-0---0-0-|-0----0-0-0---0-0-0----|
|-5-5-5---5-5-5----5-5-5-|---5-5-5----5--5-5---5-5-|-5----5-5-5---5-5-5----|
|---------------0--------|---------0-(0)-----------|---0----------------0--|

|--------------------------|-------------------------|----------------------|
|--------------------------|-------------------------|----------------------|
|--7--7-7---2-2-2----3-3-3-|---3-3-3----4--4-4---4-4-|-4----5-5-5---5-5-5---|
|--0--0-0---0-0-0----0-0-0-|---0-0-0----0--0-0---0-0-|-0----0-0-0---0-0-0---|
|--5--5-5---5-5-5----5-5-5-|---5-5-5----5--5-5---5-5-|-5----5-5-5---5-5-5---|
|-(0)-------------0--------|---------0-(0)-----------|---0----------------0-|

|---------------------------|
|o--------------------------|
|---7--7-7---2-2-2----3-3-3-|
|---0--0-0---0-0-0----0-0-0-|
|o--5--5-5---5-5-5----5-5-5-|
|--(0)-------------0--------|

|-------------------------|------------------------|
|-------------------------|-----------------------o|
|---3-3-3----4--4-4---4-4-|-4----5-5-5---5-5-5-----|
|---0-0-0----0--0-0---0-0-|-0----0-0-0---0-0-0-----|
|---5-5-5----5--5-5---5-5-|-5----5-5-5---5-5-5----o|
|---------0-(0)-----------|---0----------------0---|

  Gtr I
|---------------------------------------|-------------------------------|
|---------------------------------------|-------------------------------|
|--7--7-7----------2-2---2--------3-3-3-|----3-3--3-----4--4--4-----4-4-|
|--0--0-0----------0-0---0--------0-0-0-|----0-0--0-----0--0--0-----0-0-|
|--5--5-5----------5-5---5--------5-5-5-|----5-5--5-----5--5--5-----5-5-|
|-(0)--------------------------0--------|------------0-(0)--------------|

Gtr III
|-10------10-(10)--8----(8)-8-----5---5-|-3----3-(3)-1-(1)-1----1-0-----|
|-12------10-(10)-10---(10)-8-----------|-5----3-(3)-3-(3)-1--------3---|
|-12------11-(11)-10---(10)-9-----7---6-|-5----4-(4)-3-(3)-2------------|
|---------------------------------------|-----------------------3-2-0---|
|---------------------------------------|-------------------------------|
|---------------------------------------|-------------------------------|

|-------------------------------------|-----------------------------------|
|-------------------------------------|-----------------------------------|
|--4----------5--5--5---------5-5-5---|--7--7-7-------2-2--2--------3-3-3-|
|--0----------0--0--0---------0-0-0---|--0--0-0-------0-0--0--------0-0-0-|
|--5----------5--5--5---------5-5-5---|--5--5-5-------5-5--5--------5-5-5-|
|-----0-----------------------------0-|-(0)----------------------0--------|

|-10-----10-(10)----8--(8)-8------5-5-|--3------3-(3)-1---(1)-1-----1-0---|
|-12-----10-(10)---10-(10)-8----------|--5------3-(3)-3---(3)-1---------3-|
|-12-----11-(11)---10-(10)-9------7-6-|--5------4-(4)-3---(3)-2-----------|
|-------------------------------------|-----------------------------3-2-0-|
|-------------------------------------|-----------------------------------|
|-------------------------------------|-----------------------------------|

|-------------------------|----------------------||--------------------------|
|-------------------------|----------------------||--------------------------|
|---3-3-3----4--4-4---4-4-|-4----5-5-5---5-5-5---||--7--7-7---2-2-2----3-3-3-|
|---0-0-0----0--0-0---0-0-|-0----0-0-0---0-0-0---||--0--0-0---0-0-0----0-0-0-|
|---5-5-5----5--5-5---5-5-|-5----5-5-5---5-5-5---||--5--5-5---5-5-5----5-5-5-|
|---------0-(0)-----------|---0----------------0-||-(0)-------------0--------|

|--------------------------|---------------------------------|
|o-------------------------|---------------------------------|
|----3-3-3----4--4-4---4-4-|-4----5-5-5------5--5--5---------|
|----0-0-0----0--0-0---0-0-|-0----0-0-0------0--0--0---------|
|o---5-5-5----5--5-5---5-5-|-5----5-5-5------5--5--5---------|
|----------0-(0)-----------|---0------------------------0----|


   Gtr III
|--------------------------|---------------------------------|
|o-------------------------|---------------------------------|
|-------------------------|-----------------------4---------|
|--------------------------|---------------7-6--7-----7-6--7-|
|o-------------------------|---------------------------------|
|--------------------------|---------------------------------|

   Gtr IV
|--------------------------|---------------------------------|
|o-------------------------|--------------10-9-10-12-10-9-10-|
|--------------------------|---------------------------------|
|--------------------------|---------------------------------|
|o-------------------------|---------------------------------|
|--------------------------|---------------------------------|

|---------------------------|
|--------------------------o|
|--7--7-7---2-2-2----3-3-3--|
|--0--0-0---0-0-0----0-0-0--|
|--5--5-5---5-5-5----5-5-5-o|
|-(0)-------------0---------|

|---------------------------|
|--------------------------o|
|---------------------------|
|--4------------------------|
|--------------------------o|
|---------------------------|

|---------------------------|
|--------------------------o|
|-11------------------------|
|---------------------------|
|--------------------------o|
|---------------------------|

  Gtr I
|-------------------------|----------------------|
|-------------------------|----------------------|
|---3-3-3----4--4-4---4-4-|-4----5-5-5---5-5-5---|
|---0-0-0----0--0-0---0-0-|-0----0-0-0---0-0-0---|
|---5-5-5----5--5-5---5-5-|-5----5-5-5---5-5-5---|
|---------0-(0)-----------|---0----------------0-|

|-------------------------|----------------------|
|-------------------------|----------------------|
|-------------------------|----------------------|
|-------------------------|----------------------|
|-------------------------|----------------------|
|-------------------------|----------------------|

|-------------------------|----------------------|
|-------------------------|----------------------|
|-------------------------|----------------------|
|-------------------------|----------------------|
|-------------------------|----------------------|
|-------------------------|----------------------|

|-----------------------------------------|
|-----------------------------------------|
|--7--7-7----------2-2---2---------3-3--3-|
|--0--0-0----------0-0---0---------0-0--0-|
|--5--5-5----------5-5---5---------5-5--5-|
|-(0)--------------------------0----------|

|-10------10-(10)--8----(8)-8------5----5-|
|-12------10-(10)-10---(10)-8-------------|
|-12------11-(11)-10---(10)-9------7----6-|
|-----------------------------------------|
|-----------------------------------------|
|-----------------------------------------|

|-10------10-(10)--8----(8)-8-------------|
|---------------------------------10---10-|
|-----------------------------------------|
|-----------------------------------------|
|-----------------------------------------|
|-----------------------------------------|

|------------------------------------|---------------------------------------|
|------------------------------------|---------------------------------------|
|----3-3--3-------4---4--4-------4-4-|--4----------5--5--5---------5-5--5----|
|----0-0--0-------0---0--0-------0-0-|--0----------0--0--0---------0-0--0----|
|----5-5--5-------5---5--5-------5-5-|--5----------5--5--5---------5-5--5----|
|-------------0--(0)-----------------|-----0-------------------------------0-|

|-3----3-(3)--1--(1)--1-----1-0------|-10-----10-(10)----8--(8)-8-------5--5-|
|-5----3-(3)--3--(3)--1----------3---|-12-----10-(10)---10-(10)-8------------|
|-5----4-(4)--3--(3)--2--------------|-12-----11-(11)---10-(10)-9-------7--6-|
|---------------------------3-2--0---|---------------------------------------|
|------------------------------------|---------------------------------------|
|------------------------------------|---------------------------------------|

|------------------------------------|-10-----10-(10)----8--(8)-8------------|
|-8----8-(8)-------------------------|---------------------------------10-10-|
|------------10-(10)-10----10-9------|---------------------------------------|
|-------------------------------12---|---------------------------------------|
|------------------------------------|---------------------------------------|
|------------------------------------|---------------------------------------|

|----------------------------------------||-------------------------|
|----------------------------------------||-------------------------|
|--7--7-7--------2-2---2----------3-3--3-||---3-3-3----4--4-4---4-4-|
|--0--0-0--------0-0---0----------0-0--0-||---0-0-0----0--0-0---0-0-|
|--5--5-5--------5-5---5----------5-5--5-||---5-5-5----5--5-5---5-5-|
|-(0)-------------------------0----------||---------0-(0)-----------|

|--3------3-(3)--1----(1)--1------1-0----||-------------------------|
|--5------3-(3)--3----(3)--1-----------3-||-------------------------|
|--5------4-(4)--3----(3)--2-------------||-------------------------|
|---------------------------------3-2--0-||-------------------------|
|----------------------------------------||-------------------------|
|----------------------------------------||-------------------------|

|----------------------------------------||-------------------------|
|--8------8-(8)--------------------------||-------------------------|
|---------------10---(10)-10-----10-9----||---3-3-3----4--4-4---4-4-|
|-------------------------------------12-||-------------------------|
|----------------------------------------||-------------------------|
|----------------------------------------||-------------------------|

|----------------------|-12--12-(12)-10-(10)-10---7--7-|
|----------------------|--0---0--(0)--0--(0)--0---0--0-|
|-4----5-5-5---5-5-5---|-12--11-(11)-10-(10)--9---7--6-|
|-0----0-0-0---0-0-0---|-12--12-(12)-10-(10)-10---7--7-|
|-5----5-5-5---5-5-5---|-------------------------------|
|---0----------------0-|-------------------------------|

|----------------------|-10--10-(10)--8--(8)--8---5--5-|
|----------------------|-12--10-(10)-10-(10)--8--------|
|----------------------|-12--11-(11)-10-(10)--9---7--6-|
|----------------------|-------------------------------|
|----------------------|-------------------------------|
|----------------------|-------------------------------|

|----------------------|-10--10-(10)--8--(8)--8--------|
|----------------------|-------------------------10-10-|
|-4----5-5-5---5-5-5---|-------------------------------|
|----------------------|-------------------------------|
|----------------------|-------------------------------|
|----------------------|-------------------------------|

|-5--5-(5)--3--(3)--3--------------||-------------------|
|-0--0-(0)--0--(0)--0--------------||o---------------12-|
|-5--4-(4)--3--(3)--2--------------||--2-----2---2------|
|-5--5-(5)--3--(3)--3--3-2-0-----0-||--2-----2---2---11-|
|----------------------------0-2---||o-0-----0---0---12-|
|----------------------------------||-------------------|

|-3--3-(3)--1--(1)--1--1-0---------||-------------------|
|-5--3-(3)--3--(3)--1------3-------||o------------------|
|-5--4-(4)--3--(3)--2--------------||-------------------|
|----------------------3-2-0-------||-------------------|
|----------------------------------||o------------------|
|----------------------------------||-------------------|

|----------------------------------||-------------------|
|-8--8-(8)-------------------------||o------------------|
|----------10-(10)-10--------------||-------------------|
|----------------------3-2-0-----0-||-------------------|
|----------------------------0-2---||o------------------|
|----------------------------------||-------------------|

|-----------------|------------------|----------------------------|
|-(12)\-----------|---------------12-|-(12)\---------------------o|
|-------2---------|-2-----2---2------|-------2--------------------|
|-(11)\-2---------|-2-----2---2---11-|-(11)\-2------3-2-0-----0---|
|-(12)\-0---------|-0-----0---0---12-|-(12)\-0------------0-2----o|
|-----------------|------------------|----------------------------|

|------------------|-----------------|------------------|-----------------|
|---------------12-|-(12)\-----------|---------------12-|-(12)\-----------|
|-2-----2---2------|-------2---------|-2-----2---2------|-------2---------|
|-2-----2---2---11-|-(11)\-2---------|-2-----2---2---11-|-(11)\-2---------|
|-0-----0---0---12-|-(12)\-0---------|-0-----0---0---12-|-(12)\-0---------|
|------------------|-----------------|------------------|-----------------|

|--12--12-(12)-10-(10)-10---7--7-|-5--5-(5)--3--(3)--3-----------|
|o--0---0--(0)--0--(0)--0---0--0-|-0--0-(0)--0--(0)--0----------o|
|--12--11-(11)-10-(10)--9---7--6-|-5--4-(4)--3--(3)--2-----------|
|--12--12-(12)-10-(10)-10---7--7-|-5--5-(5)--3--(3)--3---3-2--0--|
|o-------------------------------|------------------------------o|
|--------------------------------|-------------------------------|

   Gtr III
|--10--10-(10)--8--(8)--8---5--5-|-3--3-(3)--1--(1)--1---1-0-----|
|o-12--10-(10)-10-(10)--8--------|-5--3-(3)--3--(3)--1--------3-o|
|--12--11-(11)-10-(10)--9---7--6-|-5--4-(4)--3--(3)--2-----------|
|--------------------------------|-----------------------3-2--0--|
|o-------------------------------|------------------------------o|
|--------------------------------|-------------------------------|

   Gtr IV
|--10--10-(10)--8--(8)--8--------|-------------------------------|
|o-------------------------10-10-|-8--8-(8)---------------------o|
|--------------------------------|----------10-(10)-10--10-9-----|
|--------------------------------|---------------------------12--|
|o-------------------------------|------------------------------o|
|--------------------------------|-------------------------------|

  Gtr I
|--5--5--5-5-5-5-5-5-|-(5)-----5--------5-(5)--------5---5--5----|
|--5--5--5-5-5-5-5-5-|-(5)-----5--------5-(5)--------5---5--5----|
|--7--7--7-7-7-7-7-7-|-(7)-----7--------7-(7)--------7---7--7----|
|--5--5--5-5-5-5-5-5-|-(5)-----5--------5-(5)--------5---5--5----|
|--5--5--5-5-5-5-5-5-|-(5)-----5--------5-(5)--------5---5--5----|
|--5--5--5-5-5-5-5-5-|-(5)-----5--------5-(5)--------5---5--5----|

 Gtr IV
|--------------------|------------------------------12-----------|
|--------------------|------------------------14-15-----15-14-11-|
|-12-----------------|-14--15-14-12----14-15-------------------6-|
|--5-----------------|--7---8--7-(7)-5--5-(5)-------(5)--7--8----|
|--------------------|-------------------------------------------|
|--------------------|-------------------------------------------|

|--7---7--7-7-7-7-(7)----7---|--7----7---7----(7)--------7--7--7-|
|--7---7--7-7-7-7-(7)----7---|--7----7---7----(7)--------7--7--7-|
|--9---9--9-9-9-9-(9)----9---|--9----9---9----(9)--------9--9--9-|
|--7---7--7-7-7-7-(7)----7---|--7----7---7----(7)--------7--7--7-|
|--7---7--7-7-7-7-(7)----7---|--7----7---7----(7)--------7--7--7-|
|--7---7--7-7-7-7-(7)----7---|--7----7---7----(7)--------7--7--7-|

|-12--------------10--9-10-9-|-(9)-------------------------------|
|--5--------------(5)------5-|-(5)------------11--10-10-11-11-11-|
|------------------------6---|-----7-6---------------------------|
|----------------------------|---------8-7--8--7-----------------|
|----------------------------|-----------------------------------|
|----------------------------|-----------------------------------|

|--5---5--5-5-5-5-5-5-|-(5)----5----------5----(5)-----------5--5--5----|
|--5---5--5-5-5-5-5-5-|-(5)----5----------5----(5)-----------5--5--5----|
|--7---7--7-7-7-7-7-7-|-(7)----7----------7----(7)-----------7--7--7----|
|--5---5--5-5-5-5-5-5-|-(5)----5----------5----(5)-----------5--5--5----|
|--5---5--5-5-5-5-5-5-|-(5)----5----------5----(5)-----------5--5--5----|
|--5---5--5-5-5-5-5-5-|-(5)----5----------5----(5)-----------5--5--5----|

|---------------------|----------------12-------------12-13-12-------12-|
|---------------------|----------14-15------14-14--15-----6----15-14----|
|-12------------------|-14--15-------7--9----7--6---7--9-----9--6--7--9-|
|--5------------------|--7---8----9-------------------------------------|
|---------------------|-------------------------------------------------|
|---------------------|-------------------------------------------------|

|--7----7---------7---7--7-7--(7)-----7----|--7--7---7--------(7)-----7--7-7---|
|--7----7---------7---7--7-7--(7)-----7----|--7--7---7--------(7)-----7--7-7---|
|--9----9---------9---9--9-9--(9)-----9----|--9--9---9--------(9)-----9--9-9---|
|--7----7---------7---7--7-7--(7)-----7----|--7--7---7--------(7)-----7--7-7---|
|--7----7---------7---7--7-7--(7)-----7----|--7--7---7--------(7)-----7--7-7---|
|--7----7---------7---7--7-7--(7)-----7----|--7--7---7--------(7)-----7--7-7---|

Gtr III
|------------------------------------------|-----------------------------------|
|------------------------------------------|-----------------------------------|
|-------------------------------------2----|-(2)-------------------------------|
|-------------------------------------2----|-(2)-------------------------------|
|-------------------------------------4----|-(4)-------------------------------|
|------------------------------------------|-----------------------------------|

 Gtr IV
|-12--(12)-------12-(12)-----(12)-13-10-13-|-12----(12)------------------------|
|--5---(5)-14-10--5--(5)------(5)--6-----6-|--5-----(5)-8-10-(10)-8-6-5------6-|
|-----------6-------------------------7----|-------------------------------7---|
|--------------7---------------------------|------------5--7--(7)-5-3-2------3-|
|------------------------------------------|-------------------------------5---|
|------------------------------------------|-----------------------------------|

|-5---5--5-5-5-5-5--5----|-(5)--5-----5-(5)--------5-5----5----|
|-5---5--5-5-5-5-5--5----|-(5)--5-----5-(5)--------5-5----5----|
|-7---7--7-7-7-7-7--7----|-(7)--7-----7-(7)--------7-7----7----|
|-5---5--5-5-5-5-5--5----|-(5)--5-----5-(5)--------5-5----5----|
|-5---5--5-5-5-5-5--5----|-(5)--5-----5-(5)--------5-5----5----|
|-5---5--5-5-5-5-5--5----|-(5)--5-----5-(5)--------5-5----5----|

 Gtr IV
|------------------------|----------------------9-10---12---10-|
|-8----------------10-11-|-10-----10----10--11-----------------|
|------------------------|-----12----12------------7----9----7-|
|-5-----------------7--8-|--7---5--7--5--7---8-11--------------|
|------------------------|-------------------------------------|
|------------------------|-------------------------------------|

|-7-----------7-----7--7--7-7-(7)---7----|
|-7-----------7-----7--7--7-7-(7)---7----|
|-9-----------9-----9--9--9-9-(9)---9----|
|-7-----------7-----7--7--7-7-(7)---7----|
|-7-----------7-----7--7--7-7-(7)---7----|
|-7-----------7-----7--7--7-7-(7)---7----|

 Gtr III
|----------------------------------------|
|----------------------------------------|
|-----------------------------------2--2-|
|-----------------------------------2--2-|
|----------------------------------------|
|----------------------------------------|

 Gtr IV
|-9-10-12-13-12--10-9-(9)-----10--9-6----|
|-------------------------------------10-|
|----7--9-10--9---7-6-(6)------7--6------|
|-7---------------------------------8--7-|
|----------------------------------------|
|----------------------------------------|

|---7---7----7-------(7)--------7--7-7-|
|---7---7----7-------(7)--------7--7-7-|
|---9---9----9-------(9)--------9--9-9-|
|---7---7----7-------(7)--------7--7-7-|
|---7---7----7-------(7)--------7--7-7-|
|---7---7----7-------(7)--------7--7-7-|

|--------------------------------------|
|--------------------------------------|
|--(2)----------------2------2-(2)-----|
|--(2)----------------2------2-(2)-----|
|--------------------------------------|
|--------------------------------------|

|--------------------------------------|
|-(10)-11-8-(8)-10-6-(6)-8-----------6-|
|--------------------------9---(9)-9---|
|--(7)--8-5-(5)--7-------5-------------|
|------------------8-(8)---7---(7)-7-8-|
|--------------------------------------|

|-5---5--5-5-5-5-5-5-|-(5)-------5-----5-(5)-----------5--5--5-|
|-5---5--5-5-5-5-5-5-|-(5)-------5-----5-(5)-----------5--5--5-|
|-7---7--7-7-7-7-7-7-|-(7)-------7-----7-(7)-----------7--7--7-|
|-5---5--5-5-5-5-5-5-|-(5)-------5-----5-(5)-----------5--5--5-|
|-5---5--5-5-5-5-5-5-|-(5)-------5-----5-(5)-----------5--5--5-|
|-5---5--5-5-5-5-5-5-|-(5)-------5-----5-(5)-----------5--5--5-|

 Gtr IV
|--------------------|-------------------13--12-10--9-10-12----|
|-8------------------|-10--11-10-8-(8)-------------------------|
|--------------------|-------------------10---9-----------9----|
|-5------------------|--7---8--7-5-(5)----------12-11-12-------|
|--------------------|-----------------------------------------|
|--------------------|-----------------------------------------|

|---7----------7-------7--7-7--7-----(7)-7---|
|---7----------7-------7--7-7--7-----(7)-7---|
|---9----------9-------9--9-9--9-----(9)-9---|
|---7----------7-------7--7-7--7-----(7)-7---|
|---7----------7-------7--7-7--7-----(7)-7---|
|---7----------7-------7--7-7--7-----(7)-7---|

 Gtr III
|--------------------------------------------|
|--------------------------------------------|
|----------------------------------------2-2-|
|----------------------------------------2-2-|
|----------------------------------------4-4-|
|--------------------------------------------|

Gtr IV
|-(12)-10-9----9-----9------9----------------|
|-----------11----11-----11---11-10-(10)-----|
|--(9)--7-6----6-----6------6----------------|
|------------8-----8------8----8--7--(7)-----|
|--------------------------------------------|
|--------------------------------------------|

|---7--7--7----------(7)---------7--7--7--|
|---7--7--7----------(7)---------7--7--7--|
|---9--9--9----------(9)---------9--9--9--|
|---7--7--7----------(7)---------7--7--7--|
|---7--7--7----------(7)---------7--7--7--|
|---7--7--7----------(7)---------7--7--7--|

|-----------------------------------------|
|-----------------------------------------|
|--(2)------------------------------------|
|--(2)------------------------------------|
|--(4)------------------------------------|
|-----------------------------------------|

|--------12-13-10-12--9--10-6-9-----------|
|-(10)--------------------------10----10--|
|---------9-10-----9--6---7---6-----------|
|--(7)---------12-----------8----7-----7--|
|-----------------------------------------|
|-----------------------------------------|

|-5---5------5--5--5--5---5---5----|--(5)--5----------5-----(5)---5--5--5-|
|-5---5------5--5--5--5---5---5----|--(5)--5----------5-----(5)---5--5--5-|
|-7---7------7--7--7--7---7---7----|--(7)--7----------7-----(7)---7--7--7-|
|-5---5------5--5--5--5---5---5----|--(5)--5----------5-----(5)---5--5--5-|
|-5---5------5--5--5--5---5---5----|--(5)--5----------5-----(5)---5--5--5-|
|-5---5------5--5--5--5---5---5----|--(5)--5----------5-----(5)---5--5--5-|

|----------------------------------|--------------------------------------|
|-----------------------------3--3-|--(3)---------------------------------|
|----------------------------------|--------------------------------------|
|-----------------------------0--0-|--(0)---------------------------------|
|----------------------------------|--------------------------------------|
|-----------------------------3--3-|--(3)---------------------------------|

Gtr IV
|--------13-12-13-12-10-(10)--9-10-|-(10)-12-13-(13)-12-13-(13)--12-10-12-|
|-8--------------------------------|--------------------------------------|
|--------10--9-10--9---------------|-------9-10-(10)--9-10-(10)---9-----9-|
|-5------------------12-(12)-11-12-|-(12)---------------------------12----|
|----------------------------------|--------------------------------------|
|----------------------------------|--------------------------------------|

|---7---7--7--7--7-7----(7)-7-|---7--7--7---(7)--7-7-7-|
|---7---7--7--7--7-7----(7)-7-|---7--7--7---(7)--7-7-7-|
|---9---9--9--9--9-9----(9)-9-|---9--9--9---(9)--9-9-9-|
|---7---7--7--7--7-7----(7)-7-|---7--7--7---(7)--7-7-7-|
|---7---7--7--7--7-7----(7)-7-|---7--7--7---(7)--7-7-7-|
|---7---7--7--7--7-7----(7)-7-|---7--7--7---(7)--7-7-7-|

Gtr IV
|-(12)--9---------------------|------------------------|
|------------10------11-10----|-(10)-8-10--(10)--------|
|--(9)--6---------------------|------------------------|
|-------------7-------8--7----|--(7)-5--7---(7)--------|
|-----------------------------|------------------------|
|-----------------------------|------------------------|

|------------------------|-------------------------|----------------------|
|------------------------|-------------------------|----------------------|
|-2-2-2---2-2-2----3-3-3-|---3-3-3----4--4-4---4-4-|-4----5-5-5---5-5-5---|
|-0-0-0---0-0-0----0-0-0-|---0-0-0----0--0-0---0-0-|-0----0-0-0---0-0-0---|
|-5-5-5---5-5-5----5-5-5-|---5-5-5----5--5-5---5-5-|-5----5-5-5---5-5-5---|
|---------------0--------|---------0-(0)-----------|---0----------------0-|

|--------------------------|-------------------------|----------------------|
|--------------------------|-------------------------|----------------------|
|--7--7-7---2-2-2----3-3-3-|---3-3-3----4--4-4---4-4-|-4----5-5-5---5-5-5---|
|--0--0-0---0-0-0----0-0-0-|---0-0-0----0--0-0---0-0-|-0----0-0-0---0-0-0---|
|--5--5-5---5-5-5----5-5-5-|---5-5-5----5--5-5---5-5-|-5----5-5-5---5-5-5---|
|-(0)-------------0--------|---------0-(0)-----------|---0----------------0-|

|--------------------------|-------------------------|
|--------------------------|-------------------------|
|--7--7-7---2-2-2----3-3-3-|---3-3-3----4--4-4---4-4-|
|--0--0-0---0-0-0----0-0-0-|---0-0-0----0--0-0---0-0-|
|--5--5-5---5-5-5----5-5-5-|---5-5-5----5--5-5---5-5-|
|-(0)-------------0--------|---------0-(0)-----------|

Gtr III
|--------------------------|-------------------------|
|--------------------------|-------------------------|
|--------------------------|-------------------------|
|--------------------------|-------------------------|
|--------------------------|-------------------------|
|--------------------------|-------------------------|

Gtr IV
|--------------------------|-------------------------|
|--------------------------|-------------------------|
|--------------------------|-------------------------|
|--------------------------|-------------------------|
|--------------------------|-------------------------|
|--------------------------|-------------------------|

|----------------------------------|
|----------------------------------|
|-4----5-5-5------5--5--5----------|
|-0----0-0-0------0--0--0----------|
|-5----5-5-5------5--5--5----------|
|---0------------------------0-----|

|----------------------------------|
|----------------------------------|
|-----------------------4----------|
|---------------7-6--7-----7-6--7--|
|----------------------------------|
|----------------------------------|

|----------------------------------|
|--------------10-9-10-12-10-9-10--|
|----------------------------------|
|----------------------------------|
|----------------------------------|
|----------------------------------|

|--------------------------|-------------------------|
|--------------------------|-------------------------|
|--7--7-7---2-2-2----3-3-3-|---3-3-3----4--4-4---4-4-|
|--0--0-0---0-0-0----0-0-0-|---0-0-0----0--0-0---0-0-|
|--5--5-5---5-5-5----5-5-5-|---5-5-5----5--5-5---5-5-|
|-(0)-------------0--------|---------0-(0)-----------|

|--------------------------|-------------------------|
|--------------------------|-------------------------|
|--------------------------|-------------------------|
|--4-----------------------|-------------------------|
|--------------------------|-------------------------|
|--------------------------|-------------------------|

|--------------------------|-------------------------|
|--7-----------------------|-------------------------|
|--------------------------|-------------------------|
|--------------------------|-------------------------|
|--------------------------|-------------------------|
|--------------------------|-------------------------|

|----------------------------------|
|----------------------------------|
|-4----5-5-5------5--5--5----------|
|-0----0-0-0------0--0--0----------|
|-5----5-5-5------5--5--5----------|
|---0------------------------0-----|

|----------------------------------|
|----------------------------------|
|-----------------------4----------|
|---------------7-6--7-----7-6--7--|
|----------------------------------|
|----------------------------------|

|----------------------------------|
|--------------10-9-10-12-10-9-10--|
|----------------------------------|
|----------------------------------|
|----------------------------------|
|----------------------------------|

|--------------------------|-------------------------|
|--------------------------|-------------------------|
|--7--7-7---2-2-2----3-3-3-|---3-3-3----4--4-4---4-4-|
|--0--0-0---0-0-0----0-0-0-|---0-0-0----0--0-0---0-0-|
|--5--5-5---5-5-5----5-5-5-|---5-5-5----5--5-5---5-5-|
|-(0)-------------0--------|---------0-(0)-----------|

|--------------------------|-------------------------|
|--------------------------|-------------------------|
|--------------------------|-------------------------|
|--4-----------------------|-------------------------|
|--------------------------|-------------------------|
|--------------------------|-------------------------|

|--------------------------|-------------------------|
|--7-----------------------|-------------------------|
|--------------------------|-------------------------|
|--------------------------|-------------------------|
|--------------------------|-------------------------|
|--------------------------|-------------------------|

|----------------------------------|
|----------------------------------|
|-4----5-5-5------5--5--5----------|
|-0----0-0-0------0--0--0----------|
|-5----5-5-5------5--5--5----------|
|---0------------------------0-----|

|----------------------------------|
|----------------------------------|
|-----------------------4----------|
|---------------7-6--7-----7-6--7--|
|----------------------------------|
|----------------------------------|

|----------------------------------|
|--------------10-9-10-12-10-9-10--|
|----------------------------------|
|----------------------------------|
|----------------------------------|
|----------------------------------|

|--------------------------|-------------------------|----------------------|
|--------------------------|-------------------------|----------------------|
|--7--7-7---2-2-2----3-3-3-|---3-3-3----4--4-4---4-4-|-4----5-5-5---5-5-5---|
|--0--0-0---0-0-0----0-0-0-|---0-0-0----0--0-0---0-0-|-0----0-0-0---0-0-0---|
|--5--5-5---5-5-5----5-5-5-|---5-5-5----5--5-5---5-5-|-5----5-5-5---5-5-5---|
|-(0)-------------0--------|---------0-(0)-----------|---0----------------0-|

|--------------------------|-------------------------|----------------------|
|--------------------------|-------------------------|----------------------|
|--------------------------|-------------------------|----------------------|
|--4-----------------------|-------------------------|----------------------|
|--------------------------|-------------------------|----------------------|
|--------------------------|-------------------------|----------------------|

|--------------------------|-------------------------|----------------------|
|--7-----------------------|-------------------------|----------------------|
|--------------------------|---3-3-3----4--4-4---4-4-|-4----5-5-5---5-5-5---|
|--------------------------|-------------------------|----------------------|
|--------------------------|-------------------------|----------------------|
|--------------------------|-------------------------|----------------------|

  Gtr I
|---------------------------------------|-------------------------------|
|---------------------------------------|-------------------------------|
|--7--7-7----------2-2---2--------3-3-3-|----3-3--3-----4--4--4-----4-4-|
|--0--0-0----------0-0---0--------0-0-0-|----0-0--0-----0--0--0-----0-0-|
|--5--5-5----------5-5---5--------5-5-5-|----5-5--5-----5--5--5-----5-5-|
|-(0)--------------------------0--------|------------0-(0)--------------|

Gtr III
|-10------10-(10)--8----(8)-8-----5---5-|-3----3-(3)-1-(1)-1----1-0-----|
|-12------10-(10)-10---(10)-8-----------|-5----3-(3)-3-(3)-1--------3---|
|-12------11-(11)-10---(10)-9-----7---6-|-5----4-(4)-3-(3)-2------------|
|---------------------------------------|-----------------------3-2-0---|
|---------------------------------------|-------------------------------|
|---------------------------------------|-------------------------------|

|-------------------------------------|-----------------------------------|
|-------------------------------------|-----------------------------------|
|--4----------5--5--5---------5-5-5---|--7--7-7-------2-2--2--------3-3-3-|
|--0----------0--0--0---------0-0-0---|--0--0-0-------0-0--0--------0-0-0-|
|--5----------5--5--5---------5-5-5---|--5--5-5-------5-5--5--------5-5-5-|
|-----0-----------------------------0-|-(0)----------------------0--------|

|-10-----10-(10)----8--(8)-8------5-5-|--3------3-(3)-1---(1)-1-----1-0---|
|-12-----10-(10)---10-(10)-8----------|--5------3-(3)-3---(3)-1---------3-|
|-12-----11-(11)---10-(10)-9------7-6-|--5------4-(4)-3---(3)-2-----------|
|-------------------------------------|-----------------------------3-2-0-|
|-------------------------------------|-----------------------------------|
|-------------------------------------|-----------------------------------|

|-------------------------|----------------------|
|-------------------------|----------------------|
|---3-3-3----4--4-4---4-4-|-4----5-5-5---5-5-5---|
|---0-0-0----0--0-0---0-0-|-0----0-0-0---0-0-0---|
|---5-5-5----5--5-5---5-5-|-5----5-5-5---5-5-5---|
|---------0-(0)-----------|---0----------------0-|

 Gtr IV
|-------------------------|----------------------|
|-------------------------|----------------------|
|---3-3-3----4--4-4---4-4-|-4----5-5-5---5-5-5---|
|-------------------------|----------------------|
|-------------------------|----------------------|
|-------------------------|----------------------|

    Gtr III
|--10--10-(10)--8--(8)-8---5--5-|-3--3-(3)--1--(1)--1---1-0-----|
|o-12--10-(10)-10-(10)-8--------|-5--3-(3)--3--(3)--1--------3-o|
|--12--11-(11)-10-(10)-9---7--6-|-5--4-(4)--3--(3)--2-----------|
|-------------------------------|-----------------------3-2--0--|
|o------------------------------|------------------------------o|
|-------------------------------|-------------------------------|

   Gtr IV
|--10--10-(10)--8--(8)-8--------|-------------------------------|
|o------------------------10-10-|-8--8-(8)---------------------o|
|-------------------------------|----------10-(10)-10--10-9-----|
|-------------------------------|---------------------------12--|
|o------------------------------|------------------------------o|
|-------------------------------|-------------------------------|

  Gtr I
|-5--5--5-5-5-5-5-5-|-(5)-5--5-(5)--5-5-5-|
|-5--5--5-5-5-5-5-5-|-(5)-5--5-(5)--5-5-5-|
|-7--7--7-7-7-7-7-7-|-(7)-7--7-(7)--7-7-7-|
|-5--5--5-5-5-5-5-5-|-(5)-5--5-(5)--5-5-5-|
|-5--5--5-5-5-5-5-5-|-(5)-5--5-(5)--5-5-5-|
|-5--5--5-5-5-5-5-5-|-(5)-5--5-(5)--5-5-5-|

 Gtr IV
|-------------------|---------------------|
|-------------------|---------------------|
|-------------------|---------------2---3-|
|-5-----------------|-(5)-----------------|
|-2-----------------|-(2)-----------------|
|-------------------|---------------------|

|-7---7----7-7-7--7-(7)---7---|--7----7--7------(7)--7-----7-7-|
|-7---7----7-7-7--7-(7)---7---|--7----7--7------(7)--7-----7-7-|
|-9---9----9-9-9--9-(9)---9---|--9----9--9------(9)--9-----9-9-|
|-7---7----7-7-7--7-(7)---7---|--7----7--7------(7)--7-----7-7-|
|-7---7----7-7-7--7-(7)---7---|--7----7--7------(7)--7-----7-7-|
|-7---7----7-7-7--7-(7)---7---|--7----7--7------(7)--7-----7-7-|

 Gtr III
|-----------------------------|--------------------------------|
|-------------------------5-5-|-(5)----------------------------|
|-------------------------6-6-|-(6)----------------------------|
|-------------------------7-7-|-(7)----------------------------|
|-----------------------------|--------------------------------|
|-----------------------------|--------------------------------|

 Gtr IV
|-----------------------------|----------------------9-10-12---|
|-5---------------------------|-----------------10-------------|
|-2------3-6-7-9-----7--6-7-9-|-(9)------------------6--7--9---|
|-------------------------7---|-----5-7-(7)-8-5--7-------------|
|-0------1-4-5-7-----5--4-5-7-|--8-----------------------------|
|-------------------------5---|--------------------------------|

|--5--5--5-5-5-5-5-5-|-(5)-5--5-(5)--5-5-5-|
|--5--5--5-5-5-5-5-5-|-(5)-5--5-(5)--5-5-5-|
|--7--7--7-7-7-7-7-7-|-(7)-7--7-(7)--7-7-7-|
|--5--5--5-5-5-5-5-5-|-(5)-5--5-(5)--5-5-5-|
|--5--5--5-5-5-5-5-5-|-(5)-5--5-(5)--5-5-5-|
|--5--5--5-5-5-5-5-5-|-(5)-5--5-(5)--5-5-5-|

 Gtr IV
|-10-----------------|---------------------|
|--------------------|---------------------|
|--7-----------------|-(7)-----------------|
|--5-----------------|-(5)-----------------|
|--------------------|---------------------|
|--------------------|---------------------|

|-7--7--7-7-7-7-(7)-7---|--7--7-7--(7)--7-7-7-|
|-7--7--7-7-7-7-(7)-7---|--7--7-7--(7)--7-7-7-|
|-9--9--9-9-9-9-(9)-9---|--9--9-9--(9)--9-9-9-|
|-7--7--7-7-7-7-(7)-7---|--7--7-7--(7)--7-7-7-|
|-7--7--7-7-7-7-(7)-7---|--7--7-7--(7)--7-7-7-|
|-7--7--7-7-7-7-(7)-7---|--7--7-7--(7)--7-7-7-|
 
Gtr III
|-----------------------|---------------------|
|-------------------5-5-|-(5)-----------------|
|-------------------6-6-|-(6)-----------------|
|-------------------7-7-|-(7)-----------------|
|-----------------------|---------------------|
|-----------------------|---------------------|

 Gtr IV
|-----------------------|---------------------|
|-----------------------|---------------------|
|-9---------------------|-(9)-----------------|
|-----------------------|---------------------|
|-7---------------------|-(7)-----------------|
|-----------------------|---------------------|

|--5---5----5--5--5-5-5-5-|-(5)-5---5-(5)-----5-5--5-|
|o-5---5----5--5--5-5-5-5-|-(5)-5---5-(5)-----5-5--5-|
|--7---7----7--7--7-7-7-7-|-(7)-7---7-(7)-----7-7--7-|
|--5---5----5--5--5-5-5-5-|-(5)-5---5-(5)-----5-5--5-|
|o-5---5----5--5--5-5-5-5-|-(5)-5---5-(5)-----5-5--5-|
|--5---5----5--5--5-5-5-5-|-(5)-5---5-(5)-----5-5--5-|

Gtr IV
|--3----------------------|--------------------------|
|o------------------------|--------------------------|
|-------------------3-5---|--7----9---10--12-14---16-|
|--5------7---(7)---------|--------------------------|
|o------------------1-3---|--5----7----8--10-12---14-|
|--3------5---(5)---------|--------------------------|

|--7-----7--------7---7--7-7-(7)--7----|--7-----7----7-----(7)--7---7-7--|
|--7-----7--------7---7--7-7-(7)--7----|--7-----7----7-----(7)--7---7-7-o|
|--9-----9--------9---9--9-9-(9)--9----|--9-----9----9-----(9)--9---9-9--|
|--7-----7--------7---7--7-7-(7)--7----|--7-----7----7-----(7)--7---7-7--|
|--7-----7--------7---7--7-7-(7)--7----|--7-----7----7-----(7)--7---7-7-o|
|--7-----7--------7---7--7-7-(7)--7----|--7-----7----7-----(7)--7---7-7--|

Gtr III
|--------------------------------------|---------------------------------|
|---------------------------------5--5-|-(5)----------------------------o|
|---------------------------------6--6-|-(6)-----------------------------|
|---------------------------------7--7-|-(7)-----------------------------|
|--------------------------------------|--------------------------------o|
|--------------------------------------|---------------------------------|

 Gtr IV
|--------------------------------------|---------------------------------|
|-14-17-14--11-10---(10)---------10-11-|-10--11-8-10-6-8-5-(5)----------o|
|--------------------------------------|------------------------6-7-9----|
|-11-14-11---8--7----(7)----------7--8-|--7---8-5--7-3-5-2-(2)-----------|
|--------------------------------------|------------------------4-5-7---o|
|--------------------------------------|---------------------------------|




Led Zeppelin
Ten Years Gone

|---------------------|-------------------7--7-7--5--5-5-3-|
|-2-0---0-3-----3-----|---2--2-2--7--7-7--9--9-9--7--7-7-5-|
|-2-2-2---2---2---2---|---2--2-2--7--7-7--8--8-8--6--6-6-4-|
|-2-2-----3-3-------2-|---2--2-2--7--7-7--9--9-9--7--7-7-5-|
|-0-0-----0---------0-|-0-0--0-0--5--5-5--7--7-7--5--5-5-3-|
|---------------------|------------------------------------|

|-----------------|-----------------------------------|
|-----------------|-2-----------------------------2---|
|-----------------|-2-4-2-4-4-4-6-2---2-4-2-2-2-4-2---|
|---------0-3-2---|-2-----5-5-5---4---4---3-3-3---2---|
|-----0-3-------0-|-0-----0-0-0---0-0-0---0-0-0---0-0-|
|-0-1-------------|-----------------------------------|

|---------------------------------------------------0-|
|---------------------------------------------------3-|
|---------------------------------------------------2-|
|----------------------------------------------0----0-|
|-5-7-7-9-7-7-5-5-5-5-5--5-5-5--5-5-5--5-5-5-5-0------|
|-3-5-5-7-5-5-3-3-3-3-3--3-3-3--3-3-3--3-3-3-3--------|

|------------------------------------------------|
|-------------------------------17-15-14-15-14~~-|
|-------14-16-16-14-16-14~~-----18-16-14-16-14~~-|
|-14-16----------------------16------------------|
|------------------------------------------------|
|------------------------------------------------|

                let ring
                >>>>>>>>                                 >>>>> 
|----------------|-------------------|----------0--------|-----------------
|-----2--0---0--3--|---3---------3-----|-------2-------0-3-|-3-3-3-----------
|-----2----2----2--|---2-------2---2---|-2-----2-----2---2-|-2----2----------
|-----2---------3--|---3-----3-------3-|-2-----2---------3-|-3-----3---------
|--0--0---------0--|---0--0------------|-0--0--0---------0-|-0---------------
|------------------|-------------------|-------------------|-----------------

Part 2:
         x = mute strings 
|----------------------------------|-7-7-7-7-x-x-----------------------------
|--2--2--x(2)--x(2)--1-1-x(1)-x(1)-|-8-8-8-8-x-x-7-7-7-7-7-5-----------------
|--2--2--x(2)--x(2)--2-2-x(2)-x(1)-|-9-9-9-9-x-x-6-6-6-6-6-4-----------------
|--2--2--x(2)--x(2)--1-1-x(2)-x(1)-|-9-9-9-9-x-x-7-7-7-7-7-5-----------------
|--0--0----------------------------|-----------------------------------------
|----------------------------------|-----------------------------------------

Part 3: heavy guitar sound with distortion (remember drop D tuning)
Page overdubs to get that wall of sound here.  I think a sitar was also
overdubbed.

  lead in riff                                        
|------------------------------|--------------------|-----------------------
|------------------------------|---0----------------|---------2-------------
|-----------------------2--4-2-|-4-4-4--6-2---2-4-2-|-2-2-2-4-2--2-4-2------
|-----------2-3-2-------2--2-2-|-5-5-5--5-4---4-4-4-|-3-3-3-3-2--2-2-2------
|------0-3----------0----------|------------0-------|-----------0-----------
|--2-3-------------------------|--------------------|-----------------------

|--------------------|-----------------------
|---0----------------|---------2-------------
|-4-4-4--6-2---2-4-2-|-2-2-2-4-2--2-4-2------
|-5-5-5--5-4---4-4-4-|-3-3-3-3-2--2-2-2------
|------------0-------|-----------0-----------
|--------------------|-----------------------

|--------------------|-----------------------
|---0----------------|---------2-------------
|-4-4-4--6-2---2-4-2-|-2-2-2-4-2--2-4-2------
|-5-5-5--5-4---4-4-4-|-3-3-3-3-2--2-2-2------
|------------0-------|-----------0-----------
|--------------------|-----------------------

                               * heavy part ends  leads into Part 1
|--------------------|----------------------|-------------------------------
|---0----------------|-------0-2---0---0-3--|--------3----------------------
|-4-4-4--6-2---2-4-2-|-2-2-2---2-----2---2--|------2---2--------------------
|-5-5-5--5-4---4-4-4-|-3-3-3---2---------3--|----3-------3------------------
|------------0-------|-------------------0--|--0----------------------------
|--------------------|----------------------|-------------------------------

|----------------------|-----------------------------------------------------
|--5--7-7-7-7--7-7--5--|--5--3--5--3--3-3--3-3-3-3---------------------------
|--4--6-6-6-6--6-6--4--|--5--4--5--4--4-4--4-4-4-4---------------------------
|--5--7-7-7-7--7-7--5--|--5--5--5--5--5-5--5-5-5-5---------------------------
|----------------------|-----------------------------------------------------
|----------------------|-----------------------------------------------------

|-0--0-0-0-0-0-0-0-0-|-0-2--2--2--|------------------------------------------
|-5--5-5-5-5-5-5-5-3-|-3-2--2--2--|--5-7-7-7-7--7-7-7-7----------------------
|-4--4-4-4-4-4-4-4-4-|-4-2--2--2--|--4-6-6-6-6--6-6-6-6----------------------
|-5--5-5-5-5-5-5-5-5-|-5-4--0--0--|--5-7-7-7-7--7-7-7-7----------------------
|--------------------|------------|------------------------------------------
|--------------------|------------|------------------------------------------

|--------------------|-----------0-0-------------|----2----------------------
|--5--5--5--3--------|--0-0-3-3--3-3--3-3--3--0--|-0--2----------------------
|--5--5--5--4--4--4--|--0-0-0-0--0-0--0-0--0--0--|-0--2----------------------
|--5--5--5--5--5--5--|--4-4-4-4-------4-4--4-----|-------2--2----------------
|--------------------|---------------------------|-------0--0----------------
|--------------------|---------------------------|---------------------------

|-0--2--2--0--|----------------|------------------------0-|0-----------------
|-0--2--2--0--|-5--5-5-3--3--3-|-0-0--0-0--0-0--0-0-0-0-3-|3---7--7-----------
|-0--2--2--0--|-5--5-5-4--4--4-|-0-0--0-0--0-0--0-0-0-0-4-|4---6--6-----------
|-------------|-5--5-5-5--5--5-|-4-4--4-4--4-4--4-4-4-4-5-|5---7--7-----------
|-------------|----------------|--------------------------|------------------
|---------------------------------------------------------|------------------
 
|----------------------|
|--5--7-7-7-7--7-7--7--|
|--4--6-6-6-6--6-6--6--|
|--5--7-7-7-7--7-7--7--|
|----------------------|
|----------------------|
 
|--------------------|-----------0-0-------------|---------------------------
|--5--5--5--3--------|--0-0-3-3--3-3--3-3--3--5--|-5--7--7-7-----------------
|--5--5--5--4--4--4--|--0-0-0-0--0-0--0-0--0--4--|-4--6--6-6-----------------
|--5--5--5--5--5--5--|--4-4-4-4-------4-4--4--5--|-5--7--7-7-----------------
|--------------------|---------------------------|------------5-7-7-9-9-7----
|--------------------|---------------------------|------------5-7-7-9-9-7----

Part 5:
|-------------------|-0---------------|
|-------------------|-0---------------|
|-------------------|-2---------------|  Repeat 2 more times and then
|-------------5-5---|-4---------------|
|-7-5-5-5-5-5-5-5-0-|----0-0-5-7-9-9-7|
|-7-5-5-5-5-5-5-5-0-|----0-0-5-7-9-9-7|

|---------------------|
|---------------------|
|---------------------|
|---------------------|
|-7-5-5-5-5-5-5-5-5-7-|
|-7-5-5-5-5-5-5-5-5-7-|

Part 6:
                  
|----------0-|-0--5-5-5-5-5-5-5-0-|-0-0-0-0-0-0-0-0-0-0|-0-------------------
|-----9-9--7-|-7--7-7-7-7-7-7-7-7-|-7-7-7-7-7-7-7-7-7-0|-0-------------------
|-----9-9--6-|-6--6-6-6-6-6-6-6-7-|-7-7-7-7-7-7-7-7-7-0|-0--0--0--0----------
|-----7-7--7-|-7--7-7-7-7-7-7-7-5-|-5-5-5-5-5-5-5-5-5-2|-2-------------------
|-7----------|------------------5-|-5-5-5-5-5-5-5-5-5-3|-3-------------------
|-7----------|------------------5-|-5-5-5-5-5-5-5-5-5--|---------------------

|-4-0-0-0-0-0-0-0--|-0--0--0--0--0--9--7-|-7-7-7-7-7-7-7-0-------------------
|-5-5-5-5-5-5-5-10-|-10-10-10-10-10-10-7-|-7-7-7-7-7-7-7-0-------------------
|-6-6-6-6-6-6-6-11-|-11-11-11-11-11-11-7-|-7-7-7-7-7-7-7-0-------------------
|-6-6-6-6-6-6-6-12-|-12-12-12-12-12-12-5-|-5-5-5-5-5-5-5---------------------
|------------------|-------------------5-|-5-5-5-5-5-5-5---------------------
|------------------|-------------------5---5-5-5-5-5-5-5---------------------

Intro:
[ Guitar : Part 1 ]
[ Guitar : Part 2 ]
[ Guitar : Part 3 ]

Verse:
[ Guitar : Part 1 ]

Think as it was, then again it will be.

Though the course may change sometimes, rivers always reach the sea.

[ Guitar : Part 2  (no vocals) ]

[ Guitar : Part 3 (vocals start in second measure) ]

Blind spies of fortune, each has several ways

on the wings of maybe, downing birds of prey.

Kind of makes me feel sometime I didn't have to grow.

For as a eagle leaves a nest, I got so far to go.


[ Guitar : Part 1 ]

Changes fill my time, baby thats all right with me,

in the midst I think of you and how it used to be.

[ Guitar : Part 2 ]

[ Guitar : Part 4 ] played behind solo 1, leads into Part 5 with vocals

[ Guitar : Part 5 ]  

Did you ever really need somebody and really need'em bad

Did You ever really want somebody the best stuff you ever had

Will you ever remember me baby, did it feel so good

Cause it was just the first time and you knew you would

[ Guitar : Part 6] played behind solo 2.

[ Guitar : Part 3]

Do the eyes not sparkle, senses go again

tasting love along the way, see a feather spring

Gonna make you a meal sometime, it'll help you know

We are eagles all one loves, the message in our soul

[ Guitar : Part 1 ]

Fixin in my dreams with great surprise to me

I never thought I'd see your face, the way it used to be

[ Guitar : Part 2 ]

Oh darling, Oh darlin.

[ Guitar : Part 3 ]  Repeat and fade etc.


Solo

|--------5-/-7---5----------2-\-0-----------------------------------------------|
|--------5-/-7---5----------2-\-0-----------------------------------------------|
|----------------------------------------------9(11)-9(11)-----9(11)--9--7------|
|-------------------------------------------------------------------------------|
|-------------------------------------------------------------------------------|
|-------------------------------------------------------------------------------|

|-----------------------------------------------|
|-----------------------------------------------|
|------------9(11)--9--7------7~9--7------------|
|-------9--------------------------------9------|
|------------10---------------------------------|
|-----------------------------------------------|

|---7---7~8~7-------------------------7~10~7---5~7~5-------7~10~7---5~7~5-------|
|---7---7~8~7-------------------------7~10~7---5~7~5-------7~10~7---5~7~5-------|
|------------------------------------------------------------------6------------|
|----------------------7-----7--5--4--------------------------------------------|
|-------------------------------------------------------------------------------|
|-------------------------------------------------------------------------------|
                   
|-7~10~7--5-------------5--------------------------------|
|-7~10~7--5----5-/-7-------------------------------------|
|-----------6-------------------------------6------------|
|--------------------------------------------------------|
|--------------------------------------------------------|
|--------------------------------------------------------|
                              
|-----------7-------------------------------------------------------------------|
|--7-/-8--------/-12-----------------15--17(19)--17(19)--17(19)-17-15---17------|
|---------------------------------/-16------------------------------------------|
|-------------------------------------------------------------------------------|
|-------------------------------------------------------------------------------|
|-------------------------------------------------------------------------------|
 
|------------------------------------------14-15-17-|
|--15--17(19)---------------------------------------|
|------------------16-------------------------------|
|---------------------------------------------------|
|---------------------------------------------------|
|---------------------------------------------------|
                               
|--17(19)(17)----------------------17(19)(17)-15--17--15--17~15-----------------|
|-----------------------15--17(19)----------------------------------------------|
|-------------------------------------------------------------------------------|
|-------------------------------------------------------------------------------|
|-------------------------------------------------------------------------------|
|-------------------------------------------------------------------------------|

|------------------------------------------------------|
|----------15--17--15--17(19)(17)~15-------------------|
|--------16--------------------------------------------|
|------------------------------------------------------|
|------------------------------------------------------|
|------------------------------------------------------|

|---17--17---------------------------8-/-10-\-8----7~10~7--5------7~10~7--©©©©©©|
|--17----------------17(19)(17)-15---8-/-10-\-8----7~10~7--5------7~10~7-©©©©©©-|
|-------------------------------------------------------------------------------|
|-------------------------------------------------------------------------------|
|-------------------------------------------------------------------------------|
|-------------------------------------------------------------------------------|
    
|-5~7~5------7~10~7--5~7~5-------------------------------------|
|-5~7~5------7~10~7--5~7~5-------------------------------------|
|---------6-----------------------6--------------------------6-|
|--------------------------------------------------------------|
|--------------------------------------------------------------|
|--------------------------------------------------------------|

|1--7~10~7--5~7~5-----5--5-5-5-----------------------------------------------15-1-----|
|--7~10~7--5~7~5-----7--7-7-7---/12------------------15-17-17(19)--------------------|
|--------------------7--7-7-7--------------------/16--------------------©©©©©©©©-----|
|------------5-----------------------------------------------------------------------
|------------------------------------------------------------------------------------|

|-1516-17-17(19)-------17----------------1|
|-------------15-------17(19)(17)---------|
|-----------------------------------------|
|-----------------------------------------|
|-----------------------------------------|
|-----------------------------------------|

|----------17-------------------------------------------------------------------|
|--15----------17(19)(17)-15--17(19)(17)---15-----------------------------------|
|-------------------------------------------------------------------------------|
|-------------------------------------------------------------------------------|
|-------------------------------------------------------------------------------|
|-------------------------------------------------------------------------------|





Achilles Last Stand Tab

[Intro] - Let bottom note ring throughout, and open G (when it is played)

   Em9                         F#m(add b6)
|-------------2p0----------|--------------2p0--------------------|
|----------3------3p0------|-----------3-------3p0---------------|
|-0------0-------------0---|--0------2--------------0------------|
|------4-------------------|-------4-----------------------------|
|----2---------------------|-----4-------------------------------|
|-0------------------------|--2----------------------------------|

[Intro2]
    F#m7(add 4)
|----------------0--------------------------------------------------|
|------------0--(0)-------------------------------------------------|
|--0------2---------------------------------------------------------|
|-------4-----------------------------------------------------------|
|-------------------------------------------------------------------|
|--2----------------------------------------------------------------|

[Riff 1]
    F#m       Em                                 D6/E
|----9.-------7----7~-----------------------------7~----------------|
|---10.-------8----8~-----------------------------7~----------------|
|---11.-------9----9~-----------------------------7~----------------|
|------------------------7-7--7-7-8-9--7-7--------7~----------------|
|------------------------------------------7-7----------------------|
|----------------------------------------------0--------------------|

[Riff 2a]
                              D/E
|---------9------7~----------------5~-------------------------------|
|--------10------8~-----------7----7~-------------------------------|
|--------11------9~-----------7----7~-------------------------------|
|-----------------------------7-------------------------------------|
|-------------------------------------------------------------------|
|---0~--------------------0~----------------------------------------|

[Riff 2b]
                                   D/E
|---------9------7~----------------7~-------------------------------|
|--------10------8~-----------7----7~-------------------------------|
|--------11------9~-----------7----7~-------------------------------|
|-----------------------------7-------------------------------------|
|-------------------------------------------------------------------|
|---0~--------------------0~----------------------------------------|

[Riff 3]
    E                                       F5
|---------------------------------------|---------|-----------------|
|--9---7--8--9--------------------------|---------|-----------------|
|--9---7--8--9---7-8-9-9--7-8-9--7-9----|--10~----|--10~~\----------|
|--9---7--8--9---7-8-9-9--7-8-9--7-9----|--10~----|--10~~\----------|
|---------------------------------------|---------|-----------------|
|---------------------------------------|---------|-----------------|

[Ascending octave progression 1]
   Em
|-------------------------------------------------------------------|
|-------------------------------------------------------------------|
|-------------------------------------------------------------------|
|--4s5----5s7---7s9-----10-----10s12--------------------------------|
|------7------9-----10------12--------14----------------------------|
|-------------------------------------------------------------------|

[Ascending octave progression 2]
   C(add9 #11)
|-------------------------------------------------------------------|
|-------------------------------------------------------------------|
|--7s9-----11----12-----12s14-----14s16-----------------------------|
|------10-----12----14---------16--------17s12----------------------|
|-------------------------------------------------------------------|
|-------------------------------------------------------------------|

[Ascending octave progression 3]
   Em
|-------------------------------------------------------------------|
|-------------------------------------------------------------------|
|-2s4----5----5s7---7s9-----9s11------------------------------------|
|-----5----7------9-----10-------12s9-------------------------------|
|-------------------------------------------------------------------|
|-------------------------------------------------------------------|

[Ascending octave progression 4]
    C(add9 #11)                             F#m/E     Em
|-------------------------------------------------------------------|
|--7s8----10----10s12------13------15--------17s19---17--17~~~------|
|------9-----11---------12------14-----16---------------------------|
|-------------------------------------------------------------------|
|-------------------------------------------------------------------|
|-------------------------------------------------------------------|

[Riff 4a] - the notes in ()'s can be played, if you are skilled enough

|---(9.)---(7)-(7~)----'12--9---------------------------------------|
|--(10.)---(8)-(8~)---'10-----10--10b12--10--8~---------------------|
|--(11.)---(9)-(9~)---11--------------------------------------------|
|-------------------------------------------------------------------|
|-------------------------------------------------------------------|
|-------------------------------------------------------------------|
                       rake

[Riff 4b] - the notes in ()'s can be played, if you are skilled enough

|--------------------(7~)----'10---7--------------------------------|
|--------------------(7~)---'7-------8--8s10--7---------------------|
|--------------------(7~)---7--------------------7~-----------------|
|--(7)-(7)-----------(7~)-------------------------------------------|
|----------(7)-(7)--------------------------------------------------|
|-----------------(0)-----------------------------------------------|
                             rake

[Riff 4c]
|---(9.)---(7)-(7~)----'12--9-----9b10---9--7~----------------------|
|--(10.)---(8)-(8~)---'10-----10------------------------------------|
|--(11.)---(9)-(9~)---11--------------------------------------------|
|-------------------------------------------------------------------|
|-------------------------------------------------------------------|
|-------------------------------------------------------------------|
                       rake

[Riff 4d]
|---------------------(7~)----'10--7----7s9--------|----------------|
|---------------------(7~)---'7------8------10-----|----------------|
|---------------------(7~)---7-----------------11--|--9b11r9---9~---|
|--(7)-(7)------------(7~)-------------------------|----------------|
|----------(7)-(7)---------------------------------|----------------|
|-----------------(0)------------------------------|----------------|
                              rake

[Riff 5a]
|-------------------------------------------------------------------|
|---------8--------7--5---7b8---------------------------------------|
|--11-------9--------------------7b9r7------------------------------|
|----11-------9-9------------------------9--------------------------|
|-------------------------------------------------------------------|
|-------------------------------------------------------------------|

[Riff 5b]
|-------------------------------------------------------------------|
|--8-8--------7-----------------------------------------------------|
|------9-9-------7------9--7----9b11--7b9---------------------------|
|----------9-------7-7-----------------------7----------------------|
|-------------------------------------------------------------------|
|-------------------------------------------------------------------|

[Riff 5c]
|-9---9--------7----------------------------------------------------|
|-------10---------8-------10------10b12----8b10r8------------------|
|----------11--------9-9-------9----------------------9-------------|
|-------------------------------------------------------------------|
|-------------------------------------------------------------------|
|-------------------------------------------------------------------|

[Riff 5d]
|--7-7--------5-5---------------------------------------------------|
|------8-8--------7-------8--7--8b10---8b10-------------------------|
|----------9--------7-7------------------------11-------------------|
|-------------------------------------------------------------------|
|-------------------------------------------------------------------|
|-------------------------------------------------------------------|

[Riff 6a]                     [Riff 6b]
|-------------------------|-----------------------|-----------------|
|--8-8--------8b10r8------|--7-7--------7b8r7-----|-----------------|
|------9-9----------------|------7-7--------------|---9b11---9--9---|
|----------9--------------|----------7------------|-----------------|
|-------------------------|-----------------------|-----------------|
|-------------------------|-----------------------|-----------------|

[Riff 7a]
    Em
|-------0------0------0-----0---------------------------------------|
|-----0------0------0-----0-----------------------------------------|
|--------------------------------0----------------------------------|
|--2------4------5------7------5----4p2-----------------------------|
|-------------------------------------------------------------------|
|-------------------------------------------------------------------|

[Riff 7b]
    C(add9 #11)
|----------2p0-------2p0--------------------------------------------|
|-------3------3----------3-----------------------------------------|
|-----0----------------------0--0-----------------------------------|
|-------------------------------------------------------------------|
|--3--------------3-------------------------------------------------|
|-------------------------------------------------------------------|

[Riff 7c]                          [Riff 7d]
    C(add9 #11)
|---------------0------2p0-----0-|----------2p0---------------0-----|
|-------3----------3--------3----|--------3-----3---------------3---|
|-----0---0--0-------------------|------0-------------------0-----0-|
|--------------------------------|----2-------------4--2--4---------|
|--3-----------------------------|--3-------------------------------|
|--------------------------------|----------------------------------|

[Riff 8]
   Em                                      D
|-7-7-7-7--7-7-7-7--7-7-7-7--7-7-7-7---7----------------------------|
|-8-8-8-7--8-8-8-7--8-8-8-7--8-8-8-7---8--7-------------------------|
|-9-9-9-9--9-9-9-9--9-9-9-9--9-9-9-9---9--7-------------------------|
|-----------------------------------------7-------------------------|
|-------------------------------------------------------------------|
|-------------------------------------------------------------------|
   C
|-8-8-8-7--8-8-8-7--8-8-8-7--8-8-8-7---8----------------------------|
|-8-8-8-7--8-8-8-7--8-8-8-7--8-8-8-7---8--7-------------------------|
|-9-9-9-7--9-9-9-7--9-9-9-7--9-9-9-7---9--7-------------------------|
|-----------------------------------------7-------------------------|
|-------------------------------------------------------------------|
|-------------------------------------------------------------------|

[Riff 9]
|-------------------------------------------------------------------|
|--5s7--5--5~~----7s8--7--5---3---5---------------------------------|
|------------------------------------5~~~---------------------------|
|-------------------------------------------------------------------|
|-------------------------------------------------------------------|
|-------------------------------------------------------------------|

[Riff 10]
              Repeat 4x
|---------|--9s12--12~--|---12ss15~~--------------------------------|
|---------|-10s12--12~--|---12ss17~~--------------------------------|
|-5sssss9-|-------------|-------------------------------------------|
|---------|-------------|-------------------------------------------|
|---------|-------------|-------------------------------------------|
|---------|-------------|-------------------------------------------|

[Riff 11a]                      [Riff 11b]
    E                           E
|----------------------------|--------------------------------------|
|--------------8~---7--8--x--|------------7-------------------------|
|--------------9~---7--9--x--|------------7-------------------------|
|--------7-9-----------------|-------7-9--7---9-9-7-7---------------|
|--7-9-9---------------------|-7-9-9------------------9-------------|
|----------------------------|--------------------------------------|

[Riff 12]
    Em                                C(add9 #11)
|--0-(0)~-----------------------------0-(0)~--------------0---------|
|--0-(0)~-----------------------------3-(3)~-----------------3--3p0-|
|--0--0-------------------------------0-(0)~------0--(0)------------|
|--2-(2)----4~---5~---7~--5~---4p2----x-------2~--------------------|
|--2-(2)------------------------------3-(3)~----------3-------------|
|--0-(0)~-----------------------------------------------------------|

[Riff 13] - the section where the guitars are randomly brought to the
                foreground - cleaned up a bit
|-------------------------------------------------------------------|
|-13--12---15b17~~------------------------------------12--13--12----|
|-----------------------12b14r12~~~-----14b16r14~-------------------|
|-------------------------------------------------------------------|
|-------------------------------------------------------------------|
|-------------------------------------------------------------------|

|-------------15b17----15-------------------------------------------|
|-15b17~-------------------15b17~--------12b13----12----------------|
|-----------------------------------------------------14--12--------|
|-------------------------------------------------------------------|
|-------------------------------------------------------------------|
|-------------------------------------------------------------------|

|-----------------------------------15b17~------15--12------12------|
|------------12--13b15----13.--12-----------------------15------15--|
|--14b16~-----------------------------------------------------------|
|-------------------------------------------------------------------|
|-------------------------------------------------------------------|
|-------------------------------------------------------------------|

|-----------------------------------------------15b17r15----12--12~-|
|-12--15~----12b15r12~~----10---------------------------------------|
|-----------------------------12----12-14-12~~----------------------|
|--------------------------------14---------------------------------|
|-------------------------------------------------------------------|
|-------------------------------------------------------------------|

Song progression:

 Fade into [Intro] x3

 [Intro] x1, replace last half with [Intro2]

 [Riff 1] x4

 [Riff 2a] x2 /w lyrics:

        It was an April morning when the told us we should go,
        And as I turned to you, you smiled at me, how could we say no?

 [Riff 2b] x2 /w lyrics:

        Woah the fun to have to live the dreams we always had.
        Woah the songs to sing when we at last return again.

 [Riff 1] x2

 [Riff 2b] x1 /w lyrics:

        Swept New York a glancing kiss to those who claim they know,

 [Riff 2a] x2 /w lyrics:

        Below the streets that steam and hiss, the devil's in his hold.
        Oh to sail away to sandy lands and holidays.

 [Riff 2b] x1 /w lyrics:

        Oh to touch the dream, hides inside and's never seen yeah.

 [Riff 3] x2, second time do 10th fret slide down

 [Ascending octave progression 1] x1
 [Ascending octave progression 2] x1
 [Ascending octave progression 3] x1
 [Ascending octave progression 4] x1

        [final two notes over [Riff 1] x2]

 [Riff 2a] x1 /w lyrics:

        Into the sun the South and on, at last the birds had flown,

 [Riff 2b] x1 /w lyrics:

        As shackles of commitment fell in pieces on the ground.

 [Riff 2a] x1 /w lyrics:

        Oh to ride the wind, to tread the air above the din,

 [Riff 2b] x1 /w lyrics:

        Oh to laugh aloud, with dancing eyes we court the crowd, yeah.

 [Riff 4a] x1
 [Riff 4b] x1
 [Riff 4c] x1
 [Riff 4d] x1

        [final two notes over [Riff 2a] x1 /w lyrics]:

        To seek the man whose pointing hand, the giant step unfolds,

 [Riff 2b] x1 /w lyrics:

        To guide us from the curling path that turns our face to stone.

 [Riff 2a] x1 /w lyrics:

        And if one bell should ring in celebration for a King,

 [Riff 2b] x1 /w lyrics:

        So fast the heart should beat as proud's the head with heavy
                feet, yeah.

 [Riff 3] x4 (at the end of the first time, sing "Ooh......")

 [Guitar Solo]

|----------7---------------------------------------------------5----|
|--------------7--5--5~~----8b10r8--------------5--5~-------8-------|
|-------7-----------------------------7b9r7-----5--5~----5-(5)------|
|--7s9------------------------------------------5--5~---------------|
|-------------------------------------------------------------------|
|-------------------------------------------------------------------|

|--3h5p3----3~--------3------3h5p3-------3-----5~---------------7---|
|--------5---------------------------5------5-(5)~------------------|
|--------4--4~-----4----4------------5------5-(5)~-----------7------|
|--------------------------------------------------------7s9--------|
|-------------------------------------------------------------------|
|-------------------------------------------------------------------|

|-------------------------------------------10b12r10---------12.-14.|
|--7--5--5~----7-8-10--8h10p8--7--8--7--8----------------12.--------|
|-------------------------------------------------------------------|
|-------------------------------------------------------------------|
|-------------------------------------------------------------------|
|-------------------------------------------------------------------|

|---14b15r14p12--14b15r14p12---12--14--14b15r14p12---15b17r15-------|
|-------------------------------------------------------------------|
|-------------------------------------------------------------------|
|-------------------------------------------------------------------|
|-------------------------------------------------------------------|
|-------------------------------------------------------------------|

|-------------------------------------------------------------------|
|--13--13~~----12--13----12-----------------------------------------|
|---------------------14------12------------------12--14------------|
|---------------------------------14--14~~~----14-------------------|
|-------------------------------------------------------------------|
|-------------------------------------------------------------------|

|-------------------------------------------------------------------|
|---------------------------------------------12-13--15p13p12-13p12-|
|--14b16r14b16r14p12-------------------12--14-----------------------|
|----------------------14--14~~----14-------------------------------|
|-------------------------------------------------------------------|
|-------------------------------------------------------------------|

|----------------------------------------12-14-15.-15p14p12---------|
|----12-----12h13p12----12-----12-13-15-----------------------------|
|-14----14-----------14---------------------------------------------|
|-------------------------------------------------------------------|
|-------------------------------------------------------------------|
|-------------------------------------------------------------------|

|-14~~~~p12-----12-------12-----------------------------------------|
|------------15----15p12-13--12-----12------------------------------|
|--------------------------------14----14-12----14-----12h14p12-----|
|--------------------------------------------14----14---------------|
|-------------------------------------------------------------------|
|-------------------------------------------------------------------|

|-----------------------------------15------15------17b19-----------|
|--------------------------------15----17.-----17-------------------|
|----------12--------------14s16------------------------------------|
|--14--14-----------------------------------------------------------|
|-------------------------------------------------------------------|
|-------------------------------------------------------------------|

|-x--17.--x----12--12~~~~---15b17r15~----15p14p12h14~~---12h14p12~--|
|-------------------------------------------------------------------|
|-------------------------------------------------------------------|
|-------------------------------------------------------------------|
|-------------------------------------------------------------------|
|-------------------------------------------------------------------|

|-12h14p12---------------------------------------------------12-----|
|-----------15b17-----15-13----13--12-12-12~~~~--------12-15--------|
|---------------------------14----------------------12--------------|
|-------------------------------------------------------------------|
|-------------------------------------------------------------------|
|-------------------------------------------------------------------|

|-14--15p14p12--14~---12-14-15-17-19-20b22~~~-----20.--19.--17------|
|-------------------------------------------------------------------|
|-------------------------------------------------------------------|
|-------------------------------------------------------------------|
|-------------------------------------------------------------------|
|-------------------------------------------------------------------|

|-19~~~--x------17b18-------17--15--17--17b19~-------17b19----17----|
|------------0.-----------------------------------------------------|
|------------------------0.-----------------------0-----------------|
|-------------------------------------------------------------------|
|-------------------------------------------------------------------|
|-------------------------------------------------------------------|

|--15---17b19----17--15---14~~~~~----14h15p14p12--14~~---12--14-15--|
|-------------------------------------------------------------------|
|-------------------------------------------------------------------|
|-------------------------------------------------------------------|
|-------------------------------------------------------------------|
|-------------------------------------------------------------------|

|--17p15~~---15--15~~----12--15s14~---------------------------------|
|-----------------------------------------13s12~--------------------|
|-------------------------------------14-------------14--12.--------|
|--------------------------------------------------------------14---|
|-------------------------------------------------------------------|
|-------------------------------------------------------------------|

|-------------------------------------------------------------------|
|--------------------------------------------12---------------------|
|--12-----12~~--------12~~~~--------------12------------------------|
|-----14----------------------------12h14---------------------------|
|-------------------------------------------------------------------|
|-------------------------------------------------------------------|

[Ascending octave progression 1] x1
[Ascending octave progression 2] x1

then:

--17b19r17----15~--------------------------------------------------|
-------------------17~--15.----------------------------------------|
-----------------------------16--14---14b16r14----12---------------|
------------------------------------------------------14--12.------|
-------------------------------------------------------------------|
-------------------------------------------------------------------|

-------------------------------------------------------------------|
--------------17b19----17--17~~~-----------------------------------|
-------------------------------------------------------------------|
--9----12----------------------------------------------------------|
----10-------------------------------------------------------------|
-------------------------------------------------------------------|

 (last part of solo:  17b19    17  17~~~ over lyrics):
                                  [last half of Riff 2a]
        Days fly by and you and I bathed in eternal summer's glow
 [Riff 2a] x2 /w lyrics:
        As far away and distant, our mutual child did grow.
        Woah the sweet refrain soothes the soul and calms the pain,
 [Riff 2b] x2 /w lyrics:
        Oh Albion remain sleeping now to rise again.
 [Riff 5a] x1
 [Riff 5b] x1
 [Riff 5c] x1
 [Riff 5d] x1
 [Riff 6a] x2 /w lyrics:
        Wondering and wanderings,
 [Riff 6b] x2 /w lyrics:
       one place to rest the search,
 [Riff 6a] x2 /w lyrics:
        Where the mighty arms of Atlas
 [Riff 6b] x2 /w lyrics:
        hold the heavens from the earth.
 [Riff 6a] x2
 [Riff 6b] x2
 [Riff 6a] x2 /w lyrics:
        Oh the mighty arms of Atlas
 [Riff 6b] x2 /w lyrics:
        hold the heavens from the earth,
 last half of [Riff 6b] x1 /w lyrics:
        from the earth......
 last half of [Riff 7a] x1 (from 7)
 [Riff 7b] x1
 [Riff 7a] x1
 [Riff 7c] x1
 [Riff 7a] x1 /w lyrics:
        I'm gonna reign, gonna reign, gonna reign,
 [Riff 7d] x1 /w lyrics:
        gonna reign,
 [Riff 7a] x1 /w lyrics:
        I'm gonna reign, gonna reign, gonna reign, gonna
 [Riff 7c] x1 /w lyrics:
       reign.
 [Riff 8] x1
 [Ascending octave progression 1] x1
 [Ascending octave progression 2] x1
 [Riff 9] x2
 [Riff 10] x1
 [Riff 11a] x2 (beginning of each one sing "Aah..." along /w guitar)
 [Riff 11b] x2
 [Riff 11a] x2
 [Riff 11b] x2
 [Riff 11a] x2
 [Riff 11b] x2
 [Riff 11a] x2
 [Riff 11b] x2
 [Riff 11a] x2
 [Riff 11b] x2
 [Riff 12] x2  (first "Aahhh..." then "Oohhh...." /w guitar)
 "Aah..." (stops before next one)
 [Ascending octave progression 1] x1
 [Ascending octave progression 2] x1
 "oh..." (stops before next one)
 [Ascending octave progression 3] x1
 [Ascending octave progression 4] x1
 [Riff 13] x1
 [last part played over [Riff 1] x1]
 [Riff 1] x1 /w lyrics:
 Where the mighty arms of Atlas hold the heavens of the earth.
 [Riff 11a] x2 (sing "Oh.." x5 with increased force and pitch)
 [Riff 11b] x2
 [Riff 11a] x2
 [Riff 11b] x2 (sing "Aah" at start of each line /w guitar)
 [Riff 11a] x2
 [Riff 11b] x2
 [Riff 11a] x2
 [Riff 11b] x2
 [Riff 1] x2 (sing "Ooohhh... first time only)
 [Intro] reversed, at least 2 times, then begin fadeout





NOBODY'S FAULT BUT MINE
As recorded by Led Zeppelin
(From the 1976 Album PRESENCE)

 Words and Music by Jimmy Page & Robert Plant

    Gtr I
|--------------------------------|-------------------------------|
|o-15p12-12-15p12-12-15-15b17----|-15p12-12-15p12-12-------------|
|--------------------------------|-------------------12-14b16----|
|--------------------------------|-------------------------------|
|o-------------------------------|-------------------------------|
|--------------------------------|-------------------------------|

   Gtr II
|--------------------------------|-------------------------------|
|o--3p=0--0--3p=0--0--3--3b5-----|--3p=0--0--3p=0--0-------------|
|--------------------------------|--------------------0--2b4-----|
|--------------------------------|-------------------------------|
|o-------------------------------|-------------------------------|
|--------------------------------|-------------------------------|

|--------------------------------------|
|-15p12-12-15-(15)--15b17r15-12--------|
|-------------------------------14p12--|
|--------------------------------------|
|--------------------------------------|
|--------------------------------------|

|--------------------------------------|
|--3p=0--0--3--(3)---3b5r==3--0--------|
|--------------------------------2p=0--|
|--------------------------------------|
|--------------------------------------|
|--------------------------------------|

|--------------------------------------------|
|------------------------------------9-(9)--o|
|-14p13-13-14p13-13-14-14b16r(14)-13-9-(9)---|
|------------------------------------9-(9)---|
|-------------------------------------------o|
|------------------------------------0-(0)---|

|-------------------------------------------o|
|--------------------------------------------|
|--2p=1--1--2p=1--1--2--2b4r==(2)--1-1-(1)---|
|------------------------------------2-(2)---|
|------------------------------------2-(2)--o|
|------------------------------------0-(0)---|

|-------------------------------|-------------------------------|
|-15p12-12-15p12-12-15-15b17----|-15p12-12-15p12-12-------------|
|-------------------------------|-------------------12-14b16----|
|-------------------------------|-------------------------------|
|-------------------------------|-------------------------------|
|-------------------------------|-------------------------------|
|
|-------------------------------|-------------------------------|
|--3p=0--0--3p=0--0--3--3b5-----|--3p=0--0--3p=0--0-------------|
|-------------------------------|--------------------0--2b4-----|
|-------------------------------|-------------------------------|
|-------------------------------|-------------------------------|
|-------------------------------|-------------------------------|

|--------------------------------------|
|-15p12-12-15-(15)--15b17r15-12--------|
|-------------------------------14p12--|
|--------------------------------------|
|--------------------------------------|
|--------------------------------------|

|--------------------------------------|
|--3p=0--0--3--(3)---3b5r==3--0--------|
|--------------------------------2p=0--|
|--------------------------------------|
|--------------------------------------|
|--------------------------------------|

|---------------------------------------------|
|--------------------------------------9-(9)--|
|-14p13-13-14p13-13-14b16r(14)-(14)p13-9-(9)--|
|--------------------------------------9-(9)--|
|---------------------------------------------|
|--------------------------------------0-(0)--|
|
|---------------------------------------------|
|---------------------------------------------|
|--2p=1--1--2p=1--1--2b4r==(2)--(2)p=1-1-(1)--|
|--------------------------------------2-(2)--|
|--------------------------------------2-(2)--|
|--------------------------------------0-(0)--|

  Gtr II
|----------------------------|-----------------------------|
|----------------------------|-----------------------------|
|-------7--------------------|-----------------------------|
|-9s7---7--------------------|-9s7-7-7----------------2----|
|-7s5-7-5s2-2----------------|-7s5-5-5--0-------------0----|
|-------------3b4==(3)r-0----|------------3b4==(3)rp0------|

|--------------------------------|
|--------------------------------|
|-7-----7---7----------9-x-x-9---|
|-7---7-7---7-7-9-(9)--9-x-x-9---|
|-5-0-0-5-0-0-5-7-(7)--7-x-x-7---|
|-------------0-0-(0)------------|

|--------------------------------------|-------------------------|
|----------------------9-9-10-10-9-10--|-------------------------|
|-7-----7-(7)--------9-9-9--9--9-9--9--|-7-----7---7---9---9-9-9-|
|-7---7-7-(7)-------11-9-9-11-11-9-11--|-7---7-7---7---9---9-9-9-|
|-5-0-0-5p=0--10-11--------------------|-5-0-0-5-0-0---7---7-7-7-|
|--------------------------------------|-------------0---0-0-----|

|----------------------------------------||--------------------------------|
|----------------------9-9-10-9-9-10-----||--------------------------------|
|-7-7---7-(7)--------9-9-9--9-9-9--9-----||-7-----7-(7)-7-------9---9-9-9--|
|-7-7-7-7-(7)-------11-9-9-11-9-9-11-----||-7---7-7-(7)-7-------9---9-9-9--|
|-5-0-0-5p=0--10-11------------------0-0-||-5-0-0-5p=0----------7---7-7-7--|
|----------------------------------------||---------------0-(0)---0-0------|

|----------------------------------------|
|---------------------9-9-10-9-10-9-10-x-|
|-7-----7-(7)-------9-9-9--9-9--9-9--9-x-|
|-7---7-7-(7)-------9-9-9-11-9-11-9-11-x-|
|-5-0-0-5p=0--10-11----------------------|
|----------------------------------------|

|--------------------------|----------------------|
|--------------------------|----------------------|
|--------------------------|----------------------|
|-----4-(4)-x-5-5-5-7-(7)--|-7-7-7-7-7-7-7-7-7-7--|
|-----4-(4)-x-5-5-5-7-(7)--|-7-7-7-7-7-7-7-7-7-7--|
|-x-x-2-(2)-x-3-3-3-5-(5)--|-5-5-5-5-5-5-5-5-5-5--|

|---------|----------------------------|----------------------------|
|---------|----------------------------|----------------------------|
|---------|----------------------------|-----------------------2----|
|---------|-2p0-0----------------------|-2p0-0-----------------2----|
|---------|-------2p0-0----------------|-------2p0-0-----------0----|
|---------|-------------3b4==(3)r-0----|-------------3b4==(3)r------|

|----------------------------------|-------------------------------------|
|----------------------------------|---------------------9-10-10-9-10-9--|
|-7-----7-(7)-----------9-x-x-9--9-|-7-7---7-(7)-------9-9--9--9-9--9-9--|
|-7---7-7-(7)---7-9-(9)-9-x-x-9--9-|-7-7-7-7-(7)-------9-9-11-11-9-11-9--|
|-5-0-0-5p=0--0-7-7-(7)-7-x-x-7--7-|-5p0-0-5p=0--10-11-------------------|
|---------------0-0-(0)------------|-------------------------------------|

|-------------------------------|-----------------------|
|-------------------------------|-----------------------|
|-7-----7-(7)-x-------9---9-9-9-|-7-----7-(7)---7-9-----|
|-7---7-7-(7)-x-------9---9-9-9-|-7-----7-(7)-7-7-9-----|
|-5-0-0-5p=0----------7-7-7-7-7-|-5-----5p=0--0-5-7-----|
|---------------0-(0)-----------|---5-5-----------------|

|-----------------------------------|
|-----------------------------------|
|-7-----7-(7)-7---------9-------9-x-|
|-7---7-7-(7)-7-7-9-(9)-9-------9-x-|
|-5-0-0-5p=0--0-5-7-(7)-7-0-(0)-7-x-|
|---------------0-0-(0)-------------|

|--------------------------------------|---------------------|
|---------------------9-9-10-10-9-10---|---------------------|
|-7-----7-(7)-------9-9-9--9--9-9--9-x-|---------------------|
|-7---7-7-(7)-------9-9-9-11-11-9-11-x-|-2-4-(4)--5-7-(7)-7--|
|-5p0-0-5p=0--10-11--------------------|-2-4-(4)--5-7-(7)-7--|
|--------------------------------------|-0-2-(2)--3-5-(5)-5--|

|--------------------------|---------||------------------------------|
|--------------------------|---------||------------------------------|
|--------------------------|---------||-9s7-7------------------------|
|-7-7-7-7-7-7-7-7-7-7-7-7--|---------||-9S7-7-7-(7)------------------|
|-7-7-7-7-7-7-7-7-7-7-7-7--|---------||-7s5-5-7-(7)------------------|
|-5-5-5-5-5-5-5-5-5-5-5-5--|---------||-------5p=0--0-3b4==(3)r-0----|

  Gtr I
|----------------------------||--------------------------------|
|----------------------------||o-15p12-12-15p12-12-15-15b17----|
|----------------------------||--------------------------------|
|----------------------------||--------------------------------|
|----------------------------||o-------------------------------|
|----------------------------||--------------------------------|

 Gtr II
|----------------------------||--------------------------------|
|----------------------------||o--3p=0--0--3p=0--0--3--3b5-----|
|-----------------------2----||--------------------------------|
|-9s7-7-7-5-------------2----||--------------------------------|
|-7s5-5-5-5-5-----------0----||o-------------------------------|
|-----------5-3b4==(3)r------||--------------------------------|

|-------------------------------|
|-15p12-12-15p12-12-------------|
|-------------------12-14b16----|
|-------------------------------|
|-------------------------------|
|-------------------------------|

|-------------------------------|
|--3p=0--0--3p=0--0-------------|
|--------------------0--2b4-----|
|-------------------------------|
|-------------------------------|
|-------------------------------|

|--------------------------------------|
|-15p12-12-15-(15)--15b17r15-12--------|
|-------------------------------14p12--|
|--------------------------------------|
|--------------------------------------|
|--------------------------------------|
|--------------------------------------|
|--3p=0--0--3--(3)---3b5r==3--0--------|
|--------------------------------2p=0--|
|--------------------------------------|
|--------------------------------------|
|--------------------------------------|

|--------------------------------------------|
|------------------------------------9-(9)--o|
|-14p13-13-14p13-13-14-14b16r(14)-13-9-(9)---|
|------------------------------------9-(9)---|
|-------------------------------------------o|
|------------------------------------0-(0)---|

|--------------------------------------------|
|-------------------------------------------o|
|--2p=1--1--2p=1--1--2--2b4r==(2)--1-1-(1)---|
|------------------------------------2-(2)---|
|------------------------------------2-(2)--o|
|------------------------------------0-(0)---|

  Gtr II
|------------------------------|------------------------------|
|------------------------------|------------------------------|
|-9s7-7-7-(7)------------------|------------------------------|
|-9s7-7-7-(7)-------------2----|-9s7-7-7-(7)-------------2----|
|-7s5-5-5-(5)-0-----------2----|-7s5-5-5-(5)-0-----------0----|
|---------------3b4==(3)r-0----|---------------3b4==(3)r------|

|------------------------------|---------------------------------|
|------------------------------|----------------------------3-3--|
|-9s7-7-7-(7)------------------|----------------------------2-2--|
|-9s7-7-7-(7)-------------2----|-9s7-7-7-(7)-------------2--0-0--|
|-7s5-5-5-(5)-0-----------2----|-7s5-5-5-(5)-0-----------0-------|
|---------------3b4==(3)r-0----|---------------3b4==(3)r---------|

|-------------------------------------|
|--------------------------9-10-------|
|-7-----7-(7)-7-9-(9)-9--9-9--9-9-9---|
|-7---7-7-(7)-7-9-(9)-9-11-9-11-9-9---|
|-5-0-0-5p=0--5-7-(7)-----------------|
|-------------------------------------|

|-------------------------------------|-------------------------------------|
|---------------------9-9-9-10-9------|-------------------9-9-10-9-9-10p9-9-|
|-7-----7-(7)---x-x-x-9-9-9--9-9--9-9-|-7-----7-(7)-------9-9--9-9-9--9-9-9-|
|-7---7-7-(7)---x-x-x-9-9-9--9-9-11-9-|-7---7-7-(7)-------9-9-11-9-9-11p9-9-|
|-5-0-0-5p=0--0-----------------------|-5-0-0-5p=0--10-11-------------------|
|-------------------------------------|-------------------------------------|

|------------------------------|-------------------------------|
|-----------------------9------|-------------------------------|
|-7-----7-(7)-----------9--9-9-|-7-7---7-(7)---9-----9-9-9-9-9-|
|-7---7-7-(7)-7-x-x-(x)-9--9-9-|-7-7-7-7-(7)---9-----9-9-9-9-9-|
|-5-0-0-5p=0--0-x-x-(x)-7--7-7-|-5-0-0-5p=0--0-7---7-7-7-7-7-7-|
|------------------------------|-----------------0-------------|

|-------------------------------------|----------------------------|
|-------------------9-9-10-9-9-10p9-9-|----------------------------|
|-7-----7-(7)-------9-9--9-9-9--9-9-9-|-7-----7-(7)------9-9-9-9-9-|
|-7---7-7-(7)-------9-9-11-9-9-11p9-9-|-7---7-7-(7)---x--9-9-9-9-9-|
|-5-0-0-5p=0--10-11-------------------|-5-0-0-5p=0----x--7-7-7-7-7-|
|-------------------------------------|-------------0-0------------|

|---------------------------------------|-------------------------------------|
|---------------------9-10-10-9-10-10-9-|-------------------------------------|
|-7-----7-(7)-------9-9--9--9-9--9--9-9-|-7-----7-(7)---x-9-(9)-9-9-9-(9)-9-9-|
|-7---7-7-(7)-------9-9-11-11-9-11-11-9-|-7---7-7-(7)-7-x-9-(9)-9-9-9-(9)-9-9-|
|-5-0-0-5p=0--10-11---------------------|-5-0-0-5p=0--0-x-7-(7)-7-7-7-(7)-7-7-|
|---------------------------------------|-------------------------------------|


|-----------------------------------|-----------------------------------|
|-----------------------------------|-----------------------------------|
|-7-----7-(7)-----------------------|-7-----7-(7)-----------------------|
|-7---7-7-(7)-----9---9-9-9-(9)-9-9-|-7---7-7-(7)-----9---9-9-9-(9)-9-9-|
|-5-0-0-5p=0------7---7-7-7-(7)-7-7-|-5-0-0-5p=0------7---7-7-7-(7)-7-7-|
|-------------0-0-0-0-0-0-0-(0)-0-0-|-------------0-0-0-0-0-0-0-(0)-0-0-|

|----------------------------|-------------------------------------|
|----------------------------|-------------------------------------|
|-7-----7-(7)------9-9-9-9-9-|-7-----7-(7)-----9-(9)-9-9-9-(9)-9-9-|
|-7---7-7-(7)---x--9-9-9-9-9-|-7---7-7-(7)-----9-(9)-9-9-9-(9)-9-9-|
|-5-0-0-5p=0----x--7-7-7-7-7-|-5-0-0-5p=0------7-(7)-7-7-7-(7)-7-7-|
|-------------0-0------------|-------------0-0---------------------|

|-----------------------------------------|-----------------------------------|
|----------------------9-9-10-10-9-10-x-x-|-----------------------------------|
|-7-----7-(7)--------9-9-9--9--9-9--9-x-x-|-7-----7-(7)-----------------------|
|-7---7-7-(7)-------11-9-9-11-11-9-11-x-x-|-7---7-7-(7)-----9---9-9-9-(9)-9-9-|
|-5-0-0-5p=0--10-11-----------------------|-5-0-0-5p=0------7---7-7-7-(7)-7-7-|
|-----------------------------------------|-------------0-0-0-0-0-0-0-(0)-0-0-|

|---------------------------|--------------------------------|
|---------------------------|-10-10-9-9-7-7----------------x-|
|-7-----7-(7)-7-----9---9---|-11-11-9-9-6-6-9-9---11-x-9---x-|
|-7---7-7-(7)-7-----9---9---|-11-11-9-9-----9-9---11-x-9---x-|
|-5-0-0-5p=0--5-----7---7-0-|----------------------9-x-7-----|
|---------------0-0---0-----|-------------------0--------5---|

|----------------------------------|-----------------------------|
|-10-10-9-9----------------------x-|-10-10-9-9-------------------|
|-11-11-9-9-11-11-9-9---11-x-9---x-|-11-11-9-9-11-11-9----11--9--|
|-11-11-9-9-11-11-9-9---11-x-9---x-|-11-11-9-9-11-11-9-0--11--9--|
|------------------------9-x-7-----|-----------------------9--7--|
|---------------------0--------5---|-----------------------------|

|--------------------------------|
|--------------------------------|
|-7-----7-(7)-7---------9-x-x-9--|
|-7---7-7-(7)-7-7-9-(9)-9-x-x-9--|
|-5-0-0-5p=0--0-5-7-(7)-7-x-x-7--|
|---------------0-0-(0)----------|

|----------------------------------|---------------------|
|------------------9-9-10-9-9-10---|---------------------|
|-7-----7--------9-9-9--9-9-9--9---|---------------------|
|-7---7-7--------9-9-9-11-9-9-11---|-2-4-(4)--5-7-(7)-7--|
|-5-0-0-5--10h11-----------------0-|-2-4-(4)--5-7-(7)-7--|
|----------------------------------|-0-2-(2)--3-5-(5)-5--|

|----------------------------|---------|----------------------------|
|----------------------------|---------|----------------------------|
|----------------------------|---------|----------------------------|
|-7-7-7-7-7-7-7-7-7-7-7-7-7--|---------|-2p0-0----------------------|
|-7-7-7-7-7-7-7-7-7-7-7-7-7--|---------|-------2p0-0----------------|
|-5-5-5-5-5-5-5-5-5-5-5-5-5--|---------|-------------3b4==(3)r-0----|

|----------------------------|-----------------------------------|
|----------------------------|-----------------------------------|
|-----------------------2----|-7-----7-(7)-7---9-(9)-x-9---x-9-x-|
|-2p0-0-----------------2----|-7---7-7-(7)-7---9-(9)-x-9---x-9-x-|
|-------2p0-0-----------0----|-5-0-0-5p=0--5-5-7-(7)-x-7-x-x-7-x-|
|-------------3b4==(3)r------|-----------------------------------|

|-------------------------------------|----------------------------------|
|------------------------------10-----|----------------------------------|
|-7-----7--------9-9-9--9--9-9--9-x-x-|-7-----7-(7)-------9-----9-----9S=|
|-7---7-7--------9-9-9-11-11-9-11-x-x-|-7---7-7-(7)-------9-----9-----9S=|
|-5-0-0-5--10-11----------------------|-5-0-0-5p=0--------7-----7-----7S=|
|-------------------------------------|-------------0-0-0---0-0---0-0----|


|---------------------|----------------------------------|
|---------------------|----------------------------------|
|-7-----7-----7-9-----|-7-----7-(7)-----------9-x-x-9--x-|
|-7-----7---7-7-9-----|-7---7-7-(7)---7-9-(9)-9-x-x-9--x-|
|-5-0-0-5-0-0-5-7-----|-5-0-0-5p=0----7-7-(7)-7-x-x-7--x-|
|---------------------|-------------5-0-0-(0)------------|

|-------------------------------------|---------------------------|
|---------------------9-10-10-9-10-9--|---------------------------|
|-7-----7-(7)-------9-9--9--9-9--9-9--|---------------------------|
|-7---7-7-(7)-------9-9-11-11-9-11-9--|-2-4-(4)-----5-7-(7)-7-7-7-|
|-5-0-0-5p=0--10-11-------------------|-2-4-(4)-4-5-5-7-(7)-7-7-7-|
|-------------------------------------|-0-2-(2)-2-3-3-5-(5)-5-5-5-|

                                         Guitar Solo
  Gtr I
|----------------------------|---------||-------------------------------|
|----------------------------|---------||-----------------------------3-|
|----------------------------|---------||-------------------2b4r(2)-----|
|----------------------------|---------||-------------------------------|
|----------------------------|---------||-------------------------------|
|----------------------------|---------||-------------------------------|

Gtr II
|----------------------------|---------||-------------------------------|
|----------------------------|---------||-------------------------------|
|----------------------------|---------||-------------------------------|
|-7-7-7-7-7-7-7-7-7-7-7-7-7--|---------||-9p7-7-7-----------------------|
|-7-7-7-7-7-7-7-7-7-7-7-7-7--|---------||-7-7-7-5p0-0-------------------|
|-5-5-5-5-5-5-5-5-5-5-5-5-5--|---------||-------------3b4==(3)r--0------|

|----------------------------------------------|
|-(3)------------------------------------------|
|------2b3==(2)r(2)b3r(2)p0---------0---(0)----|
|-----------------------------2----------------|
|----------------------------------------------|
|----------------------------------------------|
|
|----------------------------------------------|
|----------------------------------------------|
|----------------------------------------------|
|--9p7-7---------7-----------------------2-----|
|--7-7-7---------5p=======0-0------------0-----|
|-----------------------------3b4==(3)r--------|

|----------------------------------|------3---------3---------5b6--5-3-(3)-5-3-----|
|----------------------------------|----3---5-(5)---------5--------------------5---|
|-0---------------------(0)--------|-/4--------------------------------------------|
|---------------------------2-(2)--|-----------------------------------------------|
|----------------------------------|-----------------------------------------------|
|----------------------------------|-----------------------------------------------|

|----------------------------------|-----------------------------------------------|
|----------------------------------|-----------------------------------------------|
|----------------------------------|-----------------------------------------------|
|-9p7-7-7--------------------------|--9p7-7-7-----------------2--------------------|
|-7-7-7-5p0-0----------------------|--7-7-7-5p=0--0-----------0--------------------|
|-------------3b4==(3)r--0---------|----------------3b4==(3)r----------------------|

|-------3--------------------------------------------|
|-(5)------------------------------------------------|
|------------------------------9---(9)---11b13==(11)-|
|-------------------------9h11-----------------------|
|-------------------7s11-----------------------------|
|----------------------------------------------------|

|----------------------------------------------------|
|----------------------------------------------------|
|--7------7-(7)----------------9-x--x--9----------9--|
|--7----7-7-(7)---7-9-(9)------9-x--x--9----------9--|
|--5--0-0-5p=0----7-7-(7)------7-x--x--7----------7--|
|---------------5-0-0-(0)----------------------------|

|------------------------------------------12-------|
|---------------------------------------------14-12-|
|-(11)r(11)---9-11---9----9-(9)---------------------|
|----------------------11-------11------------------|
|---------------------------------------------------|
|---------------------------------------------------|

|---------------------------------------------------|
|----------------------------9--10-10-9-10--9-------|
|---7---------7-(7)-------9--9---9--9-9--9--9-------|
|---7-------7-7-(7)-------9--9--11-11-9-11--9-------|
|---5----0--0-5p=0--10-11---------------------------|
|---------------------------------------------------|

|-----------------------------------------------------------|
|-14-12-----------------12--14-12-14-12---(12)--------------|
|-------13-11b13==(11)r------------------------13-11-11b13==|
|-----------------------------------------------------------|
|-----------------------------------------------------------|
|-----------------------------------------------------------|

|-----------------------------------------------------------|
|-----------------------------------------------------------|
|--7--------7------(7)-------------9--x-x---9---9--9--------|
|--7-----7--7------(7)-------------9--x-x---9---9--9--------|
|--5--0--0--5p======0--------------7--x-x---7---7--7--------|
|------------------------0----------------------------------|

|---------------------------------------------------------------|
|-----------------------------------------12pb14r(12)b14==(12)--|
|-(11)r-11-9-----9---9----9-(9)-9-------------------------------|
|------------11--------11---------11----------------------------|
|---------------------------------------------------------------|
|---------------------------------------------------------------|

|---------------------------------------------------------------|
|----------------------------9--9-10-9-10--9------10--------x---|
|---7---------7-(7)-------x--9--9--9-9--9--9-------9--------x---|
|---7------7--7-(7)-------x--9--9-11-9-11--9------11--------x---|
|---5----0-0--5p=0--10-11---------------------------------------|
|---------------------------------------------------------------|

|-----------------------------------------------------|
|-(12)r---12---11b12-10-------10----------------------|
|-----------------------12b14----12--11-9---(9)-9-----|
|-------------------------------------------------11--|
|-----------------------------------------------------|
|-----------------------------------------------------|

|-----------------------------------------------------|
|-----------------------------------------------------|
|---7--------7-(7)-------7-----9-(9)--9---x--9-----9--|
|---7------7-7-(7)----7--7-----9-(9)--9---x--9-----9--|
|---5---0--0-5p=0-----0--5-----7-(7)--7---x--7-----7--|
|-----------------------------------------------------|

|------------------------------------------------------|
|-12pb14r==(12)---12---9----9-(9)-x-10--------11b12----|
|------------------------11----------9-----------------|
|------------------------------------------------------|
|------------------------------------------------------|
|------------------------------------------------------|

|------------------------------------------------------|
|---------------------------------9-10-9--9-9--9-------|
|--7------------7-(7)-------9-(9)-9--9-9-10-9--9-------|
|--7---------7--7-(7)-------9-(9)-9-11-9-11-9--9-------|
|--5-----0---0--5p=0--10h11-------------------------0--|
|------------------------------------------------------|

|------------------------------------------------------------------------|
|---11b12-----11b12-----11b12==(11)r---11b12==(11)r-----11b12==(11)r-----|
|-x---------x---------x--------------x---------------x---------------x-x-|
|------------------------------------------------------------------------|
|------------------------------------------------------------------------|
|------------------------------------------------------------------------|
|
|------------------------------------------------------------------------|
|------------------------------------------------------------------------|
|-7---------7-(7)--------------------------------------------------------|
|-7-------7-7-(7)--------9------(9)--9--9-------9---(9)--9-------9-------|
|-5--0----0-5p=0---------7------(7)--7--7-------7---(7)--7-------7-------|
|-------------------0-0--0------(0)--0--0-------0---(0)--0-------0-------|

|-------------------------12------------------------|
|----------------------12----15b17------------------|
|-9----9------9-11s=13------------------------------|
|---11---11-----------------------------------------|
|---------------------------------------------------|
|---------------------------------------------------|

|---------------------------------------------------|
|-----------------------------9----9-10-9-10-9-10-x-|
|-7---------7---(7)--------9--9----9--9-9--9-9--9-x-|
|-7----7----7---(7)--------9--9----9-11-9-11-9-11-x-|
|-5--0-0----5p===0--10-11---------------------------|
|---------------------------------------------------|

|-15------------15----------15------------------------|
|----15b17==========15r---------15--------------------|
|----------------------------------14b15==(14)r(14)---|
|-----------------------------------------------------|
|-----------------------------------------------------|
|-----------------------------------------------------|

|-----------------------------------------------------|
|-----------------------------------------------------|
|--7----------7-(7)-----7-9-(9)--9--x-------9-------9-|
|--7--------7-7-(7)--7--7-9-(9)--9--x-------9-------9-|
|--5--0-----0-5p=0---0--5-7-(7)--7--x-------7-------7-|
|-----------------------0-0-(0)-----------------------|

|-15------------15----------------------------------------------|
|----15b17==========15r----12----------10-----------------------|
|-----------------------------14b15-12----12b13==(12)r------12s=|
|------------------------------------------------------14-------|
|---------------------------------------------------------------|
|---------------------------------------------------------------|

|---------------------------------------------------------------|
|------------------------------9-----9-10--9------10----9-------|
|--7----------7-(7)---------9--9-----9--9--9-------9----9-------|
|--7--------7-7-(7)---------9--9-----9-11--9------11----9-------|
|--5--0-----0-5p=0--10--11--------------------------------0--0--|
|---------------------------------------------------------------|

|----12------------------------------------------------10-|
|-------15---(15)---------12-12-15-------------12---12----|
|-13----------------12s13----------------12s13------------|
|---------------------------------------------------------|
|---------------------------------------------------------|
|---------------------------------------------------------|

|---------------------------------------------------------|
|---------------------------------------------------------|
|--7-------7--(7)------------------9-x-x-----9----9-----9-|
|--7-----7-7--(7)------------------9-x-x-----9----9-----9-|
|--5--0--0-5p==0-------------------7-x-x-----7----7-----7-|
|-----------------0---------------------------------------|
|-(10)-------(10)-------------------------------|
|-----------------10b12r==(10)------------------|
|------------------------------9-9----9--9----9-|
|------------------------------------------11---|
|-----------------------------------------------|
|-----------------------------------------------|

|-----------------------------------------------|
|------------------------------------10-10--9-9-|
|---7------7--(7)--------------9-9-9--9--9--9-9-|
|---7----7-7--(7)--7-----------9-9-9--9--9--9-9-|
|---5--0-0-5p==0---0-----------7-7-7--7--7--7-7-|
|-----------------------0--(0)------------------|

|---------9----------------------------------------------------------|
|-------9---12p==9-12p=9------9-----------------------------------12-|
|-11b13--------------------11---11p==9-11p=9--------9-----9-11s13----|
|-----------------------------------------------11----11-------------|
|--------------------------------------------------------------------|
|--------------------------------------------------------------------|
|
|--------------------------------------------------------------------|
|--------------------------------------------10----10--9-10-----9--9-|
|--7-----------7---(7)------------------------9-----9--9--9-----9--9-|
|--7------7----7---(7)---7-------------------11----11--9-11-----9--9-|
|--5----0-0----5p===0----0-------------------------------------------|
|----------------------------------0---(0)---------------------------|

|-14b16========(14)r---14-12-(12)-12-10-------------12---|
|------------------------------------------------12------|
|---------------------------------------------13---------|
|--------------------------------------------------------|
|--------------------------------------------------------|
|--------------------------------------------------------|

|--------------------------------------------------------|
|--------------------------------------------------------|
|--7---------7--(7)--------9--(9)--9--9-----------9------|
|--7-------7-7--(7)--------9--(9)--9--9-9-(9)-----9------|
|--5-------0-5p==0---------7--(7)--7--7-7-(7)-----7--0---|
|--------5-0---------0--0---------------0-(0)------------|

|-14b16=====(14)r---14----12-10-12--------------12-|
|--------------------------------------------12----|
|------------------------------------------x-------|
|--------------------------------------------------|
|--------------------------------------------------|
|--------------------------------------------------|

|--------------------------------------------------|
|-10-----10---9---9------------------------------x-|
|-11-----11---9---9-11-11--9--9----11--x-9-------x-|
|-11-----11---9---9-11-11--9--9----11--x-9-------x-|
|-----------------------------------9--x-7----0----|
|--------------------------------0-----------------|

|-14b16------14b16r(14)-12---12-(12)-12s9---------------|
|--------------------------x--------------12-9----------|
|-------------------------------------------------9-----|
|----------------------------------------------11---11--|
|-------------------------------------------------------|
|-------------------------------------------------------|

|-------------------------------------------------------|
|-10----10-9--9--------------------------------------x--|
|-11----11-9--9-----11--11-9--9------11----x-9-------x--|
|-11----11-9--9-----11--11-9--9------11----x-9-------x--|
|-------------------------------------9----x-7----0-----|
|---------------------------------0---------------------|

|---------------------------------|
|--------------10-----------------|
|-11----9----9-11-9-9-(9)---------|
|----11---11----------------------|
|---------------------------------|
|---------------------------------|

|---------------------------------|
|-10-10-9--9-7--7-----------------|
|-11-11-9--9-6--6-9-9-----11-x-7--|
|-11-11-9--9------9-9-----11-x-9--|
|--------------------------9-x-7--|
|---------------------------------|

|--------------------------------|-------------------------------|
|o-15p12-12-15p12-12-15-15b17----|-15p12-12-15p12-12-------------|
|--------------------------------|-------------------12-14b16----|
|--------------------------------|-------------------------------|
|o-------------------------------|-------------------------------|
|--------------------------------|-------------------------------|

|--------------------------------|-------------------------------|
|o--3p=0--0--3p=0--0--3--3b5-----|--3p=0--0--3p=0--0-------------|
|--------------------------------|--------------------0--2b4-----|
|--------------------------------|-------------------------------|
|o-------------------------------|-------------------------------|
|--------------------------------|-------------------------------|

|--------------------------------------|
|-15p12-12-15-(15)--15b17r15-12--------|
|-------------------------------14p12--|
|--------------------------------------|
|--------------------------------------|
|--------------------------------------|
|
|--------------------------------------|
|--3p=0--0--3--(3)---3b5r==3--0--------|
|--------------------------------2p=0--|
|--------------------------------------|
|--------------------------------------|
|--------------------------------------|

|--------------------------------------------|
|------------------------------------9-(9)—o-|
|-14p13-13-14p13-13-14-14b16r(14)-13-9-(9)---|
|------------------------------------9-(9)---|
|-------------------------------------------o|
|------------------------------------0-(0)---|
|
|--------------------------------------------|
|-------------------------------------------o|
|--2p=1--1--2p=1--1--2--2b4r==(2)--1-1-(1)---|
|------------------------------------2-(2)---|
|------------------------------------2-(2)--o|
|------------------------------------0-(0)---|

|-------------------------------|
|-15p12-12-15p12-12-15-15b17----|
|-------------------------------|
|-------------------------------|
|-------------------------------|
|-------------------------------|

|-------------------------------|
|--3p=0--0--3p=0--0--3--3b5-----|
|-------------------------------|
|-------------------------------|
|-------------------------------|
|-------------------------------|

|-------------------------------|---------------------------|
|-15p12-12-15p12-12-------------|---------------------------|
|-------------------12-14b16----|-4-6-(6)--7-7b9==(7)-------|
|-------------------------------|---------------------------|
|-------------------------------|---------------------------|
|-------------------------------|---------------------------|

|-------------------------------|---------------------------|
|--3p=0--0--3p=0--0-------------|---------------------------|
|--------------------0--2b4-----|---------------------------|
|-------------------------------|-2-4-(4)--5-7----(7)-7-7-7-|
|-------------------------------|-2-4-(4)--5-7----(7)-7-7-7-|
|-------------------------------|-0-2-(2)--3-5----(5)-5-5-5-|

|-------------------------------|-----|
|-------------------------------|-----|
|-(7)r--------------------------|-----|
|-------------------------------|-----|
|-------------------------------|-----|
|-------------------------------|-----|

|-------------------------------|-----|
|-------------------------------|-----|
|-------------------------------|-----|
|--7---7-7-7-7-7-7-7-7-7-7-7-7--|-----|
|--7---7-7-7-7-7-7-7-7-7-7-7-7--|-----|
|--5---5-5-5-5-5-5-5-5-5-5-5-5--|-----|

  Gtr II
|--------------------------|----------------------------------*|
|--------------------------|----------------------------------*|
|-7-----7-(7)---7-9-(9)----|----------------------------------*|
|-7---7-7-(7)-7-7-9-(9)----|-9s7-7-7s4-4-4-2-2----------------*|
|-5-0-0-5p=0--0-5-7-(7)----|-7s5-5-5s2-2-2-0-0-5-5-5-2-2-2-2--*|
|--------------------------|-------------------3-3-3-0-0-0-0--*|

All of My Love


Little fill right before plant starts to sing.
|---------------------------------------------------------------------------|
|------13----12-----10------------------------------------------------------|
|---------------------------------------------------------------------------|
|--/14----/12---/12---------------------------------------------------------|
|---------------------------------------------------------------------------|
|---------------------------------------------------------------------------|
During all the main riffs, Page keeps tapping the
guitar slightly muted.  He does this once between 
each fill.

|--8----7-------------------------------------------------------------------|
|--8----8-------------------------------------------------------------------|
|--x----x-------------------------------------------------------------------|
|---------------------------------------------------------------------------|
|---------------------------------------------------------------------------|
|---------------------------------------------------------------------------|

fill 1                            Fill 2
|------------------------------------5--7p5---------------------------------|
|-6b8(and hold)-----------------------5-----7/5-3-5p3-----------------------|
|--------------------------------7b9----------------------------------------|
|---------------------------------------------------------------------------|
|---------------------------------------------------------------------------|
|---------------------------------------------------------------------------|

fill 3                           fill 4
|---------------------------------------------------------------------------|
|-6b8r6-6b8r6---------------------------------------------------------------|
|---------------------------------7-7/9-9/7---7-----------------------------|
|-------------------------------------------7-------------------------------|
|---------------------------------------------------------------------------|
|---------------------------------------------------------------------------|

Should I fall out of love, my fire in the night,(fill 1)
To chase a feather in the wind.(fill 2)
Within the glow that weaves a cloak of delight,(fill 3)
There moves a thread that has no end.(fill 2)
For many hours and days that pass ever soon,(fill 1)
The tides have caused the flame to dim.(fill 4)
At last the arm is straight, the hand to the loom,(fill 3)
Is this the end or just begin?(fill 5)

chorus 1
|---------------------------------------------------------------------------|
|-15b17-15b17--13-15-15b17-----15-13-15-13h15p13----------------------------|
|---------------------------------------------------------------------------|
|---------------------------------------------------------------------------|
|---------------------------------------------------------------------------|
|---------------------------------------------------------------------------|

|---------------------------------------------------------------------------|
|---------------------------------------------------------------------------|
|-10-12-12b14-12b14-12-10h12p10---------------------------------------------|
|---------------------------------------------------------------------------|
|---------------------------------------------------------------------------|
|---------------------------------------------------------------------------|

|---------------------------------------------------------------------------|
|-/17----15-13-15-15b17-15-13h15p13-13h15p13--13h15p13----------------------|
|---------------------------------------------------------------------------|
|---------------------------------------------------------------------------|
|---------------------------------------------------------------------------|
|---------------------------------------------------------------------------|

|---------------------------------------------------------------------------|
|---------------------------------------------------------------------------|
|-10-12-12b14-12b14---------------------------------------------------------|
|---------------------------------------------------------------------------|
|---------------------------------------------------------------------------|
|---------------------------------------------------------------------------|
end of chorus 1

fill 6                              fill 7 
|-----5--7p5----7h5---------------------------------------------------------|
|------5-----6p5---6p5------------------------------------------------------|
|-7b9--------------------------------7-7/9\7/9\7----------------------------|
|----------------------------------7----------------------------------------|
|---------------------------------------------------------------------------|
|---------------------------------------------------------------------------|

The cup is raised the toast is made yet again,(fill 3) 
One voice is clear above the din.(fill 6)
Proud Arian, one word my will to sustain,(fill 1)
For me the cloth once more to spin, oh.(fill 7)

Chorus 2
|---------------------------------------------------------------------------|
|-/17--15-13-15-15b17-15-15-13h15p13-13h15p13--13h15p13---------------------|
|---------------------------------------------------------------------------|
|---------------------------------------------------------------------------|
|---------------------------------------------------------------------------|
|---------------------------------------------------------------------------|

|---------------------------------------------------------------------------|
|-10-12-12b14-12b14---------------------------------------------------------|
|---------------------------------------------------------------------------|
|---------------------------------------------------------------------------|
|---------------------------------------------------------------------------|
|---------------------------------------------------------------------------|

|---------------------------------------------------------------------------|
|-15b17---15-13-15-15b17--15-13-15-13h15p13--13h15p13-----------------------|
|---------------------------------------------------------------------------|
|---------------------------------------------------------------------------|
|---------------------------------------------------------------------------|
|---------------------------------------------------------------------------|

|---------------------------------------------------------------------------|
|---------------------------------------------------------------------------|
|-10-12-12b14-12b14---------------------------------------------------------|
|---------------------------------------------------------------------------|
|---------------------------------------------------------------------------|
|---------------------------------------------------------------------------|
end of chorus 2

This next part is hard to get the timing right.
Its the part right after the 2nd chorus.

1st riff                          2nd riff
|---------------------------------------------------------------------------|
|---------------------------------10b11r10----------------------------------|
|------5-5-7b9-7-5-------------------------7p5-7p5--5vv---------------------|
|---5h7-7-------------------------------------7---7-------------------------|
|-/7------------------------------------------------------------------------|
|---------------------------------------------------------------------------|
3rd riff
|---------------------------------------------------------------------------|
|-8b10r8--6b8r6--10b12r10--8b10r8--6b8r6--4/5-------------------------------|
|--------------------------------------------0-7b9r7-0----------------------|
|---------------------------------------------------------------------------|
|---------------------------------------------------------------------------|

Then it goes into the keyboard trumpet solo.
Page just keeps doing the little short popping things
I showed you earlier.

Now it goes to the keyboard with a riff behind it.

|---------------------------------------------------------------------------|
|-----12-13-15b17-15b17-15-15----13-12---12---------------------------------|
|-/14---------------------------------14---14-12----------------------------|
|---------------------------------------------------------------------------|
|---------------------------------------------------------------------------|
|---------------------------------------------------------------------------|

|---------------------------------------------------------------------------|
|-----12-13-15b17-15b17-15-15----13-12---12---------------------------------|
|-/14---------------------------------14---14-12----------------------------|
|---------------------------------------------------------------------------|
|---------------------------------------------------------------------------|
|---------------------------------------------------------------------------|

|---------------------------------------------------------------------------|
|-----12-13-15b17-15b17-15-15----13-12---12---------------------------------|
|-/14---------------------------------14---14-12----------------------------|
|---------------------------------------------------------------------------|
|---------------------------------------------------------------------------|
|---------------------------------------------------------------------------|

|---------------------------------------------------------------------------|
|-----12-13-15b17-15b17-15-15----13-12---------10--12p10----10h17-----------|
|-/14---------------------------------14---------9------10p9-----10p9-------|
|----------------------------------------12b14------------------------------|
|---------------------------------------------------------------------------|
|---------------------------------------------------------------------------|

now back to the hard timing part but with diff. riffs


4th riff                            
|---------------5-----------------------------------------------------------|
|----------------5-8p5--8b10r8----------------------------------------------|
|----5-5-7b9-77-------------------------------------------------------------|
|-5h7-7---------------------------------------------------------------------|
|---------------------------------------------------------------------------|
|---------------------------------------------------------------------------|

5th riff
|------5-5------------------------------------------------------------------|
|-----5-7--5b7r5-7-7p5------------------------------------------------------|
|-7b9-----------------------------------------------------------------------|
|---------------------------------------------------------------------------|
|---------------------------------------------------------------------------|
|---------------------------------------------------------------------------|

6th riff
|---------------------------------------------------------------------------|
|-7b9r7--8b10r8--6b8r6--10b12r10--8b10r8--6b8r6--4/5------------------------|
|---------------------------------------------------0-7b9r7-0---------------|
|---------------------------------------------------------------------------|
|---------------------------------------------------------------------------|
|---------------------------------------------------------------------------|

back to verse riffs

fill 8
|---------------------------------------------------------------------------|
|-5-------------------------------------------------------------------------|
|---7-7---7b9r7-7b9r7-------------------------------------------------------|
|-------7-------------------------------------------------------------------|
|---------------------------------------------------------------------------|
|---------------------------------------------------------------------------|

Yours is the cloth, mine is the hand that sews time, (fill 3)
His is the voice that lies within.(fill 6)
Ours is the fire all the warmth we can find,(fill 1)
He is a feather in the wind, oh.(fill 8)

final chorus


|---------------------------------------------------------------------------|
|-7b9r7-15-13-15-15b17-15-15-13h15p13-13h15p13--13h15p13--------------------|
|---------------------------------------------------------------------------|
|---------------------------------------------------------------------------|
|---------------------------------------------------------------------------|
|---------------------------------------------------------------------------|

|---------------------------------------------------------------------------|
|-10-12-12b14-12b14---------------------------------------------------------|
|---------------------------------------------------------------------------|
|---------------------------------------------------------------------------|
|---------------------------------------------------------------------------|
|---------------------------------------------------------------------------|

|---------------------------------------------------------------------------|
|-----12-13-15b17-15b17-15-15----13-12---12---------------------------------|
|-/14---------------------------------14---14-12----------------------------|
|---------------------------------------------------------------------------|
|---------------------------------------------------------------------------|
|---------------------------------------------------------------------------|

|---------------------------------------------------------------------------|
|-----12-13-15b17-15b17-15-15----13-12---------10--12p10----10h17-----------|
|-/14---------------------------------14---------9------10p9-----10p9-------|
|----------------------------------------12b14------------------------------|
|---------------------------------------------------------------------------|
|---------------------------------------------------------------------------|






In The Evening

The intro thing is just a droning synthesizer and Jimmy playing the open
E-string with a bow.  The overdub is called(I think) a rotovibe which
is a little spinning wheel which when you touch it to the string,
produces that rolling sound.

The main riff is double-tracked and with a little adlibbing is basically:
by the way this is with a strat, or something with a whammy bar:

|----------------------------------------------------------------------|
|--5--5-5--3--3--2\\0//2\\0-------------5-5-5-3-3--2\\0//2-------------|
|--4--4-4--2--0--2\\0//2\\0-------------4-4-4-2-0--2\\0//2-------------|
|--2--2-2--0--0--2\\0//2\\0----2-5-2----2-2-2-0-0--2\\0//2-------------|
|----------------------------------------------------------------------|
|0-----------------------------------0---------------------------------|
                     ^^^Thats a bend down on the whammy bar

The first chorus has something like this:

|---------5--------------------------------------------------------------|
|--7--7---5--7---------7--7/8-7----------------5--7-----------7/8--7-----|
|--7--7---6--7------7--7--7/9-7---7-7/9-7--7---6--7--------7--7/9--7-----|
|--7--7---7--7------7-------------7-7/9-7--7---7--7----7/9-7-------------|
|--5--5---7--5--9-9-------------9---------9----7--5--9-------------------|
|---------5--------------------------------------------------------------|

|--------------------------------------------------------------------------|
|------------------7-----------7------------------7------------------------|
|---------------6--7------7/9--7--------7------6--7------------------------|
|----7/9-7---7--7--7----------------7/9-7------7--7------------------------|
|--9-------9----7--5----9---------9------------7--5------------------------|
|---------------5------------------------------5---------------------------|


The second and fourth choruses  go with this chord sequence:

|---3--3---------3--3---3-------5--5---5--5--------------------------------|
|---3--3--7------3--3---3----9--5--5---5--5--9-----------------------------|
|---4--4--7------4--4---4----9--6--6---6--6--9-----------------------------|
|---5--5--7------5--5---5----9--7--7---7--7--9------4-4-4------------------|
|---5--5--5------5--5---5----7--7--7---7--7--7--7---2-2-2------------------|
|---3--3---------3--3---3-------5--5---5--5-----5--------------------------|

The fourth chorus has this backing line:

|-------------------7\\6//7------------------------7\\6//7--------------|
|---------8-----8---8\\7//8--------------8---8-10--8\\7//8--------------|
|-------7---7-7------------------------7---7----------------------------|
|--9-9-----------------------------9-9----------------------------------|
|-----------------------------------------------------------------------|
|-----------------------------------------------------------------------|

|----------------------9\\\8//9--------------------9--11-11-11-11-------|
|----------10---10-12--10\\9//10-----------10---10----12-12-12-12-------|
|--------9----9-------------------------9-----9-------------------------|
|-11-11---------------------------11-11---------------------------------|
|-----------------------------------------------------------------------|
|-----------------------------------------------------------------------|

The chorus before the solo goes like this:

|-----------------------------------------------------------------------|
|---7-7-----7-7--------------------7----------7/8--7----------------7---|
|---7-7-----7-7----------------6---7-----7-7--7/9--7----7--------6--7---|
|---7-7-----7-7--------9-7-----7---7-----7-7------------7-7---7--7--7---|
|---5-5-----5-5------9-----9---7---5---9--------------9-----9----7--5---|
|------------------------------5---------------------------------5------|

|-----------------------------------------------------------------------|
|------------7/8-7------------------7--7h8-7------------7-----7---------|
|------------7/9-7------------7--6--7--7h9-7------------7---6-7---------|
|----7/9--7-----------7/9-7---7--7--7-----------7/9-7---7---7-7---------|
|--9----------------9-------9----7--5---------9-------9-----7-5---------|
|--------------------------------5--------------------------5-----------|

The solo is something like this:
The starting thing is Jimmy holding down the Whammy Bar as hard as he can
and forcefully picking out a E-Chord and letting up on the bar:

|-------0----12----------------12-------------------12---------------12--|
|------0--------14----------12----15~------------12----15~---------12----|
|-----1---14------14--14^16----------------14^16-------------14^16-------|
|----2-------------------------------------------------------------------|
|---2--------------------------------------------------------------------|
|-0---------------------------------------------------------------------|
                                             Repeat this^^^^^^^^^^^ 5 times
                                                   pretty quickly

|--17^19--17-15-17--15^16--------------------21^22--19-18-17------------|
|---------------------------17--15\\14//15--------------------19^20-----|
|-----------------------------------------------------------------------|
|-----------------------------------------------------------------------|
|-----------------------------------------------------------------------|
|-----------------------------------------------------------------------|

|17-18-19-------------------------------------------------------------|
|-----------19^21--19-17----19-17----19----17---------------------------|
|------------------------18-------18----18------------------------------|
|-----------------------------------------------------------------------|
|-----------------------------------------------------------------------|
|-----------------------------------------------------------------------|

Then do the whammy thing again
|------12----------------------12-----------------------------------|
|---------14p12-------------12-----15^17^15--12-10-12---------------|
|---------------12^13--14^16--------------------------11^12-9-------|
|---0---------------------------------------------------------------|
|--0----------------------------------------------------------------|
|-0-----------------------------------------------------------------|
                repeat ^^^^^this 4
		times quickly

|--12---------------------------------------------------------------------|
|---------------------------------------------12--------------------------|
|-------12----12--14 14^16--14^16-14^16-14^16------15-14-12-14^15-14-12-14|
|----------14-------------------------------------------------------------|
|-------------------------------------------------------------------------|
|-------------------------------------------------------------------------|

|-----------------------------------------------------------------------|
|-----------------------------------------------------------------------|
|--12----12-12----------12---------14^15^14--12-15-14-14-12-------------|
|-----14--------12--14-----14-------------------------------14-14-------|
|-----------------------------------------------------------------------|
|-----------------------------------------------------------------------|

|--------------------------12------15^17-(15)^17-(15)^17^15--------------|
|-----------------------12----15------------------------------13-13------|
|-----------------14^16--------------------------------------------------|
|--14-14\\11//14---------------------------------------------------------|
|-----------------------------------------------------------------------|
|-----------------------------------------------------------------------|

This slowed part is backed with these arpeggiated chords
using a chorus in this series

|----------3----------------0-----------------0----------------------------|
|--------5---5------------3---3-------------0---0-------------------------3-|
|------4-------4-4------4-------4---------2-------2---2---------0-------0---|
|----5----------------4-----------4-----2-----------2---------4-------4-----|
|--3----------------2-----------------0---------------------2-------2-------|
|-------------------------------------------------------0-0-------0---------|

|----------2--------------3----------------2-------------------------------|
|--------0---0----------5---5------------3---3-----------------------------|
|------2-------2------4-------4--------4-------4---4-------2---------------|
|---2--------------5-----------5----4-----------4---4---2---2--------------|
|--0--------------3----------------2-------------------0-------0-----------|
|--------------------------------------------------------------------------|

The solo over it goes like this:

|-----------------------------------------------------------------------|
|------------------------------------------------8-7---7----------------|
|--14-14-14^16------(14)^16^14-----14p12h14----------9---9--9-7---------|
|-------------------------------14------------------------------9-7\5-7-|
|-----------------------------------------------------------------------|
|-----------------------------------------------------------------------|

|-----------------------------------------------------------------------|
|-----------------------------------------------------------------------|
|----7-7-9-9-------9^11^9---------------9^11^9--------------------------|
|--9-------------------------7-7----------------------------------------|
|-----------------------------------------------10-10/12----------------|
|-----------------------------------------------------------------------|

The outro solo:

|------15-17-17^19-17-15-17-15~--------------------12\\9//12------------|
|---17---------------------------17-15-17-15-17-17------------12\\8//12-|
|-----------------------------------------------------------------------|
|-----------------------------------------------------------------------|
|-----------------------------------------------------------------------|
|-----------------------------------------------------------------------|






All of My Love
Tuning: Standard

Little fill right before plant starts to sing.
|---------------------------------------------------------------------------|
|------13----12-----10------------------------------------------------------|
|---------------------------------------------------------------------------|
|--/14----/12---/12---------------------------------------------------------|
|---------------------------------------------------------------------------|
|---------------------------------------------------------------------------|
During all the main riffs, Page keeps tapping the
guitar slightly muted.  He does this once between 
each fill.

|--8----7-------------------------------------------------------------------|
|--8----8-------------------------------------------------------------------|
|--x----x-------------------------------------------------------------------|
|---------------------------------------------------------------------------|
|---------------------------------------------------------------------------|
|---------------------------------------------------------------------------|

fill 1                            Fill 2
|------------------------------------5--7p5---------------------------------|
|-6b8(and hold)-----------------------5-----7/5-3-5p3-----------------------|
|--------------------------------7b9----------------------------------------|
|---------------------------------------------------------------------------|
|---------------------------------------------------------------------------|
|---------------------------------------------------------------------------|

fill 3                           fill 4
|---------------------------------------------------------------------------|
|-6b8r6-6b8r6---------------------------------------------------------------|
|---------------------------------7-7/9-9/7---7-----------------------------|
|-------------------------------------------7-------------------------------|
|---------------------------------------------------------------------------|
|---------------------------------------------------------------------------|

Should I fall out of love, my fire in the night,(fill 1)
To chase a feather in the wind.(fill 2)
Within the glow that weaves a cloak of delight,(fill 3)
There moves a thread that has no end.(fill 2)
For many hours and days that pass ever soon,(fill 1)
The tides have caused the flame to dim.(fill 4)
At last the arm is straight, the hand to the loom,(fill 3)
Is this the end or just begin?(fill 5)

chorus 1
|---------------------------------------------------------------------------|
|-15b17-15b17--13-15-15b17-----15-13-15-13h15p13----------------------------|
|---------------------------------------------------------------------------|
|---------------------------------------------------------------------------|
|---------------------------------------------------------------------------|
|---------------------------------------------------------------------------|

|---------------------------------------------------------------------------|
|---------------------------------------------------------------------------|
|-10-12-12b14-12b14-12-10h12p10---------------------------------------------|
|---------------------------------------------------------------------------|
|---------------------------------------------------------------------------|
|---------------------------------------------------------------------------|

|---------------------------------------------------------------------------|
|-/17----15-13-15-15b17-15-13h15p13-13h15p13--13h15p13----------------------|
|---------------------------------------------------------------------------|
|---------------------------------------------------------------------------|
|---------------------------------------------------------------------------|
|---------------------------------------------------------------------------|

|---------------------------------------------------------------------------|
|---------------------------------------------------------------------------|
|-10-12-12b14-12b14---------------------------------------------------------|
|---------------------------------------------------------------------------|
|---------------------------------------------------------------------------|
|---------------------------------------------------------------------------|
end of chorus 1

fill 6                              fill 7 
|-----5--7p5----7h5---------------------------------------------------------|
|------5-----6p5---6p5------------------------------------------------------|
|-7b9--------------------------------7-7/9\7/9\7----------------------------|
|----------------------------------7----------------------------------------|
|---------------------------------------------------------------------------|
|---------------------------------------------------------------------------|

The cup is raised the toast is made yet again,(fill 3) 
One voice is clear above the din.(fill 6)
Proud Arian, one word my will to sustain,(fill 1)
For me the cloth once more to spin, oh.(fill 7)

Chorus 2
|---------------------------------------------------------------------------|
|-/17--15-13-15-15b17-15-15-13h15p13-13h15p13--13h15p13---------------------|
|---------------------------------------------------------------------------|
|---------------------------------------------------------------------------|
|---------------------------------------------------------------------------|
|---------------------------------------------------------------------------|

|---------------------------------------------------------------------------|
|-10-12-12b14-12b14---------------------------------------------------------|
|---------------------------------------------------------------------------|
|---------------------------------------------------------------------------|
|---------------------------------------------------------------------------|
|---------------------------------------------------------------------------|

|---------------------------------------------------------------------------|
|-15b17---15-13-15-15b17--15-13-15-13h15p13--13h15p13-----------------------|
|---------------------------------------------------------------------------|
|---------------------------------------------------------------------------|
|---------------------------------------------------------------------------|
|---------------------------------------------------------------------------|

|---------------------------------------------------------------------------|
|---------------------------------------------------------------------------|
|-10-12-12b14-12b14---------------------------------------------------------|
|---------------------------------------------------------------------------|
|---------------------------------------------------------------------------|
|---------------------------------------------------------------------------|
end of chorus 2

This next part is hard to get the timing right.
Its the part right after the 2nd chorus.

1st riff                          2nd riff
|---------------------------------------------------------------------------|
|---------------------------------10b11r10----------------------------------|
|------5-5-7b9-7-5-------------------------7p5-7p5--5vv---------------------|
|---5h7-7-------------------------------------7---7-------------------------|
|-/7------------------------------------------------------------------------|
|---------------------------------------------------------------------------|
3rd riff
|---------------------------------------------------------------------------|
|-8b10r8--6b8r6--10b12r10--8b10r8--6b8r6--4/5-------------------------------|
|--------------------------------------------0-7b9r7-0----------------------|
|---------------------------------------------------------------------------|
|---------------------------------------------------------------------------|

Then it goes into the keyboard trumpet solo.
Page just keeps doing the little short popping things
I showed you earlier.

Now it goes to the keyboard with a riff behind it.

|---------------------------------------------------------------------------|
|-----12-13-15b17-15b17-15-15----13-12---12---------------------------------|
|-/14---------------------------------14---14-12----------------------------|
|---------------------------------------------------------------------------|
|---------------------------------------------------------------------------|
|---------------------------------------------------------------------------|

|---------------------------------------------------------------------------|
|-----12-13-15b17-15b17-15-15----13-12---12---------------------------------|
|-/14---------------------------------14---14-12----------------------------|
|---------------------------------------------------------------------------|
|---------------------------------------------------------------------------|
|---------------------------------------------------------------------------|

|---------------------------------------------------------------------------|
|-----12-13-15b17-15b17-15-15----13-12---12---------------------------------|
|-/14---------------------------------14---14-12----------------------------|
|---------------------------------------------------------------------------|
|---------------------------------------------------------------------------|
|---------------------------------------------------------------------------|

|---------------------------------------------------------------------------|
|-----12-13-15b17-15b17-15-15----13-12---------10--12p10----10h17-----------|
|-/14---------------------------------14---------9------10p9-----10p9-------|
|----------------------------------------12b14------------------------------|
|---------------------------------------------------------------------------|
|---------------------------------------------------------------------------|

now back to the hard timing part but with diff. riffs


4th riff                            
|---------------5-----------------------------------------------------------|
|----------------5-8p5--8b10r8----------------------------------------------|
|----5-5-7b9-77-------------------------------------------------------------|
|-5h7-7---------------------------------------------------------------------|
|---------------------------------------------------------------------------|
|---------------------------------------------------------------------------|

5th riff
|------5-5------------------------------------------------------------------|
|-----5-7--5b7r5-7-7p5------------------------------------------------------|
|-7b9-----------------------------------------------------------------------|
|---------------------------------------------------------------------------|
|---------------------------------------------------------------------------|
|---------------------------------------------------------------------------|

6th riff
|---------------------------------------------------------------------------|
|-7b9r7--8b10r8--6b8r6--10b12r10--8b10r8--6b8r6--4/5------------------------|
|---------------------------------------------------0-7b9r7-0---------------|
|---------------------------------------------------------------------------|
|---------------------------------------------------------------------------|
|---------------------------------------------------------------------------|

back to verse riffs

fill 8
|---------------------------------------------------------------------------|
|-5-------------------------------------------------------------------------|
|---7-7---7b9r7-7b9r7-------------------------------------------------------|
|-------7-------------------------------------------------------------------|
|---------------------------------------------------------------------------|
|---------------------------------------------------------------------------|

Yours is the cloth, mine is the hand that sews time, (fill 3)
His is the voice that lies within.(fill 6)
Ours is the fire all the warmth we can find,(fill 1)
He is a feather in the wind, oh.(fill 8)

final chorus


|---------------------------------------------------------------------------|
|-7b9r7-15-13-15-15b17-15-15-13h15p13-13h15p13--13h15p13--------------------|
|---------------------------------------------------------------------------|
|---------------------------------------------------------------------------|
|---------------------------------------------------------------------------|
|---------------------------------------------------------------------------|

|---------------------------------------------------------------------------|
|-10-12-12b14-12b14---------------------------------------------------------|
|---------------------------------------------------------------------------|
|---------------------------------------------------------------------------|
|---------------------------------------------------------------------------|
|---------------------------------------------------------------------------|

|---------------------------------------------------------------------------|
|-----12-13-15b17-15b17-15-15----13-12---12---------------------------------|
|-/14---------------------------------14---14-12----------------------------|
|---------------------------------------------------------------------------|
|---------------------------------------------------------------------------|
|---------------------------------------------------------------------------|

|---------------------------------------------------------------------------|
|-----12-13-15b17-15b17-15-15----13-12---------10--12p10----10h17-----------|
|-/14---------------------------------14---------9------10p9-----10p9-------|
|----------------------------------------12b14------------------------------|
|---------------------------------------------------------------------------|
|---------------------------------------------------------------------------|





In The Evening
Led Zeppelin

|-----------------------------------------------------------------------|
|---5--5-5--3--3--2\\0//2\\0-------------5-5-5-3-3--2\\0//2-------------|
|---4--4-4--2--0--2\\0//2\\0-------------4-4-4-2-0--2\\0//2-------------|
|---2--2-2--0--0--2\\0//2\\0----2-5-2----2-2-2-0-0--2\\0//2-------------|
|-----------------------------------------------------------------------|
|-0-----------------------------------0---------------------------------|
                     ^^^Thats a bend down on the whammy bar

The first chorus has something like this:

|---------5--------------------------------------------------------------|
|--7--7---5--7---------7--7/8-7----------------5--7-----------7/8--7-----|
|--7--7---6--7------7--7--7/9-7---7-7/9-7--7---6--7--------7--7/9--7-----|
|--7--7---7--7------7-------------7-7/9-7--7---7--7----7/9-7-------------|
|--5--5---7--5--9-9-------------9---------9----7--5--9-------------------|
|---------5--------------------------------------------------------------|

|--------------------------------------------------------------------------|
|------------------7-----------7------------------7------------------------|
|---------------6--7------7/9--7--------7------6--7------------------------|
|----7/9-7---7--7--7----------------7/9-7------7--7------------------------|
|--9-------9----7--5----9---------9------------7--5------------------------|
|---------------5------------------------------5---------------------------|


The second and fourth choruses  go with this chord sequence:

|---3--3---------3--3---3-------5--5---5--5--------------------------------|
|---3--3--7------3--3---3----9--5--5---5--5--9-----------------------------|
|---4--4--7------4--4---4----9--6--6---6--6--9-----------------------------|
|---5--5--7------5--5---5----9--7--7---7--7--9------4-4-4------------------|
|---5--5--5------5--5---5----7--7--7---7--7--7--7---2-2-2------------------|
|---3--3---------3--3---3-------5--5---5--5-----5--------------------------|

The fourth chorus has this backing line:

|-------------------7\\6//7------------------------7\\6//7--------------|
|---------8-----8---8\\7//8--------------8---8-10--8\\7//8--------------|
|-------7---7-7------------------------7---7----------------------------|
|--9-9-----------------------------9-9----------------------------------|
|-----------------------------------------------------------------------|
|-----------------------------------------------------------------------|

|----------------------9\\\8//9--------------------9--11-11-11-11-------|
|----------10---10-12--10\\9//10-----------10---10----12-12-12-12-------|
|--------9----9-------------------------9-----9-------------------------|
|-11-11---------------------------11-11---------------------------------|
|-----------------------------------------------------------------------|
|-----------------------------------------------------------------------|

The chorus before the solo goes like this:

|-----------------------------------------------------------------------|
|---7-7-----7-7--------------------7----------7/8--7----------------7---|
|---7-7-----7-7----------------6---7-----7-7--7/9--7----7--------6--7---|
|---7-7-----7-7--------9-7-----7---7-----7-7------------7-7---7--7--7---|
|---5-5-----5-5------9-----9---7---5---9--------------9-----9----7--5---|
|------------------------------5---------------------------------5------|

|e-----------------------------------------------------------------------|
|------------7/8-7------------------7--7h8-7------------7-----7---------|
|------------7/9-7------------7--6--7--7h9-7------------7---6-7---------|
|----7/9--7-----------7/9-7---7--7--7-----------7/9-7---7---7-7---------|
|--9----------------9-------9----7--5---------9-------9-----7-5---------|
|--------------------------------5--------------------------5-----------|

|-------0----12----------------12-------------------12---------------12--|
|------0--------14----------12----15~------------12----15~---------12----|
|-----1---14------14--14^16----------------14^16-------------14^16-------|
|----2-------------------------------------------------------------------|
|---2--------------------------------------------------------------------|
|--0---------------------------------------------------------------------|
                                             Repeat this^^^^^^^^^^^ 5 times
                                                   pretty quickly

|--17^19--17-15-17--15^16--------------------21^22--19-18-17------------|
|---------------------------17--15\\14//15--------------------19^20-----|
|-----------------------------------------------------------------------|
|-----------------------------------------------------------------------|
|-----------------------------------------------------------------------|
|-----------------------------------------------------------------------|

|--17-18-19-------------------------------------------------------------|
|-----------19^21--19-17----19-17----19----17---------------------------|
|------------------------18-------18----18------------------------------|
|-----------------------------------------------------------------------|
|-----------------------------------------------------------------------|
|-----------------------------------------------------------------------|

Then do the whammy thing again
|------12----------------------12-----------------------------------|
|---------14p12-------------12-----15^17^15--12-10-12---------------|
|---------------12^13--14^16--------------------------11^12-9-------|
|---0---------------------------------------------------------------|
|--0----------------------------------------------------------------|
|-0-----------------------------------------------------------------|
                repeat ^^^^^this 4
		times quickly

|--12---------------------------------------------------------------------|
|---------------------------------------------12--------------------------|
|-------12----12--14 14^16--14^16-14^16-14^16------15-14-12-14^15-14-12-14|
|----------14-------------------------------------------------------------|
|-------------------------------------------------------------------------|
|-------------------------------------------------------------------------|

|-----------------------------------------------------------------------|
|-----------------------------------------------------------------------|
|--12----12-12----------12---------14^15^14--12-15-14-14-12-------------|
|-----14--------12--14-----14-------------------------------14-14-------|
|-----------------------------------------------------------------------|
|-----------------------------------------------------------------------|

|--------------------------12------15^17-(15)^17-(15)^17^15-------------|
|-----------------------12----15------------------------------13-13-----|
|-----------------14^16-------------------------------------------------|
|--14-14\\11//14--------------------------------------------------------|
|-----------------------------------------------------------------------|
|-----------------------------------------------------------------------|

This slowed part is backed with these arpeggiated chords
using a chorus in this series

|----------3----------------0-----------------0-----------------------------|
|--------5---5------------3---3-------------0---0-------------------------3-|
|------4-------4-4------4-------4---------2-------2---2---------0-------0---|
|----5----------------4-----------4-----2-----------2---------4-------4-----|
|--3----------------2-----------------0---------------------2-------2-------|
|-------------------------------------------------------0-0-------0---------|

|----------2--------------3----------------2------------------------------|
|--------0---0----------5---5------------3---3-----------------------------|
|------2-------2------4-------4--------4-------4---4-------2---------------|
|----2--------------5-----------5----4-----------4---4---2---2-------------|
|--0--------------3----------------2-------------------0-------0-----------|
|--------------------------------------------------------------------------|

The solo over it goes like this:

|-----------------------------------------------------------------------|
|------------------------------------------------8-7---7----------------|
|--14-14-14^16------(14)^16^14-----14p12h14----------9---9--9-7---------|
|-------------------------------14------------------------------9-7\5-7-|
|-----------------------------------------------------------------------|
|-----------------------------------------------------------------------|

|-----------------------------------------------------------------------|
|-----------------------------------------------------------------------|
|----7-7-9-9-------9^11^9---------------9^11^9--------------------------|
|--9-------------------------7-7----------------------------------------|
|-----------------------------------------------10-10/12----------------|
|-----------------------------------------------------------------------|

The outro solo:

|------15-17-17^19-17-15-17-15~--------------------12\\9//12-----------|
|---17---------------------------17-15-17-15-17-17------------12\\8//12|
|-----------------------------------------------------------------------|
|-----------------------------------------------------------------------|
|-----------------------------------------------------------------------|
|-----------------------------------------------------------------------|
7 comments total. Showing first comments.
0 reply
Maitinin wrote on December 21 2006, 05:13 am

where the hell is the rest of No Quarter?!

0 reply
julioman wrote on December 21 2006, 10:18 am

The All My Love tab loks familiar...have I seen it before?...

0 reply
Cowboys9224 wrote on December 21 2006, 04:15 pm

I'm sorry I left out the rest of No Quarter. I tried to put this together with the other tabs to have this album on here. When I was putting this tab together some it was deleted. I thought I got back all of what I lost.

I want to post or [tab]
guest
You may want to rate the tab now too:
select rating
Please do not post tabs as comments. Select "correction" instead!