Oops, an error
Loading. Please wait.

Led Zeppelin 1 Tab

ver2
ver2

Album

More versions @911Tabs.com
3,177 views 15 this week
no commentswrite comment
1 2 3 4 5
worth learning
x 2
Autoscroll
+/-
esc
set tempo
stop
Contributor
Hey! There's an official Ultimate Guitar app which is ideal
for learning songs when you're away from computer. Get the app
WARNING: You are trying to view
                                    content from Ultimate-Guitar.com
                                    in an unauthorized application,
                                    which is prohibited.

                                    Please use an official Ultimate
                                    Guitar Tabs application for iPhone,
                                    iPad or Android to access legitimate
                                    chords, guitar, bass, and drum tabs
                                    from Ultimate-Guitar.com database.

                                    Type "ultimate guitar tabs" in Apple
                                    App Store's or Android Market's
                                    search to find the application.
Led Zeppelin I Album (1969) - Led Zeppelin


Tracklist:


1. Good Times Bad Times
2. Babe I'm Gonna Leave You
3. You Shook Me
4. Dazed And Confused
5. Your Time Is Gonna Come
6. Black Mountainside
7. Communication Breakdown
8. I Can't Quit You Baby
9. How Many More Times


Good Times Bad Times:


Standard Tuning

E|----------------|----------------|----------------|----------------|
B|9-9-------------|9-9-------------|9-9-------------|9-9-------------|
G|9-9-------------|9-9-------------|9-9-------------|9-9-------------|
D|9-9-------------|9-9-------------|9-9-------------|9-9-------------|
A|7-7-------------|7-7-------------|7-7-------------|7-7-------------|
E|----------------|----------------|----------------|----------------|
 |
 |
E|----------------|----------------|----------------|----------------|
B|----------------|----------------|----------------|----------------|
G|9-9-------------|9-9-------------|9-9-------------|9-9-------------|
D|9-9-------------|9-9-------------|9-9-------------|9-9-------------|
A|7-7-------------|7-7-------------|7-7-------------|7-7-------------|
E|0-0-------------|0-0-------------|0-0-------------|0-0-------------|

                    Verse 1
E|----------------||----------------|----------------|
B|9-9-------------||9-9-------------|--7-7-----------|
G|9-9-------------||9-9-------------|--7-7-----------|
D|9-9-------------||9-9-------------|-7-7-7-47-------|
A|7-7-------------||7-7-------------|5-----5--4--5-6-|
E|----------------||----------------|----------------|
 |
 |
E|----------------||----------------|----------------|
B|----------------||----------------|----------------|
G|9-9-------------||9-9-------------|--7-7-----------|
D|9-9-------------||9-9-------------|-7-7-7-47-------|
A|7-7-------------||7-7-------------|5-----5--4--5-6-|
E|0-0-------------||0-0-------------|----------------|

E|----------------|----------------|----------------|----------------|
B|9-9-------------|--7-7-----------|9-9-------------|----------------|
G|9-9-------------|--7-7-----------|9-9-------------|--7-7-----------|
D|9-9-------------|-7-7-7-47-------|9-9-------------|-7-7-7-47-------|
A|7-7-------------|5-----5--4--5-6-|7-7-------------|5-----5--4--5-6-|
E|----------------|----------------|----------------|----------------|
 |
 |
E|----------------|----------------|----------------|----------------|
B|----------------|----------------|----------------|----------------|
G|9-9-------------|--7-7-----------|9-9-------------|--7-7-----------|
D|9-9-------------|-7-7-7-47-------|9-9-------------|-7-7-7-47-------|
A|7-7-------------|5-----5--4--5-6-|7-7-------------|5-----5--4--5-6-|
E|0-0-------------|----------------|0-0-------------|----------------|

E|----------------|----------------|----------------|----------------|
B|9-9-------------|--7-7-----------|9-9-------------|----------------|
G|9-9-------------|--7-7-----------|9-9-------------|--7-7-----------|
D|9-9-------------|-7-7-7-47-------|9-9-------------|-7-7-7-47-------|
A|7-7-------------|5-----5--4--5-6-|7-7-------------|5-----5--4--5-6-|
E|----------------|----------------|----------------|----------------|
 |
 |
E|----------------|----------------|----------------|----------------|
B|----------------|----------------|----------------|----------------|
G|9-9-------------|--7-7-----------|9-9-------------|--7-7-----------|
D|9-9-------------|-7-7-7-47-------|9-9-------------|-7-7-7-47-------|
A|7-7-------------|5-----5--4--5-6-|7-7-------------|5-----5--4--5-6-|
E|0-0-------------|----------------|0-0-------------|----------------|

                                    Chorus
E|----------------|----------------||----------------|----------------|
B|----------------|----------------||----------------|----------------|
G|----------------|--7-7-----------||----------------|----------------|
D|----------------|-7-7-7-47-------||--2-------------|-22-2--7-7----77|
A|7---------------|5-----5--4--5-6-||----------------|-00-0-0-----0---|
E|----------------|----------------||45--------------|0---------------|
 |
 |
E|----------------|----------------||35--5-----------|----5------10---|
B|----------------|----------------||35--5---71210100|35--5---7121277-|
G|9-9-------------|--7-7-----------||46--6---71211110|46--6---7211277-|
D|9-9-------------|-7-7-7-47-------||57--7---71212120|577-7---7121277-|
A|7-7-------------|5-----5--4--5-6-||57--7---51012120|577-7---5101055-|
E|0-0-------------|----------------||35--5---5101010-|355-5---510-----|

E|----------------|----------------|----------------||----------------|
B|----------------|----------------|----------------||----------------|
G|----------------|----------------|4---------------||----------------|
D|----------------|----------------|----------------||----------------|
A|7-9-9-9-9-9-9-9-|799-9-9-799-9-9-|2---------------||----------------|
E|5-7-7-7-7-7-7-7-|577-7-7-577-7-7-|----------------||----------------|
 |
 |
E|----7-----------|----7-----------|----------------||----------------|
B|----7---14141212|----7-----------|----------------||----------------|
G|----8---14141313|----8-----------|----------------||----------------|
D|----9---14141414|----9---9-9-9-9-|9---------------||----------------|
A|9-9-9---12121414|9-9-9---9-9-9-9-|9---------------||----------------|
E|7-7-----12121212|7-7-----7-7-7-7-|7---------------||----------------|

E|----------------|----------------|----------------|----------------|
B|----------------|----------------|----------------|----------------|
G|-------11911424-|-------119114242|-------11911424-|-------119114242|
D|-------11911424-|-------119114242|-------11911424-|-------119114242|
A|4-4-------------|4-4-------------|4-4-------------|4-4-------------|
E|2-2-------------|2-2-------------|----------------|----------------|
 |
 |
E|----------------|----------------|----------------|----------------|
B|----------------|----------------|----------------|----------------|
G|-------11911424-|-------119114242|-------11911424-|-------119114242|
D|-------11911424-|-------119114242|-------11911424-|-------119114242|
A|4-4-------------|4-4-------------|4-4-------------|4-4-------------|
E|2-2-------------|2-2-------------|----------------|----------------|

E|----------------|----------------|----------------|----------------|
B|----------------|----------------|----------------|----------------|
G|-------11911424-|-------119114242|-------11911424-|-------119114242|
D|-------11911424-|-------119114242|-------11911424-|-------119114242|
A|4-4-------------|4-4-------------|4-4-------------|4-4-------------|
E|2-2-------------|2-2-------------|----------------|----------------|
 |
 |
E|----------------|----------------|----------------|----------------|
B|----------------|----------------|----------------|----------------|
G|-------11911424-|-------119114242|-------11911424-|-------119114245|
D|-------11911424-|-------119114242|-------11911424-|-------119114245|
A|4-4-------------|4-4-------------|4-4-------------|4-4-------------|
E|2-2-------------|2-2-------------|----------------|----------------|

  Chorus
E|----------------|----------------|---------77-----|----------------|
B|4---4--4--------|----------------|6---6----77-1111|----------------|
G|4---4--4-2-2-11-|-----44--222-11-|6---6----88-1111|----------------|
D|4---4--422-2-220|4-4-44402222-220|6---6---999-1111|------11111111--|
A|2---2--20---222-|2-2-2--00-002220|4---4---999-9-9-|--11111111111111|
E|------------0---|------------0---|--------7-7-----|9-9-9-9-9-9-9-9-|
 |
 |
E|----------------|---------0---000|----------------|----------------|
B|4---4--4-222----|----4----2---000|466-6-6612--1010|----------------|
G|4---4--4-222-1--|----4444-2---111|466-6-6611--1111|----------------|
D|4---4--4-222-2--|4-4-4444-2---222|466-6-6611--1111|911-111111111111|
A|2-2-2--2-00022--|2-2--222-0---222|244-4-449---9-9-|911-111111111111|
E|--------0---0---|--------0---0---|----------------|79--9-9-9-9-9-9-|


E|----------------||
B|----------------||
G|----------------||
D|------------11--||
A|11----------11--||
E|9-----------9---||
 |
 |
E|----------------||
B|------------6---||
G|------------6---||
D|11----------6---||
A|11----------4---||
E|9---------------||

  Guitar Solo
E|------12-----12-12--12-----12--------------------------------------------|
B|----12-----12-----12-----12----------------------------------------------|
G|-14b----14b-----------14h----14b\14-12--14---12q-------12q--12-14-12-14--|h
D|--------------------------------------14---------14-14----14-------------|
A|-------------------------------------------------------------------------|
E|-------------------------------------------------------------------------|

E|--------------------------------------------------------------------------|
B|15-----------------20bb------------17-17-17---20-17-20b-20-17----17-20^17-|
G|---14-12-14-12-0----------------------------------------------19----------|
D|--------------------------------------------------------------------------|
A|--------------------------------------------------------------------------|
E|--------------------------------------------------------------------------|

E|-------------------------------------------------------------------------|
B|----17----------------------------------------------------------12-15^12-|
G|-19----19-19b---x-x-x-------------------------12----12-14^12-14----------|
D|----------------x-x-x-------12----12-14-12-14-12-14----------------------|
A|---------------------/14-14----14----------------------------------------|
E|-------------------------------------------------------------------------|

E|----12----12-15b----15-15q----------17h-17b-17h-17b-17h-17b-17b\17-15----|
B|-15-12-15------------------17-15q-17----------------------------------17-|
G|-------------------------------------------------------------------------|
D|-------------------------------------------------------------------------|
A|-------------------------------------------------------------------------|
E|-------------------------------------------------------------------------|

e-----15----15-17-17^16--17--16-17^16-17b-15h---------------------------------|
B--T-----17-----------------------------------17-17-17-17-15b-17bb-------15---|
G--A--------------------------------------------------------------------------|
D--B--------------------------------------------------------------------------|
A-----------------------------------------------------------------------------|
E-----------------------------------------------------------------------------|

  Rhythm part under guitar solo
E|----------------| played 8 times
B|----------------|
G|----9----777----|
D|----9----7777-7-|
A|7-7-7--455557-7-|
E|0-0---------5-5-|

  Outro guitar solo
E|--------------------------------------------------------------------------|
B|--------------------------------------------------------------------------|
G|------------------------------2-2---2-2---4---4---4---4-4-4-4-4-4-4-4-4-4-|
D|7-7-7-7-----7-7^5-5^7-7-7-7---2-2---2-2-4-4---4---4---4-4-4-4-4-4-4-4-4-4-|
A|----------0-----------------0-------0-0-2-2-2-2---2---2-2-2-2-2-2-2-2-2-2-|
E|--------------------------------------------------------------------------|

E|--------------------12----------------------------------------------------|
B|-----------------------15^12----12----12----------------------------------|
G|-4-4-------------------------14----14----14-12^14^12----12----------------|
D|-4-4-------------------------------------------------14----14^12-14^12----|
A|-2-2-------------------------------------------------------------------14-|
E|--------------------------------------------------------------------------|

E|--------------------------------------------------------------------------|
B|--------------------------------------------------------------------------|
G|--------------------------------------------------------------------------|
D|-12-----------------------------------------------------------------------|
A|----14^12-14^12^10-12^10--------------------------------------------------|
E|-------------------------12-10------10-10------(10)/11/12----(12)\--------|
           hold bend
E|-----------------------------------------------0-----19bbb------20bb\20----|
B|------20b-20h-20b-20h-20b-20h-20b-20b-20-----0-------19bh--20bb---------17-|
G|---------------------------------------------------------------------------|
D|---------------------------------------------------------------------------|
A|---------------------------------------------------------------------------|
E|---------------------------------------------------------------------------|

E|-----------------15b\15--15-15--15-15--15-15--(15)-(15)-------------------|
B|-(17)\-----------15--15b\15-15b\15-15b\15-15b\(15)-(15)-------------------|
G|--------------------------------------------------------------------------|
D|--------------------------------------------------------------------------|
A|--------------------------------------------------------------------------|
E|--------------------------------------------------------------------------|

E|-(14)h\14-------------14h-14h-----14h\14----------------------------------|
B|--14b--14----14-14----14----------14h\14--------------------14/b-15-------|
G|----------14-------14-----------------------------------------------14^12-|
D|--------------------------------------------------------------------------|
A|--------------------------------------------------------------------------|
E|--------------------------------------------------------------------------|

E|---------------------------------------------------------------------------|
B|---------------------------------------------------------------------------|
G|-14-12-------14^12---------------------------------------------------------|
D|-------14-12-------14^12-14^12----12---------------------------------------|
A|-------------------------------14----14^12\^10-12^10----10^12^10-----------|
E|-----------------------------------------------------12----------10---5h/5-|

E|-17b/17-17-^15----17-15-17-15-17---15-15/16----------------|
B|---------------17------------------------------------------|
G|-----------------------------------------------------------|
D|-----------------------------------------------------------|
A|-----------------------------------------------------------|
E|-----------------------------------------------------------|

  Rhythm part under outro guitar solo
E|35--5-----------|----5------10---|----7-----------|----------------|
B|35--5---71210100|35--5---7121277-|----7---14141212|----------------|
G|46--6---71211110|46--6---7211277-|----8---14141313|----------------|
D|57--7---71212120|577-7---7121277-|----9---14141414|--9-9-9-9-9-9-9-|
A|57--7---51012120|577-7---5101055-|9-9-9---12121414|7-9-9-9-9-9-9-9-|
E|35--5---5101010-|355-5---510-----|7-7-----12121212|5-7-7-7-7-7-7-7-|

E|----------------|----------------|----------------|
B|----------------|----------------|----------------|
G|----------------|9-9-------------|--7-7-----------|
D|----------------|9-9-------------|-7-7-7-47-------|
A|----------------|7-7-------------|5-----5--4--5-6-|
E|7---------------|0-0-------------|----------------|

E|----------------|----------------|----------------|----------------|
B|----------------|----------------|----------------|----------------|
G|9-9-------------|--7-7-----------|9-9-------------|--7-7-----------|
D|9-9-------------|-7-7-7-47-------|9-9-------------|-7-7-7-47-------|
A|7-7-------------|5-----5--4--5-6-|7-7-------------|5-----5--4--5-6-|
E|0-0-------------|----------------|0-0-------------|----------------|

E|----------------|----------------|----------------|----------------|
B|----------------|----------------|----------------|----------------|
G|9-9-------------|--7-7-----------|9-9-------------|--7-7-----------|
D|9-9-------------|-7-7-7-47-------|9-9-------------|-7-7-7-47-------|
A|7-7-------------|5-----5--4--5-6-|7-7-------------|5-----5--4--5-6-|
E|0-0-------------|----------------|0-0-------------|----------------|

E|----------------|----------------|----------------|----------------|
B|----------------|----------------|----------------|----------------|
G|9-9-------------|--7-7-----------|9-9-------------|--7-7-----------|
D|9-9-------------|-7-7-7-47-------|9-9-------------|-7-7-7-47-------|
A|7-7-------------|5-----5--4--5-6-|7-7-------------|5-----5--4--5-6-|
E|0-0-------------|----------------|0-0-------------|----------------|

E|----------------|----------------|----------------|
B|----------------|----------------|----------------|
G|9-9-------------|--7-7-----------|9-9-------------|
D|9-9-------------|-7-7-7-47-------|9-9-------------|
A|7-7-------------|5-----5--4--5-6-|7-7-------------|
E|0-0-------------|----------------|0-0-------------|



Babe I'm Gonna Leave You:



Standard Tuning

  Intro
E|------0---------|----------------|----------------|----------------|
B|----1---------1-|------3-------1-|------3-------1-|------1-------0-|
G|------------2---|----0-------0---|----2-------2---|----2-------1---|
D|--2-------2-----|--2-------2-----|--0-------0-----|--3-------2-----|
A|0-------0-------|----------------|----------------|----------------|
E|----------------|3-------3-------|2-------2-------|1-------0-------|

E|------3-------0-|------3-------0-|----------------|----------------|
B|----------------|----------------|------3-------1-|------1-------0-|
G|----2-------2---|----0-------0---|----2-------2---|----2-------1---|
D|--2-------2-----|--2-------2-----|--0-------0-----|--3-------2-----|
A|0-------0-------|----------------|----------------|----------------| Play
E|----------------|3-------3-------|2-------2-------|1-------0-------| 7 times

E|0-000-0---0---0-|--0-0-0-0-0-0-0-|
B|1-111-1---8---6-|--6-6-6-6-6-6-6-|
G|2-222-2---9---7-|--7-7-7-7-7-7-7-|
D|2-222-2---7---7-|--7-7-7-7-7-7-7-|
A|0-000-0---0---0-|--0-0-0-0-0-0-0-| Play
E|----------------|----------------| 4 times

E|------3-------0-|------3-------0-|----------------|----------------|
B|----------------|----------------|------3-------1-|------1-------0-|
G|----2-------2---|----0-------0---|----2-------2---|----2-------1---|
D|--2-------2-----|--2-------2-----|--0-------0-----|--3-------2-----|
A|0-------0-------|----------------|----------------|----------------| Play
E|----------------|3-------3-------|2-------2-------|1-------0-------| 4 times

  Fourth time, second guitar
E|----------------|----------------|-------71012---7|1012--10881087-8-787|
B|----------------|----------------|------8-------8-|--------------------|
G|----------------|----------------|-----9-------9--|--------------------|
D|----------------|----------------|----------------|--------------------|
A|----------------|----------------|----------------|--------------------|
E|----------------|----------------|----------------|--------------------|
                                         \3/     \3/          \-3/    \3/

E|----------------|----------------|----------------|----------------|
B|------3-------1-|------3-------0-|------3-------1-|------3-------0-|
G|----2-------2---|----1-------1---|----2-------2---|----1-------1---|
D|--3-------3-----|--2-------2-----|--3-------3-----|--2-------2-----|
A|----------------|----------------|----------------|----------------|
E|1-------1-------|0-------0-------|1-------1-------|0-------0-------|
  I can hear it calling me.....     I can hear it calling me the way it used to.....

E|------3-------0-|------3-------0-|----------------|----------------|
B|----------------|----------------|------3-------1-|------1-------0-|
G|----2-------2---|----0-------0---|----2-------2---|----2-------1---|
D|--2-------2-----|--2-------2-----|--0-------0-----|--3-------2-----|
A|0-------0-------|----------------|----------------|----------------|
E|----------------|3-------3-------|2-------2-------|1-------0-------|

E|0-000-0---0---0-|--0-0-0-0-0-0-0-|
B|1-111-1---8---6-|--6-6-6-6-6-6-6-|
G|2-222-2---9---7-|--7-7-7-7-7-7-7-|
D|2-222-2---7---7-|--7-7-7-7-7-7-7-|
A|0-000-0---0---0-|--0-0-0-0-0-0-0-| Play
E|----------------|----------------| 4 times

E|----------------|----------------|
B|------5-------8-|------8-------6-|
G|----4-------9---|----7-------7---|
D|--2-------9-----|--7-------7-----|
A|0-------0-------|0-------0-------| Play
E|----------------|----------------|4 times

E|0-0-0-0-0---0---|3-3-3-0-3---3---|2-2-2-0-2---2---|1-1-1-1-0-0-0-0-|
B|1-1-1-0-1---1---|1-1-1-0-1---1---|1-1-1-0-1---1---|1-1-1-1-0-0-0-0-|
G|2-2-2-0-2---2---|0-0-0-0-0---0---|2-2-2-0-2---2---|2-2-2-2-1-1-1-1-|
D|2-2-2---2---2---|2-2-2---2---2---|0-0-0---0---0---|3-3-3-3-2-2-2-2-|
A|0-0-0---0---0---|----------------|----------------|3-3-3-3-2-2-2-2-|
E|----------------|3-3-3---3---3---|2-2-2---2---2---|1-1-1-1-0-0-0-0-|
 |                                                                   | Play 4 times
E|----------------|----------------|----------------|----------------|
B|----------------|----------------|----------------|----------------|
G|----------------|----------------|----------------|----------------|
D|7-7-7---7---7---|--5-5---5---5---|--4-4---4---4---|--3-3---2---2---|
A|7-7-7---7---7---|--5-5---5---5---|--4-4---4---4---|--3-3---2---2---|
E|5-5-5-0-5---5---|0-3-3-0-3---3---|0-2-2-0-2---2---|0-1-1-0-0---0---|

E|1-1-1-1-1---1---|0-0-0-0-0-0-0-0-|1-1-1-1-1---1---|0-0-0-0-0-0-0-0-|
B|1-1-1-1-1---1---|0-0-0-0-0-0-0-0-|1-1-1-1-1---1---|0-0-0-0-0-0-0-0-|
G|2-2-2-2-2---2---|1-1-1-1-1-1-1-1-|2-2-2-2-2---2---|1-1-1-1-1-1-1-1-|
D|3-3-3-3-3---3---|2-2-2-2-2-2-2-2-|3-3-3-3-3---3---|2-2-2-2-2-2-2-2-|
A|3-3-3-3-3---3---|2-2-2-2-2-2-2-2-|3-3-3-3-3---3---|2-2-2-2-2-2-2-2-|
E|1-1-1-1-1---1---|0-0-0-0-0-0-0-0-|1-1-1-1-1---1---|0-0-0-0-0-0-0-0-|
 |                                                                   |
E|----------------|----------------|----------------|----------------|
B|----------------|----------------|----------------|----------------|
G|----------------|----------------|----------------|----------------|
D|3-3-3---3---3---|2-2-2-2-2---2---|3-3-3---3---3---|2-2-2-2-2---2---|
A|3-3-3---3---3---|2-2-2-2-2---2---|3-3-3---3---3---|2-2-2-2-2---2---|
E|1-1-1-0-1---1---|0-0-0-0-0---0---|1-1-1-0-1---1---|0-0-0-0-0---0---|

E|0-000-0---0---0-|--0-0-0-0-0-0-0-|
B|1-111-1---8---6-|--6-6-6-6-6-6-6-|
G|2-222-2---9---7-|--7-7-7-7-7-7-7-|
D|2-222-2---7---7-|--7-7-7-7-7-7-7-|
A|0-000-0---0---0-|--0-0-0-0-0-0-0-| Play
E|----------------|----------------| 4 times

E|----------------|----------------|------------0-1-|3-1-010----0----|
B|----------------|----------------|----------------|--------3-----3-|
G|----------------|----------------|----------------|----------------|
D|----------------|----------------|----------------|----------------|
A|----------------|----------------|----------------|----------------|
E|----------------|----------------|----------------|----------------|
 |                                            \--3-/ \--3---/\--3---/|
E|------0---------|----------------|----------------|----------------|
B|----1---------1-|------3-------1-|------3-------1-|------1-------0-|
G|------------2---|----0-------0---|----2-------2---|----2-------1---|
D|--2-------2-----|--2-------2-----|--0-------0-----|--3-------2-----|
A|0-------0-------|----------------|----------------|----------------|
E|----------------|3-------3-------|2-------2-------|1-------0-------|

E|----------------|----------------|------0---------|----------------|
B|1310------------|---1------------|0-1-3---3310-10-|----------------|
G|-------2-2------|--2-----------2-|---------------2|420-------------|
D|----------------|----------------|----------------|----320-0-------|
A|----------------|----------------|----------------|---------32-232-|
E|----------------|----------------|----------------|----------------|
 |\3/                                            \3/ \3/ \3/ \3/ \3/ |
E|------0---------|----------------|----------------|----------------|
B|----1---------1-|------3-------1-|------3-------1-|------1-------0-|
G|------------2---|----0-------0---|----2-------2---|----2-------1---|
D|--2-------2-----|--2-------2-----|--0-------0-----|--3-------2-----|
A|0-------0-------|----------------|----------------|----------------|
E|----------------|3-------3-------|2-------2-------|1-------0-------|

E|------3-------1-|------1-------0-|------0---------|------0-------0-|
B|----------------|----0-----------|--------------3-|----------------|
G|----2-------2---|------------0---|----2-------2---|----2-------1---|
D|--2-------2-----|--0-------0-----|--4-------4-----|--3-------2-----|
A|0-------0-------|----------------|----------------|----------------| Play
E|----------------|3-------3-------|2-------2-------|1-------0-------| 4 times
  I know.....      I know.....

E|0-0-0-0-0---0---|3-3-3-0-3---3---|2-2-2-0-2---2---|1-1-1-1-0-0-0-0-|
B|1-1-1-0-1---1---|1-1-1-0-1---1---|1-1-1-0-1---1---|1-1-1-1-0-0-0-0-|
G|2-2-2-0-2---2---|0-0-0-0-0---0---|2-2-2-0-2---2---|2-2-2-2-1-1-1-1-|
D|2-2-2---2---2---|2-2-2---2---2---|0-0-0---0---0---|3-3-3-3-2-2-2-2-|
A|0-0-0---0---0---|----------------|----------------|3-3-3-3-2-2-2-2-|
E|----------------|3-3-3---3---3---|2-2-2---2---2---|1-1-1-1-0-0-0-0-|
 |                                                                   | Play 4 times
E|----------------|----------------|----------------|----------------|
B|----------------|----------------|----------------|----------------|
G|----------------|----------------|----------------|----------------|
D|7-7-7---7---7---|--5-5---5---5---|--4-4---4---4---|--3-3---2---2---|
A|7-7-7---7---7---|--5-5---5---5---|--4-4---4---4---|--3-3---2---2---|
E|5-5-5-0-5---5---|0-3-3-0-3---3---|0-2-2-0-2---2---|0-1-1-0-0---0---|

E|------0---------|----------------|----------------|----------------|
B|----1---------1-|------3-------1-|------3-------1-|------1-------0-|
G|------------2---|----0-------0---|----2-------2---|----2-------1---|
D|--2-------2-----|--2-------2-----|--0-------0-----|--3-------2-----|
A|0-------0-------|----------------|----------------|----------------|
E|----------------|3-------3-------|2-------2-------|1-------0-------|

E|------1715171517|(17)------------|----------------|----------------|
B|----------------|----------------|----------------|-108108108108108|
G|----------------|----------------|----------------|----------------|
D|----------------|----------------|----------------|----------------|
A|----------------|----------------|----------------|----------------|
E|----------------|----------------|----------------|----------------|
 |                                                                   |
E|------3---------|----------------|----------------|----------------|
B|----1---------1-|------3-------1-|------3-------1-|------1-------0-|
G|------------2---|----0-------0---|----2-------2---|----2-------1---|
D|--2-------2-----|--2-------2-----|--0-------0-----|--3-------2-----|
A|0-------0-------|----------------|----------------|----------------|
E|----------------|3-------3-------|2-------2-------|1-------0-------|

E|--8-------------|----------------|----------------|----------------|
B|10-10-----------|----------------|--------------10|12------12101210|
G|----------------|----------------|----------------|----------------|
D|----------------|----------------|----------------|----------------|
A|----------------|----------------|----------------|----------------|
E|----------------|----------------|----------------|----------------|
 |                                                                   |
E|------3---------|----------------|----------------|----------------|
B|----1---------1-|------3-------1-|------3-------1-|------1-------0-|
G|------------2---|----0-------0---|----2-------2---|----2-------1---|
D|--2-------2-----|--2-------2-----|--0-------0-----|--3-------2-----|
A|0-------0-------|----------------|----------------|----------------|
E|----------------|3-------3-------|2-------2-------|1-------0-------|

E|----------------|----------------|----------------|----------------|
B|1210------------|(10)------------|----------------|----------------|
G|----------------|----------------|----------------|----------------|
D|----------------|----------------|----------------|----------------|
A|----------------|----------------|----------------|----------------|
E|----------------|----------------|----------------|----------------|
 |                                                                   |
E|------3---------|----------------|----------------|----------------|
B|----1---------1-|------3-------1-|------3-------1-|------1-------0-|
G|------------2---|----0-------0---|----2-------2---|----2-------1---|
D|--2-------2-----|--2-------2-----|--0-------0-----|--3-------2-----|
A|0-------0-------|----------------|----------------|----------------|
E|----------------|3-------3-------|2-------2-------|1-------0-------|

E|0-0-0-0-0---0---|3-3-3-0-3---3---|2-2-2-0-2---2---|1-1-1-1-0-0-0-0-|
B|1-1-1-0-1---1---|1-1-1-0-1---1---|1-1-1-0-1---1---|1-1-1-1-0-0-0-0-|
G|2-2-2-0-2---2---|0-0-0-0-0---0---|2-2-2-0-2---2---|2-2-2-2-1-1-1-1-|
D|2-2-2---2---2---|2-2-2---2---2---|0-0-0---0---0---|3-3-3-3-2-2-2-2-|
A|0-0-0---0---0---|----------------|----------------|3-3-3-3-2-2-2-2-|
E|----------------|3-3-3---3---3---|2-2-2---2---2---|1-1-1-1-0-0-0-0-|
 |                                                                   | Play 4 times
E|----------------|----------------|----------------|----------------|
B|----------------|----------------|----------------|----------------|
G|----------------|----------------|----------------|----------------|
D|7-7-7---7---7---|--5-5---5---5---|--4-4---4---4---|--3-3---2---2---|
A|7-7-7---7---7---|--5-5---5---5---|--4-4---4---4---|--3-3---2---2---|
E|5-5-5-0-5---5---|0-3-3-0-3---3---|0-2-2-0-2---2---|0-1-1-0-0---0---|

E|----------------|----710-8--787--|7---------------|----------------|
B|----------------|---8----------10|-1087-----------|----------------|
G|----------------|--9-------------|----------------|--7--5--4-5-4-2-|
D|----------------|----------------|----------------|----------------|
A|----------------|----------------|----------------|----------------|
E|----------------|----------------|----------------|----------------|
 |            \-3/ \-3/             \--3---/                         |
E|------0---------|----------------|----------------|----------------|
B|----1---------1-|------3-------1-|------3-------1-|------1-------0-|
G|------------2---|----0-------0---|----2-------2---|----2-------1---|
D|--2-------2-----|--2-------2-----|--0-------0-----|--3-------2-----|
A|0-------0-------|----------------|----------------|----------------|
E|----------------|3-------3-------|2-------2-------|1-------0-------|

E|----------------|----------------|----------------|----------------|
B|----------------|-------5---5-531|2---------3-5-4-|3-----311-1---3-|
G|4---------------|----------------|----------------|----------------|
D|--2-------------|----------------|----------------|----------------|
A|----------------|----------------|----------------|----------------|
E|----------------|----------------|----------------|----------------|
 |                              \3/           \--3-/                 |
E|------3---------|----------------|----------------|----------------|
B|----1---------1-|------3-------1-|------3-------1-|------1-------0-|
G|------------2---|----0-------0---|----2-------2---|----2-------1---|
D|--2-------2-----|--2-------2-----|--0-------0-----|--3-------2-----|
A|0-------0-------|----------------|----------------|----------------|
E|----------------|3-------3-------|2-------2-------|1-------0-------|

E|----------------|----------------|----------------|----------------|
B|1---------------|----------------|----------------|----------------|
G|-2--------------|------------0---|0---------------|------0-----0---|
D|--2-------------|------0---2---2-|--2-------------|--0-2-----2--20-|
A|----------------|--0-3-----------|----------------|---------------3|
E|----------------|----------------|----------------|----------------|
 |\3/                        \--3-/                               \3/|
E|------3---------|----------------|----------------|----------------|
B|----1---------1-|------3-------1-|------3-------1-|------1-------0-|
G|------------2---|----0-------0---|----2-------2---|----2-------1---|
D|--2-------2-----|--2-------2-----|--0-------0-----|--3-------2-----|
A|0-------0-------|----------------|----------------|----------------|
E|----------------|3-------3-------|2-------2-------|1-------0-------|

E|----------------|     |-------710------| Play 8   |108-787---7-----|
B|----------------|     |------8---------| times    |--------10-10878|
G|----------------|     |-----9----------| during   |----------------|
D|0---------------|     |----------------| these    |----------------|
A|-30-------------|     |----------------| two      |----------------|
E|----------------|     |----------------| measures |----------------|
 |                               \3/                      \3/\-3-/\3/|
E|------3---------|----------------|----------------|----------------|
B|----1---------1-|------3-------1-|------3-------1-|------1-------0-|
G|------------2---|----0-------0---|----2-------2---|----2-------1---|
D|--2-------2-----|--2-------2-----|--0-------0-----|--3-------2-----|
A|0-------0-------|----------------|----------------|----------------|
E|----------------|3-------3-------|2-------2-------|1-------0-------|

E|----------------|----------------|----------------|----------------|
B|(8)---10--------|----------10-10-|10--------------|----------------|
G|----------------|----------------|----------------|----------------|
D|----------------|----------------|----------------|----------------|
A|----------------|----------------|----------------|----------------|
E|----------------|----------------|----------------|----------------|
 |                            \-3-/                                  |
E|----0-----------|----------------|----------------|----------------|
B|------1-------1-|------3-------1-|------3-------1-|------1-------0-|
G|------------2---|----0-------0---|----2-------2---|----2-------1---|
D|--2-------2-----|--2-------2-----|--0-------0-----|--3-------2-----|
A|0-------0-------|----------------|----------------|----------------|
E|----------------|3-------3-------|2-------2-------|1-------0-------|

E|0-0-0-0-0---0---|3-3-3-0-3---3---|2-2-2-0-2---2---|1-1-1-1-0-0-0-0-|
B|1-1-1-0-1---1---|1-1-1-0-1---1---|1-1-1-0-1---1---|1-1-1-1-0-0-0-0-|
G|2-2-2-0-2---2---|0-0-0-0-0---0---|2-2-2-0-2---2---|2-2-2-2-1-1-1-1-|
D|2-2-2---2---2---|2-2-2---2---2---|0-0-0---0---0---|3-3-3-3-2-2-2-2-|
A|0-0-0---0---0---|----------------|----------------|3-3-3-3-2-2-2-2-|
E|----------------|3-3-3---3---3---|2-2-2---2---2---|1-1-1-1-0-0-0-0-|
 |                                                                   | Play 4 times
E|----------------|----------------|----------------|----------------|
B|----------------|----------------|----------------|----------------|
G|----------------|----------------|----------------|----------------|
D|7-7-7---7---7---|--5-5---5---5---|--4-4---4---4---|--3-3---2---2---|
A|7-7-7---7---7---|--5-5---5---5---|--4-4---4---4---|--3-3---2---2---|
E|5-5-5-0-5---5---|0-3-3-0-3---3---|0-2-2-0-2---2---|0-1-1-0-0---0---|

  Freetime
E|1---------------|(1)-------------|0---------------|(0)-------------|
B|1---------------|(1)-------------|0---------------|(0)-------------|
G|2---------------|(2)-------------|1---------------|(1)-------------|
D|3---------------|(3)-------------|2---------------|(2)-------------|
A|3---------------|(3)-------------|2---------------|(2)-------------|
E|1---------------|(1)-------------|0---------------|(0)-------------|
        that's            when it's calling me

B|1---------------|(1)-------------|0---------------|----------------|
B|1---------------|(1)-------------|0---------------|----------------|
G|2---------------|(2)-------------|4---42424----242|4---------------|
A|3---------------|(3)-------------|2---------------|2---------------|
A|3---------------|(3)-------------|2---------------|2---------------|
E|1---------------|(1)-------------|0---------------|0---------------|
          I        said that's when it's calling me              back

E|----------------|----------------|----------------|----------------|
B|10--10--10--10--|10--10--10--10--|10--10--10--10--|10--10--10--10--|
G|9---9---9---9---|8---8---8---8---|7---7---7---7---|7---7---7---7---|
D|----------------|----------------|----------------|----------------|
A|----------------|----------------|----------------|--------------0-|
E|9---9---9---9---|8---8---8---8---|7---7---7---7---|6---6---6---6---|
 |                                                                   |
E|----------------|----------------|----------------|----------------|
B|------------10--|------------10--|------------10--|------------10--|
G|--------9-------|--------8-------|--------7-------|--------7-------|
D|----7-----------|----7-----------|----7-----------|----7-----------|
A|----------------|----------------|----------------|----------------|
E|----------------|----------------|----------------|----------------|
  home.....

E|------0-------0-|--------0-------||
B|--0-------0-----|--0-----0-------||
G|-5---5---5---5--|-5------5-------||
D|7---7---7---7---|7-------7-------||
A|---0---0---0---0|--------0-------||
E|----------------|----------------||



You Shook Me:



Standard Tuning

E|----------------12--1210|12----107---------------|
B|------------------------|----------108-----------|
G|------------------------|--------------9---4-----|
D|------------------------|------------------------|
A|------------------------|------------------------|
E|------------------------|------------------------|

E|----1212--111210------------|------------------------|
B|----------------121012108-9-|----------9--8----------|
G|----------------------------|9-------9---9-----11-9-8|
D|----------------------------|------9-----------------|
A|----------------------------|------------------------|
E|----------------------------|------------------------|
                                         \3/        \3/

E|------------------------||------------------------|
B|------9-----434---------||------------------------|
G|9-----9-----434---------||------------------------|
D|------9-----434---------||------------------------|
A|------------------------||------------------------|
E|----------------0-5---3-||0---0-0---0-0---0-5-5-3-|
                   You know you shook me.....

E|------------------------|------------------------|
B|------------------------|------------------------|
G|------7-9-12------9---7-|---6--5--4--3-----------|
D|----9-------------------|------------------------|
A|------------------------|------------------------|
E|0-----------------------|----------------0-5---3-|

E|------------------------|------------------------|
B|------------------------|------------------------|
G|------------------7-9-12|------9---7-----9---7-5-|
D|----------------9-------|------------------------|
A|------------------------|------------------------|
E|0---0-0---0-0-----------|------------------------|

E|------------------------|------------------------|
B|---9--------------------|------------------------|
G|3-----7-9-12------9---7-|---6--5--4--3-----------|
D|----9-------------------|------------------------|
A|------------------------|------------------------|
E|------------------------|----------------0-5---3-|

E|------------------------|------------------------|
B|------------------------|--------16--------------|
G|----------------1616--14|16--------1614--12----9-|
D|------------------------|------------------------|
A|------------------------|------------------------|
E|0---0-0---0-0-----------|------------------------|

E|----12----101210------------|------------------------|
B|----------------121012108-9-|----------9-------------|
G|----------------------------|9-------9---912---9-11--|
D|----------------------------|------9-----------------|
A|----------------------------|------------------------|
E|----------------------------|------------------------|
                                         \3/

E|------------------------|------------------------|
B|------9---434---2-------|------------------------|
G|9---7-9---434---2-------|------------------------|
D|----7-9---434---2-------|------------------------|
A|------------------------|------------------------|
E|----------------0-5---3-|0---0-0---0-0---0-5---3-|
                  I have a bird that whistles.....

E|------------------------|------------------------|
B|--9---------------------|------------------------|
G|--9---7-9-1112----79--7-|---6--5--4--3-----------|
D|----9-------------------|------------------------|
A|------------------------|------------------------|
E|0-----------------------|----------------0-5---3-|

E|------------------------|------------------------|
B|------------------------|------------------------|
G|------------------7-9-12|------7-9-7----9----7-5-|
D|----------------9-------|------------------------|
A|------------------------|------------------------|
E|0---0-0---0-0-----------|------------------------|

E|------------------------|------------------------|
B|------------------------|------------------------|
G|3-9---7-9-12------9---7-|---6--5--4--3-----------|
D|----9-------------------|------------------------|
A|------------------------|------------------------|
E|------------------------|----------------0-5---3-|

E|------------------------|--------12--------------|
B|----------------10121210|12----9-1212108---------|
G|------------------------|------------------------|
D|------------------------|------------------------|
A|------------------------|------------------------|
E|0---0-0---0-0-----------|------------------------|

E|----2424--22242219171917----|----------------------------|
B|------------------------1721|----------21--20----19--1716|
G|----------------------------|21------21--21--------------|
D|----------------------------|------21--------------------|
A|----------------------------|----------------------------|
E|----------------------------|----------------------------|

                            Organ Solo
E|------16171819------12--||------------------------|
B|17----------------12--12||------------------------|
G|------------------------||------------------------|
D|------------------------||------------------------|
A|------------------------||------------------------|
E|------------------------||0---0-0---0-0---0-5---3-|

E|------------------------|------------------------|
B|------------------------|------------------------|
G|------------------------|------------------------|
D|------------------------|------------------2-----|
A|2---2-4---4-2---0-7---5-|2---2-4---4-2---2-0---5-|
E|0---0-0---0-0---0-5---3-|0---0-0---0-0---0-----3-|

E|------------------------|------------------------|
B|------------------------|------------------------|
G|------------------------|------------------------|
D|------------------------|------------------------|
A|2---2-4---4-2---2-7---5-|7---7-9---9-7-----7---5-|
E|0---0-0---0-0---0-5---3-|5---5-5---5-5---0-5---3-|

E|------------------------|------------------------|
B|------------------------|------------------------|
G|------------------------|------------------------|
D|------------------------|------------------------|
A|7---7-9---9-7---2-7---5-|2---2-4---4-2---2-7---5-|
E|5---5-5---5-5---0-5---3-|0---0-0---0-0---0-5---3-|

E|------------------------|------0-----------------|
B|------------------------|----------0-----0---0---|
G|------------------------|--------2---2---2-2---2-|
D|------------------------|------------------------|
A|2---2-7---7-2---2-2---0-|2---2-2-----------------|
E|0---0-5---5-0---0-0-4---|------------------------|

E|------------------------|------------------------|
B|------------2---2-2---2-|------------------------|
G|------------------------|--------1-----2-----3---|
D|----------2-5---5-2---2-|------------------------|
A|0---0-3-4-----------4---|------2---2-3---3-4---4-|
E|------------------------|0---0-------------------|

E|------------------------|------------------------|
B|------------------0---0-|------------------------|
G|4-------------------2---|------------------------|
D|------------------------|------------------------|
A|5---5---0-1-2---2-2-----|2---2-4---4-2---2-7---5-|
E|------4-----------------|0---0-0---0-0---0-5---3-|

E|------------------------|------------------------|
B|------------------2---0-|------------------2---0-|
G|------------------2---0-|------------------2---0-|
D|------------------2---0-|------------------2---0-|
A|2---2-----2-------0-----|2---2-----2-------0-----|
E|0---0-----0-----------3-|0---0-----0-----------3-|

E|------------------------|------------------------|
B|2-----2-----------------|2---------------------0-|
G|2-----2-----------------|2---------------2-2---0-|
D|2-----2---2-----2-2-----|2-----2---2-2---2-2---0-|
A|0-----0---2-----2-2---5-|0---0-----0-0---0-0-----|
E|----0-----0-----0-0---3-|------------------------|

E|------------------------|------------------------|
B|------------------------|------------------2---0-|
G|2---------0-0-----2---0-|------------------2---0-|
D|2-----2---2-2---2-2---0-|------------------2---0-|
A|0---0-0---0-0---0-0-----|2---2-2---2-2---2-0-----|
E|----------------------3-|0---0-0---0-0---0-----3-|

E|------------------------|--------------------------|
B|------------------------|------0-------0--0--0---0-|
G|------------------------|----------2--2--2--2--2---|
D|2---2-2---2-2---2-------|4---4------4--------------|
A|2---2-2---2-2---2---0-1-|2---2---------------------|
E|0---0-0---0-0---0-4-----|--------------------------|
                                   \3/\3/   \3/

E|------------------------|------------------------|
B|------------------------|--------9-----8-----7---|
G|------------------------|------------------------|
D|----------2-5---5-2---2-|2---2-9---9-8---8-7---7-|
A|0---0-3-4-----------4---|------------------------|
E|------------------------|------------------------|

                              Guitar Solo
E|--------------------------||------------------------|
B|----------------------1413||------1715--------------|
G|--------------------13----||14--15------------161413|
D|6-----------------14------||------------------------|
A|--------------------------||------------------------|
E|------4-5-6---------------||------------------------|

E|--------------------------|------------------17--16|
B|--------------------------|------15----17----------|
G|1413------13--------131413|16----------------------|
D|------------1412--14------|------------------------|
A|--------------------------|------------------------|
E|--------------------------|------------------------|

E|------------16--15121212|21--191817-------------------------19--19--|
B|------------------------|-----------201917--172017--17--1721--19--19|
G|------------------------|-----------------18------18--18------------|
D|------------------------|-------------------------------------------|
A|------------------------|-------------------------------------------|
E|------------------------|-------------------------------------------|

E|-------------------------------19--21191817------------|
B|201920192019211917--17--171921---17--------2019171917--|
G|------------------18--18-----------------------------18|
D|-------------------------------------------------------|
A|-------------------------------------------------------|
E|-------------------------------------------------------|

E|---------19----------------------------------|
B|17--1721---1921--20192019201917--171917191719|
G|--18---------------------------18------------|
D|---------------------------------------------|
A|---------------------------------------------|
E|---------------------------------------------|

E|----------------------12|17171512--12----------------|
B|------19--19--19--1214--|--------15--151215141214----|
G|18--18--18--18--18------|------------------------14--|
D|------------------------|----------------------------|
A|------------------------|----------------------------|
E|------------------------|----------------------------|

E|-------------------------------------------------|
B|-------------------------------15----------------|
G|----1618--141614161412--12--16---161412--12------|
D|--14------------------14--14-----------14--141214|
A|16-----------------------------------------------|
E|-------------------------------------------------|

E|------------------------|------------------------||
B|------------------------|------------------------||
G|------------------------|------------------------||
D|1214----14----14----14--|----------149-----------||
A|------14--1413--1212--12|11----------------2-----||
E|------------------------|--------------------5-3-||

E|------------------------|------------------------|
B|------------------------|------------------------|
G|------------------------|------7-9-12------9---7-|
D|------------------------|----9-------------------|
A|------------------------|------------------------|
E|0---0-0---0-0---0-5-5-3-|0-----------------------|
  You know you shook me baby.....

E|------------------------|------------------------|
B|------------------------|------------------------|
G|---6--5--4--3-----------|----------------9-7-9-12|
D|------------------------|------------------------|
A|------------------------|------------------------|
E|----------------0-5---3-|0---0-0---0-0-----------|

E|------------------------|------------------------|
B|------------------------|---9--------------------|
G|------9---7-----9---7-5-|3-----7-9-12------9---7-|
D|------------------------|----9-------------------|
A|------------------------|------------------------|
E|------------------------|------------------------|

E|------------------------|------------------------------|
B|------------------------|------------------------------|
G|---6--5--4--3-----------|----------------12121012101210|
D|------------------------|------------------------------|
A|------------------------|------------------------------|
E|----------------0-5---3-|0---0-0---0-0-----------------|

E|------------17--15----14|12----------------------|
B|12----16--17------------|------------19--20----19|
G|--------16--------------|------------------------|
D|------------------------|------------------------|
A|------------------------|------------------------|
E|------------------------|------------------------|

E|----------------------------|--------------------------|
B|1917151715--191917151715--19|1917151715----23----1717--|
G|----------------------------|--------------------------|
D|----------------------------|--------------------------|
A|----------------------------|--------------------------|
E|----------------------------|--------------------------|

E|------------------------|------------------------|
B|------------2321232123--|1717--------------------|
G|------------------------|------------------------|
D|------------------------|------------------------|
A|------------------------|------------------------|
E|------------------------|------------------------|

E|------------------------|------------------------|
B|12----------------------|(12)--------------------|
G|1615161516--------------|(16)--------------------|
D|------------------------|------------------------|
A|------------------------|------------------------|
E|------------------------|------------------------|

E|------------------------|------------------------|
B|(12)--------------------|(12)--------------------|
G|(16)--------------------|(16)--------------------|
D|------------------------|------------------------|
A|------------------------|------------------------|
E|------------------------|------------------------|

E|------------------------|------------------------|
B|------------------------|------------------------|
G|------------------------|------------------------|
D|------------------------|------------------------|
A|------------------------|------------------------|
E|------------------------|------------------------|

E|--------------------1214|15141514151412--12------|
B|----------------1214----|--------------14--------|
G|------------------------|-------------------2----|
D|------------------------|-------------------1----|
A|------------------------|-------------------3----|
E|------------------------|------------------01----|

E|------------------------|------------------------|
B|------------------------|------------------------|
G|1-----------------------|(1)---------------------|
D|0-----------------------|(0)---------------------|
A|2-----------------------|(2)---------------------|
E|0-----------------------|(0)---------------------|



Dazed And Confused:



Standard Tuning

  12/8 time            ~~~ ~~~~~~~~~~~~~~~~~~~~~ ~~
E|--------------------------|-<12>----------------------|
B|---------------------<12>-|-----------------------<5>-|
G|--------------------------|---------------------------|
D|--------------------------|---------------------------|
A|--------------------------|---------------------------|
E|--------------------------|---------------------------|

  ~~~~~~~~~~~~~~~~~~~~~
E|-<5>-----------------------|------------------------|
B|---------------------------|------------------------|
G|------------------------12-|12---12--12----12-------|
D|---------------------------|------------------------|
A|---------------------------|------------------------|
E|---------------------------|------------------------|

      ~~~~~~~~~~~~~~~~~~~~~~~~~~~~~~~~~~~~~~~~~~~~~
E|------<12>----------<5>-------|------------------------|
B|----<12>----------<5>-----<5>-|------------------------|
G|------------------------------|<5>---------------------|
D|------------------------------|------------------------|
A|------------------------------|------------------------|
E|------------------------------|------------------------|

             ~~~~~~~~~~~~~
E|------------------------|------------------------|
B|12---------12-----------|------------------------|
G|12---------12-----------|------------------------|
D|------------------------|------------------------|
A|------------------------|------------------------|
E|------------------------|----------------------0-|

E|15----14----13----12----|------------------------|
B|------------------------|15----14----13----12----|
G|------------------------|------------------------|
D|------------------------|------------------------|
A|10----9-----8-----7-----|5-----4-----3-----2-----|
E|----------------------0-|----------------------0-|

E|15----14----13----12----|------------------------|
B|------------------------|15----14----13----12----|
G|------------------------|------------------------|
D|------------------------|------------------------|
A|10----9-----8-----7-----|5-----4-----3-----2-----|
E|----------------------0-|----------------------0-|

E|------------------------|------------------------|
B|------------------------|------------------------|
G|------------------------|------------------------|
D|------------------------|------------------------|
A|10----9-----8-----7-----|5-----4-----3-----2-----|
E|----------------------0-|----------------------0-|

                           9/8 time
E|------------------------|------------------|
B|------------------------|------------------|
G|------------------------|------------------|
D|------------------------|------------------|
A|10----9-----8-----7-----|5-----4-----3---2-|
E|----------------------0-|------------------|

  6/8 time
E|------------|------------|------------|------------|
B|------------|------------|------------|------------|
G|4-4-4---24--|4-4-4---24--|4-4-4---24--|4-4-4---24--|
D|4-4-4-24--24|4-4-4-24--24|4-4-4-24--24|4-4-4-24--24|
A|2-2-2-------|2-2-2-------|2-2-2-------|2-2-2-------|
E|------------|------------|------------|------------|

  12/8 time
E|------15----14----13----|12----------------------|
B|------------------------|------15----14----13----|
G|------------------------|------------------------|
D|2-----5-----4-----3-----|2-----------------------|
A|2-----------------------|------5-----4-----3-----|
E|0---0-------------------|----0-------------------|

E|------15----14----13----|12----------------------|
B|12----------------------|------15----14----13----|
G|------------------------|------------------------|
D|------5-----4-----3-----|2-----------------------|
A|2-----------------------|------5-----4-----3-----|
E|----0-------------------|----0-------------------|

E|------15----14----13----|12----------------------|
B|12----------------------|------15----14----13----|
G|------------------------|------------------------|
D|------5-----4-----3-----|2-----------------------|
A|2-----------------------|------5-----4-----3-----|
E|----0-------------------|----0-------------------|

E|------15----14----13----|12----------------------|
B|12----------------------|------15----14----12----|
G|------------------------|------------------------|
D|------5-----4-----3-----|2-----------------------|
A|2-----------------------|------5-----4-----2-----|
E|----0-------------------|----0-------------------|

  6/8 time
E|------------|------------|------------|------------|
B|------------|------------|------------|------------|
G|4-4-4---24--|4-4-4---24--|4-4-4---24--|4-4-4---24--|
D|4-4-4-24--24|4-4-4-24--24|4-4-4-24--24|4-4-4-24--24|
A|2-2-2-------|2-2-2-------|2-2-2-------|2-2-2-------|
E|------------|------------|------------|------------|

               (w/ bow)
E|------------|------------|------------|------------|
B|------------|------------|------------|------------|
G|44442-------|------------|------------|------------|
D|44442-------|------------|------------|------------|
A|22220-------|------------|------------|------------|
E|------------|3---0-------|3---0-------|3---0-------|

E|------------|------------|------------|------------|
B|------------|------------|------------|------------|
G|------------|------------|------------|------------|
D|------------|------------|------------|------------|
A|------------|------------|------------|------------|
E|7---10------|--7---------|7---10------|----------12|

E|------------|------------|------------|------------|
B|------------|------------|------------|------------|
G|------------|------------|------------|------------|
D|------------|------------|------------|------------|
A|------------|------------|------------|------------|
E|14-12101210-|----------12|14-12101210-|------------|

E|------------|------------|------------|------------|
B|------------|------------|------------|------------|
G|------------|------------|------------|------------|
D|------------|------------|------------|------------|
A|------------|------------|------------|------------|
E|-5----------|------------|------9-----|9-----------|

                            tremelo
E|------------|------------|14---10---12|------------|
B|------------|------------|14---10---12|------------|
G|------------|------------|------------|------------|
D|------------|------------|------------|------------|
A|------------|------------|------------|------------|
E|7-----------|1-----------|14----------|------------|

E|7---------10|14----------|7-----------|10----------|
B|7---------7-|12----------|7-----------|7-----------|
G|------------|------------|------------|------------|
D|------------|------------|------------|------------|
A|------------|------------|------------|------------|
E|------------|------------|------------|------------|

E|7-----------|10----------|7-----------|7-----------|
B|7-----------|7-----------|5-----------|5-----------|
G|------------|------------|------------|------------|
D|------------|------------|------------|------------|
A|------------|------------|------------|------------|
E|------------|------------|------------|------------|

E|10----------|12----121110|9-8-7-6-5-4-|3-2-1-1-----|
B|------------|------121110|9-8-7-6-5-4-|3-2-1-1-----|
G|------------|------------|------------|------------|
D|------------|------------|------------|------------|
A|------------|------------|------------|------------|
E|------------|------121110|9-8-7-6-5-4-|3-2-1-1-----|

E|1-----------|1-----------|1-----------|1-----------|
B|1-----------|1-----------|1-----------|1-----------|
G|------------|------------|------------|------------|
D|------------|------------|------------|------------|
A|------------|------------|------------|------------|
E|1-----------|1-----------|1-----------|1-----------|

               4/4 time
E|------------|----------------||----------------|----------------|
B|------------|----------------||----------------|----------------|
G|------------|----------------||----------------|----------------|
D|------------|----------------||----------------|----------------|
A|------------|----------------||----------------|----------------|
E|0-----------|----------------||----------------|----------------|

E|12--------------|----------------|----------------|----------------|
B|12--------------|----------------|----------------|----------------|
G|----------------|----------------|--------121412--|--------121412--|
D|----------------|----------------|----1214------14|----1214--------|
A|----------------|----------------|1214------------|1214------------|
E|----------------|----------------|----------------|----------------|

E|----------------|----------------|----------------|----------------|
B|----------------|--------------15|--------------14|--------------12|
G|--------121412--|--------1214--19|--------------18|--------------16|
D|----1214------14|----1214----0---|----------------|----------------|
A|1214------------|1214------------|----------------|----------------|
E|----------------|----------------|----------------|----------------|

E|----------------|----------------|----------------|----------------|
B|--------------10|--------------8-|--------7-------|5--------------8|
G|--------------14|--------------12|--------10------|9-------------12|
D|----------------|----------------|----------------|----------------|
A|----------------|----------------|----------------|----------------|
E|----------------|----------------|----------------|----------------|

E|----------------|----------------|----------------|----------------|
B|-------7--------|--------3-------|2---------------|------------0---|
G|----------------|--------6-------|5---------------|--------16----14|
D|----------------|----------------|----------------|----------------|
A|----------------|----------------|----------------|----------------|
E|----------------|----------------|----------------|----------------|

  /--3-\ /--3---\ /--3---\ /---3----\----------------------------------|
E|--------------------------------------------------------------1512---|
B|12--12-15-12-------12-15-12------1212-15-12-------12-15-12-12--------|
G|15-----------14-16----------14-14-----------14-16--------------------|
D|---------------------------------------------------------------------|
A|---------------------------------------------------------------------|
E|---------------------------------------------------------------------|

  /--3---\ /--3---\ /--3---\ /--3---\----------------------------------|
E|---15-12----15-12----15-12----15-12-----12-17-15-12----12------------|
B|12-------12-------12-------12-------121212----------15-151512--------|
G|-------------------------------------------------------------14------|
D|---------------------------------------------------------------------|
A|---------------------------------------------------------------------|
E|---------------------------------------------------------------------|

         /--3--\  /--3--\ /--3--\  /--3--\  /--3--\  /--3--\  /--3--\--|
E|---------------------------------------------------------------------|
B|---------------------------15----------------------------------------|
G|------12-14-12-14-12-14-17----17-14-12-14-12-------------------------|
D|---14----------------------------------------14-12-14-12-14-12----12-|
A|---------------------------------------------------------------14----|
E|---------------------------------------------------------------------|

               ~~~~~~~~~~~      /--3-\         /--3-\/--3-\------------|
E|---------------------------------------------------------------------|
B|---------------------------------------------------------------------|
G|-------------9----9-----7-977-76-6-5-6764643-4-2-204-2-0-------------|
D|1412------0----------------------------------------------------------|
A|---------------------------------------------------------------------|
E|---------------------------------------------------------------------|

  /-----3-----\--------------------------------------------------------|
E|---------------------------------------------------------------------|
B|---------------------------------------------------------------------|
G|---------------------------------------------------------------------|
D|0---0---2------0-2--0-2--0-2---0-0--23---------0-2-0-----------------|
A|---------------------------------------------------------------------|
E|---------------------------------------------------------------------|

                                            /--3-\
E|----------------------------------------------15--------------------|
B|------------------------------------------12------------------------|
G|--------------------------------------------------------------------|
D|3-----3-0-2---0-3---0-2---0-2-----0---------------------------------|
A|--------------------------------------------------------------------|
E|--------------------------------------------------------------------|

         /---3---\/---3---\--------------------------------------------|
E|-151512---15-------15-------15-1512---15--17-15-15--15-17---------17-|
B|-1212--12----12-12----12-12--------15--------------------------------|
G|---------------------------------------------------------------------|
D|---------------------------------------------------------------------|
A|---------------------------------------------------------------------|
E|---------------------------------------------------------------------|
               /---3---\/---3---\   /---3---\/---3--\/---3---\---------|
E|15-12----12----------------------------------------------------------|
B|------15---1512----------------------15------------------------------|
G|----------------14-12----12-14-12-16----14-14---12-14-12-------------|
D|----------------------14---------------------------------14----------|
A|---------------------------------------------------------------------|
E|---------------------------------------------------------------------|
                        /---3---\--------------------------------------|
E|---------------------------------------------------------------------|
B|------------------------------------------------20-----19-19-19------|
G|---------------------------------------------------------------------|
D|1213-12---12-12------------------------------------------------------|
A|-------14----12-14121412----10--12-10--------------------------------|
E|-------------------------12------------------------------------------|

                                                 /--3-\
E|---------------------21--191817-------------------------------------|
B|----15-15------18-18------------20-2017---17-20172017---17-20-------|
G|---------------------------------------19------------19-------------|
D|--------------------------------------------------------------------|
A|--------------------------------------------------------------------|
E|--------------------------------------------------------------------|

  /--3-\         /--3-\         /--3-\---------------------------------|
E|---------------------------------------------------------------------|
B|172017---17-20-172017---17-20-172017---17-20--22---21--22---21-22----|
G|------19-------------19-------------19-------------------------------|
D|---------------------------------------------------------------------|
A|---------------------------------------------------------------------|
E|---------------------------------------------------------------------|
                                       /--3-\
E|-----------------------------23--------------------23---------------|
B|---------21-22-20--17-17-17-------17-17--17-17-17-------------------|
G|--------------------------------------------------------------------|
D|----00--------------------------------------------------------------|
A|--------------------------------------------------------------------|
E|--------------------------------------------------------------------|

                                  /---3-\
E|--------------------------------------------------------------------|
B|--171717---17-22--------17-17-------17-----1515----15--15-----------|
G|--------------------------------0---17------------------------------|
D|--------------------------------------------------------------------|
A|--------------------------------------------------------------------|
E|--------------------------------------------------------------------|

                       /--3--\
E|----------------------------------------------------------------------------|
B|----------------------------------------------------------------------------|
G|15-12-12-----14-12---12---9--9---9---11--11-9-7-------6-----4---------------|
D|----------------------------------------------0-----------------------------|
A|----------------------------------------------------------------------------|
E|----------------------------------------------------------------------------|
  /--3-\    /--3-\    /--3-\    /--3-\            ~~~~/3\         /--3-\/-3-\-|
E|----------------------------------------------------------------------------|
B|------------------------------4-2-0-------------4---2420--------------------|
G|4-2-0-2---4-2-0-2---4-2-0-2---4-2-0-2---2-4---2-4---24200--20202------------|
D|----------------------------------------------------------------4-2-0-------|
A|----------------------------------------------------------------------4-2-0-|
E|----------------------------------------------------------------------------|

E|----------------|----------------|----------------|----------------|
B|9---------------|----------------|9-------------12|----------------|
G|9-------------7-|--6-------------|9-------------12|----------------|
D|9-------------7-|--7-------------|9-------------12|----------------|
A|7-------------5-|--7-------------|7-------------10|----------------|
E|0---------------|--5-------------|----------------|----------------|

E|----------------|----------------|----------------|----------------|
B|9---------------|----------------|9-------------12|----------------|
G|9-------------7-|--6-------------|9-------------12|----------------|
D|9-------------7-|--7-------------|9-------------12|----------------|
A|7-------------5-|--7-------------|7-------------10|----------------|
E|0---------------|--5-------------|----------------|----------------|

E|----------------|----------------|----------------|----------------|
B|9---------------|----------------|9-------------12|----------------|
G|9-------------7-|--6-------------|9-------------12|----------------|
D|9-------------7-|--7-------------|9-------------12|----------------|
A|7-------------5-|--7-------------|7-------------10|----------------|
E|0---------------|--5-------------|----------------|----------------|


  6/8 time
E|------------|------------|------------|------------|
B|------------|------------|------------|------------|
G|4-4-4---24--|4-4-4---24--|4-4-4---24--|4-4-4---24--|
D|4-4-4-24--24|4-4-4-24--24|4-4-4-24--24|4-4-4-24--24|
A|2-2-2-------|2-2-2-------|2-2-2-------|2-2-2-------|
E|------------|------------|------------|------------|

  12/8 time
E|15----14----13----12----|------------------------|
B|------------------------|15----14----13----12----|
G|------------------------|------------------------|
D|------------------------|------------------------|
A|10----9-----8-----7-----|5-----4-----3-----2-----|
E|----------------------0-|----------------------0-|

E|15----14----13----12----|------------------------|
B|------------------------|15----14----13----12----|
G|------------------------|------------------------|
D|------------------------|------------------------|
A|10----9-----8-----7-----|5-----4-----3-----2-----|
E|----------------------0-|----------------------0-|

E|------------------------|------------------------|
B|------------------------|------------------------|
G|------------------------|------------------------|
D|------------------------|------------------------|
A|10----9-----8-----7-----|5-----4-----3-----2-----|
E|----------------------0-|----------------------0-|

                           9/8 time
E|------------------------|------------------|
B|------------------------|------------------|
G|------------------------|------------------|
D|------------------------|------------------|
A|10----9-----8-----7-----|5-----4-----3---2-|
E|----------------------0-|------------------|

  6/8 time
E|------------|------------|------------|------------|
B|------------|------------|------------|------------|
G|4-4-4---24--|4-4-4---24--|4-4-4---24--|4-4-4---24--|
D|4-4-4-24--24|4-4-4-24--24|4-4-4-24--24|4-4-4-24--24|
A|2-2-2-------|2-2-2-------|2-2-2-------|2-2-2-------|
E|------------|------------|------------|------------|

E|------------|------------|------------|------------|
B|------------|------------|------------|------------|
G|99997-------|------------|------------|------------|
D|99997-------|77775-------|99997-------|121212129---|
A|77775-------|------------|------------|------------|
E|------------|55553-------|77775-------|101010107---|

            /3\        /3\    /3\       /3\    /3\       /3\    /3\
E|----------------|----------------|----------------|----------------|
B|----------------|----------------|----------------|----------------|
G|99997-----765---|----765----765--|----765----765--|----765----765--|
D|----------------|----------------|----------------|----------------|
A|77775-0000------|0000---0000-----|0000---0000-----|0000---0000-----|
E|----------------|----------------|----------------|----------------|

      /3\    /3\
E|----------------|------------|------------|------------|
B|----------------|------------|------------|------------|
G|----765----765--|77777-77777-|77777-77777-|77777-77777-|
D|----------------|77777-77777-|77777-77777-|77777-77777-|
A|----------------|55555-55555-|55555-55555-|55555-55555-|
E|----------------|------------|------------|------------|

E|------------|------------|
B|------------|------------|
G|77777-77779-|9-----------|
D|77777-77779-|9-----------|
A|55555-55557-|7-----------|
E|----------0-|0-----------|



Your Time Is Gonna Come:



Standard Tuning

   When guitar enters at 1:05
E|-----------3---0|---3---0--------|-----------3---0|---3---0--------|
B|----------3---3-|--3---3---------|----------3---3-|--3---3---------|
G|---------0---0--|-0---0----------|---------0---0--|-0---0----------|
D|0---------------|----------03-03-|0---------------|----------03-03-|
A|--------3-------|--------03------|--------3-------|--------03------|
E|----------------|----------------|----------------|----------------|

E|------2----3---0|---3---0--------|------2----3---0|---3---0--------|
B|----3-----3---3-|--3---3---------|----3-----3---3-|--3---3---------|
G|--2------0---0--|-0---0----------|--2------0---0--|-0---0----------|
D|0---------------|----------03-03-|0---------------|----------03-03-| Play 3 times
A|--------3-------|--------03------|--------3-------|--------03------|
E|----------------|----------------|----------------|----------------|

E|------2----3---0|---3---0--------|------5----7---5|---3---3---5---3||
B|----3-----3---3-|--3---3---------|----7-----5---5-|--5---5---3---3-||
G|--2------0---0--|-0---0----------|--7------6---6--|-5---5---4---4--||
D|0---------------|----------03-03-|0-------0---0---|0---0---0---0---||
A|--------3-------|--------03------|----------------|----------------||
E|----------------|----------------|----------------|----------------||

E|----2---3-2-0-2-|----3-3---------|2---2---3-2-0-2-|--333-----------|
B|----3---3-3-3-3-|----3-3---------|3---3---3-3-3-3-|--333-----------|
G|----2---2-2-2-2-|----0-0-000000-0|2---2---2-2-2-2-|--000---0-0-----|
D|-0--0---0-0-0-0-|0-0-----00000000|0---0---0-0-0-0-|--------0-0---00|
A|----------------|2-2-----------2-|0---------------|------------02--|
E|----------------|3-3-------------|----------------|3---------------|
  Your time is gonna come.....

E|----2-223-2-0-2-|----3-333333----|----2-223-2-0-2-|------3-3---3---|
B|3-3-3-333-3-3-3-|----3-333333----|3-3-3-333-3-3-3-|------3-3---3---|
G|2-2-2-222-2-2-2-|----0-000000---0|2-2-2-222-2-2-2-|------0-0---0---|
D|0-0-0-000-0-0-0-|0-0-----0000-000|0-0-0-000-0-0-0-|0---------------|
A|----------------|2-2---------202-|----------------|2---------------|
E|----------------|3-3---------3---|----------------|3---------------|
  Your time is gonna come.....

E|----------------|----------------||
B|----------------|333333333333-33-||
G|2222222200000000|000000000000-00-||
D|0000000022222222|000000000003-03-||
A|0000000033333333|2222222203------||
E|----------------|----------------||

E|------2----3---0|---3---0--------|------2----3---0|---3---0--------|
B|----3-----3---3-|--3---3---------|----3-----3---3-|--3---3---------|
G|--2------0---0--|-0---0----------|--2------0---0--|-0---0----------|
D|0---------------|----------03-03-|0---------------|----------03-03-| Play 3 times
A|--------3-------|--------03------|--------3-------|--------03------|
E|----------------|----------------|----------------|----------------|

E|------2----3---0|---3---0--------|------5----7---5|---3---3---5---3||
B|----3-----3---3-|--3---3---------|----7-----5---5-|--5---5---3---3-||
G|--2------0---0--|-0---0----------|--7------6---6--|-5---5---4---4--||
D|0---------------|----------03-03-|0-------0---0---|0---0---0---0---||
A|--------3-------|--------03------|----------------|----------------||
E|----------------|----------------|----------------|----------------||

E|----2---3-2-0-2-|----3-3---------|2---2---3-2-0-2-|--333-----------|
B|----3---3-3-3-3-|----3-3---------|3---3---3-3-3-3-|--333-----------|
G|----2---2-2-2-2-|----0-0-000000-0|2---2---2-2-2-2-|--000---0-0-----|
D|-0--0---0-0-0-0-|0-0-----00000000|0---0---0-0-0-0-|--------0-0---00|
A|----------------|2-2-----------2-|0---------------|------------02--|
E|----------------|3-3-------------|----------------|3---------------|
  Your time is gonna come.....

E|----2-223-2-0-2-|----3-333333----|----2-223-2-0-2-|3---3---3-3-3333|
B|3-3-3-333-3-3-3-|----3-333333----|3-3-3-333-3-3-3-|3---3---3-3-3333|
G|2-2-2-222-2-2-2-|----0-000000---0|2-2-2-222-2-2-2-|0---0---0-0-0000|
D|0-0-0-000-0-0-0-|0-0-----0000-000|0-0-0-000-0-0-0-|0---0---0-0-0000| Repeat chorus
A|----------------|2-2---------202-|----------------|2---2---2-2-2222| and fade
E|----------------|3-3---------3---|----------------|3---3---3-3-3333|
  Your time is gonna come.....



Black Mountainside:



DADGAD (low to high) Tuning

   D|-0----0----------------------|
   A|--------------2--------------|
 4 G|-0-h2--p0--------------0-----|    repeat 4X
 - D|-----------4-----------------|
 4 A|--------------2--------------|
   D|--------------------3-----0--|


D|-0----0-----------------0-----|-------|-0----0----------------0-----|
A|---------------2--------------|-------|-----0--------2--------------|
G|-0-h2---p0--------------------|---%---|-0-h2--p0-----------0--------|
D|------------4-----------------|-------|-----------4-----------------|
A|---------------2--------------|-------|--------------2--------------|
D|---------------------3-----0--|-------|--------------------3-----0--|


D|-0----0----------------0----|----0--2/4------/4----|-----4-----5--4--2---|
A|--------------2-------------|----------------------|-/5-----------0------|
G|-0-h2--p0-------------------|----------------------|-----------0---------|
D|-----------4----------------|----------------------|--0------------------|
A|--------------2-------------|----0--4/5------/5----|---------------------|
D|--------------------3-----0-|-0-----------0------0-|--------0----------0-|


  D|-0--h2p0-------   |--------------0-   |--------------0--------------|
  A|---------------   |---------0------   |------3----------3-------3---|
2 G|-0--h2p0------- 5 |---------------- 4 |------0-0--------0---0---0---|
- D|----------4--4- - |--0------------- - |------2----------2---0---2---|
4 A|--------------- 8 |---------------- 4 |-2/3-------3-------3---3---3-|
  D|---------------   |-----0----------   |-----------------------------|


  D|------------   |-0----0---------------------|-0----0---------------0----|
  A|----2---2---   |--------------2--------0----|--------------2-------0----|
2 G|----0---0--- 4 |-0-h2--p0-------------------|-0-h2--p0------------------|
- D|----0---0--- - |-----------4----------------|---------------------------|
4 A|--2---2----- 4 |----------0---2-------------|-----------0--2------------|
  D|----------0-   |--------------------3-----0-|-------------------3-----0-|


D|-0----0------------------|------------------|----------0--------|
A|-----0-------------------|------------------|----------0----/12-|
G|-0-h2--p0-----4--2-4--/7-|-----/7\--2-4-2-4-|(4)--4-4-----------|
D|-----------4--0-------/7-|-----/7\--0-2-0-5-|(5)--4-5-----------|
A|-----------0-----0-2-----|------------------|-------------------|
D|--------------5--------0-|----0-0-------0---|(0)-------0---0-0--|

D|----------0------0----   |--------------||
A|----------------------   |--------------||
G|-4--4--2--4-----/4---- 2 |--------------||
D|-5--5--4--5-----/5---- - |-4p2p0-0-2----||
A|---------------------- 4 |--------------||
D|-0--0---------0-----0-   |------------0-||


  D|-0----0---------------------|-0----0----------------0----|
  A|--------------2--------0----|--------------2--------0----|
4 G|-0-h2--p0-------------------|-0-h2--p0-------------------|
- D|-----------4----------------|-0---------4----------------|
4 A|--------------2-------------|-----------0--2-------------|
  D|--------------------3-----0-|--------------------3-----0-|


D|-0----0----------------0----|-0----0----------------0----|
A|--------------2-------------|--------------2-------------|
G|-0-h2--p0-------------------|-0-h2--p0-----------0-------|
D|-----------4----------------|-----------4----------------|
A|--------------2-------------|--------------2-------------|
D|--------------------3-----0-|--------------------3-----0-|


D|----0--2--/4-----/4----|-----4-----5-----4--2----   |-0----0---------|
A|-----------------------|-/5--------------0-------   |----------------|
G|-----------------------|-----------0------------- 2 |-0-h2--p0-------|
D|-----------------------|--0---------------------- - |-----------4--2-|
A|----0--4--/5-----/5----|------------------------- 4 |----------------|
D|-0-------------0-----0-|--------0--------------0-   |----------------|


  D|-------------0-   |-------------------------   |------------------|
  A|--------0------   |----3---3----3---3-------   |----2-----2-------|
5 G|--------------- 4 |----0---0-0--0---0-----0- 5 |----0-----0-------|
- D|-0------------- - |----2---2----0---2------- - |------------------|
8 A|--------------- 4 |2/3---3----3---3----3---- 8 |-2-----2-----2----|
  D|----0----------   |-------------------------   |----------------0-|


  D|-0----0----------------0----|-0----0----------------0-----|
  A|--------------2--------0----|--------------2--------0-----|
4 G|-0-h2--p0-------------------|-0-h2--p0--------------------|
- D|-----------4----------------|-----------4-----------------|
4 A|--------------2-------------|--------------2--------------|
  D|--------------------3-----0-|--------------------3-----0--|


D|-0----0--------------------|----------------------|
A|---------------------------|----------------------|
G|-0-h2--p0-----4---2--4--/7-|(7)---/7\--2--2--2--4-|
D|-----------4--0------0--/7-|(7)---/7\--0--4--0--5-|
A|-----------0---------------|----------------------|
D|--------------5----------0-|(0)-0--0--0-----0-----|


D|-----------0---------------|-------0--------------0-|
A|-----------0-------2-------|-2-----0----------------|
G|(4)--4--4-------------0----|----------------------0-|
D|(5)--4--5----------0-----0-|-------------0--2--4----|
A|-------------------2-------|-2----------------------|
D|(0)--------0----0----------|----3-----0-------------|


D|(0)-------0-------------------|------------------------0----|
A|----0-------------------------|------------2-----------0----|
G|(0)-------0----2p0------------|------------0--0-------------|
D|-------4------------2p0-----0-|(0)--0------0----------------|
A|-------------------------3-/5-|(5)-----5\--2-----2----------|
D|------------------------------|---------------------3-----0-|


D|-0----0----------------0----|-------|-0----0----------------0---|
A|--------------2-------------|-------|--------------2------------|
G|-0-h2--p0-------------------|---%---|-0-h2--p0------------------|
D|-----------4----------------|-------|-----------4---------------|
A|--------------2-------------|-------|-----------0--2------------|
D|--------------------3-----0-|-------|--------------------3------|

guitar solo:

D|-3p1p0-------------------/5--3-|-3p1p0--------------------------------|
A|--------3p1p0------------------|--------3p1p0-------------------------|
G|---------------//----//--------|---------------//----//--3p2p0--------|
D|-------------------------------|--------------------------------3p1p0-|
A|-------------------------------|--------------------------------------|
D|-------------------------------|--------------------------------------|

                                                                end of solo:
D|------------------------------------------|------------------------------|
A|------------------------------------------|------------------------------|
G|------------------------------------------|------------------------------|
D|-0-----0--0-----0--0-----0--0-----0--0----|-0-----------0-----0--0--0----|
A|---/5-------/5-------/5-------/5-------/5-|---/5--0-/5-----2-----------3-|
D|------------------------------------------|------------------------------|


D|-----0--2-/4--------/4----|----4-----5h7p5--4--2----   |-0---------------|
A|--------------------------|/5---------------0-------   |-----------------|
G|--------------------------|------------------------- 2 |-0----h2p0-------|
D|-----0--0-----------------|----------0-------------- - |------------4----|
A|----------/5--------/5----|/5----------------------- 4 |---------------2-|
D|-0------------0--0------0-|-------0---------------0-   |(0)--------------|


  D|-------------0-   |----------------------   |---------------|
  A|--------0----0-   |------3---3---3---3---   |---2---2-------|
5 G|--------------- 4 |------0---0---0---0--- 5 |---0---0-------|
- D|-0------------- - |------2---2---2---2--- - |---0---0-------|
8 A|--------------- 4 |-0/3----3---3---3---3- 8 |-2---2---------|
  D|----0----------   |----------------------   |----------0--0-|


  D|-0----0----------------0----|-------|-0----0--------------------|
  A|--------------2--------0----|-------|---------------------------|
4 G|-0-h2--p0-------------------|---%---|-0-h2--p0-----4----2--4-/7-|
- D|-----------4----------------|-------|-----------4--0-------0-/7-|
4 A|--------------2-------------|-------|-----------0---------------|
  D|--------------------3-----0-|-------|--------------5----------0-|


D|---------------------|----------0--------------|-------0--------------0-|
A|---------------------|----------0------2-------|-2-----0----------------|
G|(7)---/7\----2-2-2-4-|(4)-4--4------------0----|----------------------0-|
D|(7)---/7\----0-4-0-5-|(5)-4--5---------0-----0-|-------------0--2--4----|
A|---------------------|-----------------2-------|-2----------------------|
D|(0)-0--0-----0---0---|(0)-------0---0----------|----3-----0-------------|


D|(0)------0-----------------|----------------------------|
A|---0-----------------------|----------------------------|
G|(0)------0---2p0-----------|--------------0-------------|
D|------------------2p0----0-|(0)--0-----0-----0--0--0----|
A|------0----------------3/5-|(5)-----5--5----------------|
D|---------------------------|--------------------------0-|


D|-0----0----------------0----|-------|-0----0----------------0----|
A|--------------2-------------|-------|--------------2-------------|
G|-0-h2--p0-------------------|---%---|-0-h2--p0-------------------|
D|-----------4----------------|-------|-----------4----------------|
A|--------------2-------------|-------|--------------2-------------|
D|--------------------3-----0-|-------|--------------------3-----0-|


D|-0----0----------------0----|-0----0----------------0----|
A|-0------------2-------------|-0------------2-------------|
G|-0-h2--p0-------------------|-0-h2--p0-----------0-------|
D|-----------4----------------|-----------4----------------|
A|--------------2-------------|--------------2-----------0-|
D|--------------------3-----0-|--------------------3-----0-|



Communication Breakdown:



Standard Tuning

E|----------------|----------------|----------------|----------------|
B|----------------|--7-----5---7---|----------------|--7-----5---7---|
G|----------------|--7-----6---7---|----------------|--7-----6---7---|
D|----------------|--7-----7---7---|----------------|--7-----7---7---|
A|----------------|--5-----7---5---|----------------|--5-----7---5---|
E|0-0-0-0-0-0-0-0-|0-------5-------|0-0-0-0-0-0-0-0-|0-------5-------| 6X

E|--------------5-|--------------5-|--------------5-|----------------|
B|--------------5-|--------------5-|--------------5-|----------------|
G|--------------6-|--------------6-|--------------6-|----------------|
D|--------------7-|--------------7-|--------------7-|----------------|
A|7-7-9-7-7-9---7-|--7-9-7-7-9---7-|---7-9-7-7-9--7-|--7-9-7-7-7-9-7-|
E|5-5-5-5-5-5---5-|--5-5-5-5-5---5-|---5-5-5-5-5--5-|--5-5-5-5-5-5-5-|

E|--------------7-|--------------7-|--------------7-|----------------|
B|--------------7-|--------------7-|--------------7-|----------------|
G|--------------8-|--------------8-|--------------8-|----------------|
D|--------------7-|--------------7-|--------------7-|----------------|
A|9-9-119-9-9-119-|--9-119-9-9-119-|--9-119-9-9-119-|--9-119-9-9-11--|
E|7-7-7-7-7-7-7-7-|--7-7-7-7-7-7-7-|--7-7-7-7-7-7-7-|--7-7-7-7-7-7-0-|

E|----------------|----------------|----------------|----------------|
B|----------------|--7-----5---7---|----------------|--7-----5---7---|
G|----------------|--7-----6---7---|----------------|--7-----6---7---|
D|----------------|--7-----7---7---|----------------|--7-----7---7---|
A|----------------|--5-----7---5---|----------------|--5-----7---5---|
E|0-0-0-0-0-0-0-0-|0-------5-------|0-0-0-0-0-0-0-0-|0-------5-------| 5X

E|--------------5-|--------------5-|--------------5-|----------------|
B|--------------5-|--------------5-|--------------5-|----------------|
G|--------------6-|--------------6-|--------------6-|----------------|
D|--------------7-|--------------7-|--------------7-|----------------|
A|7-7-9-7-7-9---7-|--7-9-7-7-9---7-|---7-9-7-7-9--7-|--7-9-7-7-7-9-7-|
E|5-5-5-5-5-5---5-|--5-5-5-5-5---5-|---5-5-5-5-5--5-|--5-5-5-5-5-5-5-|

E|--------------7-|--------------7-|--------------7-|--7-------------|
B|--------------7-|--------------7-|--------------7-|--7-------------|
G|--------------8-|--------------8-|--------------8-|--8-------------|
D|--------------7-|--------------7-|--------------7-|--7-------------|
A|9-9-119-9-9-119-|--9-119-9-9-119-|--9-119-9-9-119-|--9-119-9-----57|
E|7-7-7-7-7-7-7-7-|--7-7-7-7-7-7-7-|--7-7-7-7-7-7-7-|--7-7-7-7-----57|

                                     Rhythm part under Guitar Solo
E|----------------|----------------||----------------|----------------|
B|9---------------|----------------||----------------|--7-----5---7---|
G|9---------------|----------------||9-9-9-9-9-9-9-9-|--7-----6---7---|
D|9---------------|----------------||9-9-9-9-9-9-9-9-|--7-----7---7---|
A|7---------------|----------------||7-7-7-7-7-7-7-7-|--5-----7---5---|
E|7---------------|----------------||0-0-0-0-0-0-0-0-|--------5-------| 7X

  Rhythm part under Outro Guitar part
E|--------------5-|--------------5-|--------------5-|----------------|
B|--------------5-|--------------5-|--------------5-|----------------|
G|--------------6-|--------------6-|--------------6-|----------------|
D|--------------7-|--------------7-|--------------7-|----------------|
A|7-7-9-7-7-9---7-|--7-9-7-7-9---7-|---7-9-7-7-9--7-|--7-9-7-7-7-9-7-|
E|5-5-5-5-5-5---5-|--5-5-5-5-5---5-|---5-5-5-5-5--5-|--5-5-5-5-5-5-5-|

E|--------------7-|--------------7-|--------------7-|----------------|
B|--------------7-|--------------7-|--------------7-|----------------|
G|--------------8-|--------------8-|--------------8-|----------------|
D|--------------7-|--------------7-|--------------7-|----------------|
A|9-9-119-9-9-119-|--9-119-9-9-119-|--9-119-9-9-119-|--9-119-9-9-11--|
E|7-7-7-7-7-7-7-7-|--7-7-7-7-7-7-7-|--7-7-7-7-7-7-7-|--7-7-7-7-7-7-0-|

E|----------------|----------------|----------------|----------------|
B|----------------|--7-----5---7---|----------------|--7-----5---7---|
G|----------------|--7-----6---7---|----------------|--7-----6---7---|
D|----------------|--7-----7---7---|----------------|--7-----7---7---| 6X
A|----------------|--5-----7---5---|----------------|--5-----7---5---| then
E|0-0-0-0-0-0-0-0-|0-------5-------|0-0-0-0-0-0-0-0-|0-------5-------| fade

  Guitar Solo
E|---12------------14--------------------------12---------------------|
B|12----151212-----12-1512121212-12-151212--12----151212--------------|
G|16----------1416------------------------14------------14------------|
D|--------------------------------------------------------------------|
A|--------------------------------------------------------------------|
E|--------------------------------------------------------------------|

E|-------------------------12--------12---------------------------------|
B|12-12-15----12-12-151212------12---12------------------------------12-|
G|---------14-----------------------------1412---14-13---------12-15----|
D|--------------------------------------------14-------14-12-14---------|
A|----------------------------------------------------------------------|
E|----------------------------------------------------------------------|

                                                    /---3--\/---3---\------|
E|12----12----12---12---17---15---12----12----------12---------------------|
B|---15----15------------------------15----------12------------------------|
G|-----------------------------------------14-16---------16-14-12----14-12-|
D|----------------------------------------------------------------14-------|
A|-------------------------------------------------------------------------|
E|-------------------------------------------------------------------------|

E|-----9----9----9----------------------------------------------------|
B|---9-9-12-9-12-9----------------------------9--------------10-------|
G|-----------------12-11911-11-9----9-9-11-12---119---11-9-9----------|
D|12-----------------------------11----------------11-----------------|
A|--------------------------------------------------------------------|
E|--------------------------------------------------------------------|

E|---10------10-----------------------------9-9-7-7-0-----------------|
B|12-12---12----12-108--10-8----------------9-9-7-7-0-----------------|
G|--------------------9------9-8-9----------9-9-7-7-0-----------------|
D|--------------------------------------------------------------------|
A|--------------------------------------------------------------------|
E|---------------------------------12---0-----------------------------|

  Outro Guitar solo
E|----------------------------------------------------------------------|
B|9-9-9-10-10-10-11-11-12-12-13-13-14-14-15-15-16-16-17-17-201717-17-17-|
G|----------------------------------------------------------------------|
D|----------------------------------------------------------------------|
A|----------------------------------------------------------------------|
E|----------------------------------------------------------------------|

E|--------------------------19-22-------19-18-17----------------------|
B|17-17-22---22-20-17----17----------------------20-19-17-------------|
G|--------------------19------------------------------------18-17-21--|
D|--------------------------------------------------------------------|
A|--------------------------------------------------------------------|
E|--------------------------------------------------------------------|

E|---19----------------------24---24----------------------------------|
B|------1917---17-17-19-17--------------------------------------------|
G|----------18--------------------------------------------------------|
D|--------------------------------------------------------------------|
A|--------------------------------------------------------------------|
E|--------------------------------------------------------------------|

  Second outro solo at 02:18                    /---3---\------------------|
E|-------------------------------------------------------------------------|
B|12-----12---12---12------14-12----------------------20-----------20------|
G|-------------------1412--14-12----------12----19-21----2119-1921---21-19-|
D|-----------------------14------14-12-14-0--------------------------------|
A|-------------------------------------------------------------------------|
E|-------------------------------------------------------------------------|

E|0-15-17-------------------------------------------------------------|
B|------------------24-----------22---24-23-20-2223--21-22------------|
G|--------------------------------------------------------------------|
D|--------------------------------------------------------------------|
A|--------------------------------------------------------------------|
E|--------------------------------------------------------------------|

             /--3-\   /--3-\---------------------|     fade out
E|-----17----------------------------------------|
B|--20-------172017---172017---17----------------|
G|--------19-------19-------19-------------------|
D|-----------------------------------------------|
A|-----------------------------------------------|
E|-----------------------------------------------|



I Can't Quit You Baby:



Standard Tuning

E|------------------------|5-----------------------|
B|------------------------|5-----------------------|
G|------------------------|5-----------------------|
D|------------------------|4-----------------------|
A|------------------------|5-----------------------|
E|------------------------|------------------------|
  I can't quit you baby...

E|------------------------|------------------------|
B|------------------------|------------------------|
G|-858585851085-----------|-------58510---85-6-----|
D|-------------75-75-----7|------5----------7----57|
A|---------------7--76534-|5-----5-----------------|
E|------------------------|------------------------|

E|-------------858-8128128|85-8-8--855555-85-------|
B|------------------------|------------------------|
G|--7-8-7-----------------|------------------------|
D|4-----------------------|------------------------|
A|------------------------|------------------------|
E|------------------------|------------------------|
                   \-3/

E|------------------------|----------585-----------|
B|---55858585851085-------|---------5---10-10171513|
G|--9--------------75-5---|-------79---------------|
D|-------------------7-75-|----75------------------|
A|------------------------|7654--------------------|
E|------------------------|------------------------|

E|--------------1515151515|------------------------|
B|13------------1717171717|17--171513131517--1715--|
G|------------------------|----------------15------|
D|--14--------------------|------------------------|
A|------------------------|------------------------|
E|------------------------|------------------------|

E|----------------------5-|-------------10875--5---|
B|13-------------------5--|------------9-----8--875|
G|--14---------9757---5--7|6---6-------------------|
D|------7-----8----757----|----7-----8-------------|
A|------7-----8-----------|----7-----8-------------|
E|----0-5-----6-----------|----5-----6-------------|

E|------------------------|------------------------|
B|--5----------17-15131517|13----------------------|
G|------------------------|--141414-121212-1111----|
D|------------------------|------------------------|
A|------------------------|------------------------|
E|------------------------|------------------------|

E|------------------------|------------------------|
B|-------5585--5585--5585-|-5585--5585--5585454----|
G|------9-----9-----9-----|9-----9-----9-------7575|
D|------------------------|------------------------|
A|------------------------|------------------------|
E|------------------------|------------------------|

E|----------------------10|85-8-8-8-8-8-8-78776--6-|
B|-8----------------------|--7---------------------|
G|9--987------------------|------------------------|
D|------------------------|------------------------|
A|------------------------|------------------------|
E|------------------------|------------------------|

E|5-----------------------|------------------------|
B|------10-85-------------|-----858585858510--85---|
G|--975------75-----------|---99----------------78-|
D|-----7-------75-----7-55|-----------------------5|
A|---------------7654-----|------------------------|
E|------------------------|------------------------|

E|------------------------|------------------------|
B|----88------------8---8-|7-----------------------|
G|---999------------9---9-|75----------------------|
D|757---------------------|--7654-------444-4-----7|
A|------------------------|-----------------------7|
E|------------------------|-----------------------5|

E|--------------------5---|------------------------|
B|------------------------|---------------------578|
G|------------97575-59-75-|6-------------------6---|
D|-----7-----8-----7-----7|------7-----8-----------|
A|-----7-----8------------|------7-----8-----------|
E|-----5-----6------------|------5-----6-----------|

  Guitar Solo
E|------------8919-1210910|-12108--8108------------|
B|10----------------------|------10----10--171615--|
G|------------------------|----------------------17|
D|------------------------|--------------16--------|
A|------------------------|------------------------|
E|------------------------|------------------------|

E|------------------------|------------------------|
B|-----------1517---191615|---------17171717171717-|
G|-2117--1714----14-------|1714171418181818181817--|
D|-----16-----------------|------------------------|
A|------------------------|------------------------|
E|------------------------|------------------------|

E|--5---5---5---5---5---5-|8118108---811------030--|
B|55-855-855-855-855-855-8|-------810------------31|
G|------------------------|-------------779557-----|
D|------------------------|------------------------|
A|------------------------|------------------------|
E|------------------------|------------------------|

E|------------------------|--------------------13--|
B|------------------------|----------------------12|
G|-------020--------5-5---|------------------------|
D|--3--02---20---575-7-75-|5------252---------57---|
A|03-30-------357--------7|-753-3----353--3557-----|
E|------------------------|-------------35---------|

E|---161615---------------|------------------------|
B|---------17-------------|--------202017--17191919|
G|-13--------141714--14-14|141714--------21--191919|
D|-----------------14-----|------17----------------|
A|------------------------|------------------------|
E|------------------------|------------------------|

E|------------------------|------------------------|
B|1917--------------------|------------------------|
G|191719-------------575-5|5---------------------14|
D|-------7---8-575-57---7-|----7-------8-----------|
A|-------7---87---7-------|----7-------8-----------|
E|-------5---6------------|----5-------6-----------|

E|------------------------|----------------0-------|
B|17--17151317------------|17--1715--1213----------|
G|----------------14----14|--------------14------14|
D|------------------------|------------------------|
A|------------------------|------------------16----|
E|------------------------|------------------------|

E|------------------------|----17----17----17----17|
B|1617161716171617161714--|--17----17----17----17--|
G|------------------------|------21----21----21----|
D|------------------------|19----------------------|
A|------------------------|------------------------|
E|------------------------|------------------------|

E|2117--2017--2117--2017--|------14----------------|
B|----17----17----17----17|----14--1614--14585-----|
G|------------------------|1418--------16-----75---|
D|------------------------|---------------------75-|
A|------------------------|-----------------------7|
E|------------------------|------------------------|

E|------------------------|------------15-15-15----|
B|------------------------|7-----------17-17-171513|
G|-----------------642----|-7979-------------------|
D|--------------234---4040|------------------------|
A|65-5-3-0354-34----------|------------------------|
E|-----------3------------|------------------------|

E|-----------------1517---|-------------------5----|
B|17151717-1715---------15|13------------------75--|
G|-------------13---------|--14-----------5757---75|
D|---------------12-------|-----7---875-57---------|
A|------------------------|-----7---8--7-----------|
E|------------------------|----05---6--------------|

E|--------------1087------|------------------------|
B|------------------5-----|------------------------|
G|-------------------875-5|5-----------------------|
D|------7-----8---------7-|------7-----8-----------|
A|765---7-----8-----------|------7-----8-----------|
E|------5-----6-----------|------5-----6-----------|

E|------------------------|
B|------------------------|
G|------------------------|
D|------------------------|
A|------------------------|
E|------------------------|



How Many More Times:



Standard Tuning

E|------------------------|------------------------|------------------------|------------------------|
B|------------------------|------------------------|------------------------|------------------------|
G|------------------------|------------------------|------------------------|------------------------|
D|------------------------|------------------------|------------------------|------------------------|
A|------------------------|------------------------|------------------------|------------------------|
E|------------------------|------------------------|------------------------|------------------------|

  [Intro] - use wah-wah pedal
E|------------------------|------------------------|------------------------|------------------------|
B|9-----------------------|------------------------|------------------------|------------------------|
G|9---7-------------------|(7)---------------------|9----------------------2|------------------------|
D|9---7-------------------|(7)---------------------|9-slide down frets-----2|------------------------|
A|7---5-------------------|(5)---------------------|7----------------------0|------------------------|
E|------------------------|------------------------|------------------------|------------------------|

E|------------------------|------------------------|------------------------|------------------------|
B|9-----------------------|------------------------|------------------------|------------------------|
G|9---7-------------------|(7)---------------------|9----------------------2|------------------------|
D|9---7-------------------|(7)---------------------|9-slide down frets-----2|------------------------|
A|7---5-------------------|(5)---------------------|7----------------------0|------------------------|
E|------------------------|------------------------|------------------------|------------------------|

E|10----------------------|10----------------------|------------------------|------------------------|
B|10----------------------|10----------------------|------------------------|------------------------|
G|11-as fast as possible--|11-as fast as possible--|11----------------------|------------------------|
D|12----------------------|12----------------------|12----------------------|------------------------|
A|------------------------|------------------------|------------------------|------------------------|
E|10----------------------|10----------------------|10----------------------|------------------------|

                                                                     wah-wah off
E|10----------------------|10----------------------|------------------------|------------------------|
B|10----------------------|10----------------------|------------------------|------------------------|
G|11-as fast as possible--|11-as fast as possible--|11----------------------|------------------------|
D|12----------------------|12----------------------|12----------------------|------------------------|
A|------------------------|------------------------|------------------------|------------------------|
E|10----------------------|10----------------------|10----------------------|------------------------|

E|------------------------|------------------------|
B|------------------------|------------------------|
G|------------------------|------------------------|
D|------------------------|------------------------|
A|------7---5-------5-----|------7-----5---------5-|
E|0-----------7-----------|0-----------------7-----| 13X

E|------------------------|------------------------|
B|------------------------|------------------------|
G|------------------------|------------------------|
D|------------------------|------------------------|
A|------7---5-------5-----|5-5---5-----------------|
E|0-----------7-----------|------------5-5---5-----|

E|------------------------|------------------------|
B|------------------------|------------------------|
G|------------------------|------------------------|
D|------------------------|------------------------|
A|------7---5-------5-----|------7-----5---------5-|
E|0-----------7-----------|0-----------------7-----| 13X


E|------------------------|------------------------||
B|------------------------|------------7---7---7---||
G|------------------------|------------7---7---7---||
D|------------------------|------7-----7---7---7---||
A|------7---5-------5-----|------5-----5---5---5---||
E|0-----------7-----------|0-----------------------||

E|------------------------|------------------------|------------------------|------------------------|
B|9-----------------------|------------------------|7-----------------------|------------------------|
G|9-----------------------|------------------------|7-----------------------|------------------------|
D|9-----------------------|------------------------|7-----------------------|------------------------|
A|7-----------------------|------------------------|5-----------------------|------------------------|
E|------------------------|------------------------|------------------------|------------------------|
                                 Oh,                                  wanna love some other man too

E|------------------------|--------12----12--------|------------------------|------------------------|
B|17----------------------|----17----17------------|------------------------|------------------------|
G|------------------------|----------------161412--|----------------12141614|12--1412--1412--1412--12|
D|------------------------|----------------------14|14------------14--------|--14----14----14----14--|
A|------------------------|------------------------|------------------------|------------------------|
E|------------------------|------------------------|------------------------|------------------------|
 |                                                                                                   |
E|------------------------|--------12--------------|------------------------|------------------------|
B|17----------------------|----17----17------------|------------------------|------------------------|
G|------------------------|----------------161412--|------------------------|------------------------|
D|------------------------|----------------------14|14--121412--------------|(12)--------------------|
A|------------------------|------------------------|------------------------|------------------------|
E|------------------------|------------------------|------------------------|------------------------|


E|------------------------|------------------------|------------------------|------------------------|
B|-------------15---------|---------15--15---------|------------------------|------------------------|
G|16-------------1416-----|-------15--16--14-------|16------------------1412|14121412-11----------911|
D|------------------------|------------------------|------------------------|------------------------|
A|------------------------|------------------------|------------------------|------------------------|
E|------------------------|------------------------|------------------------|------------------------|
 |                                                                                                   |
E|------------------------|------------------------|------------------------|------------------------|
B|------------------------|------------------------|------------------------|------------------------|
G|------------------------|------------------------|------------------------|------------------------|
D|(12)--------------------|(12)--------------------|141214------------------|------------------------|
A|------------------------|------------------------|------------------------|------------------------|
E|------------------------|------------------------|------------------------|------------------------|


E|------------------------|------------------------|------------------------|------------------------|
B|------------------------|------------------------|------------------------|------------------------|
G|9-----------------2420--|---2420-----2420-----242|0-----2-0-2-------------|------------6-----2-----|
D|------------------------|------------------------|------------------------|------------------------|
A|------------------------|------------------------|------------------------|------------------------|
E|------------------------|------------------------|------------------------|------------------------|
 |                                                                                                   |
E|------------------------|------------------------|------------------------|------------------------|
B|------------------------|------------------------|------------------------|------------------------|
G|------------------------|---2420--------2420-----|2-0-2-0-3--0--3---------|(3)---------------------|
D|------------------------|------------------------|------------------------|------------------------|
A|------------------------|------------------------|------------------------|------------------------|
E|------------------------|------------------------|------------------------|------------------------|


E|------1512--------------|1512----------------1517|------1512--12----------|------------------------|
B|----------12------------|----12------------------|----------15--12--------|--15--------------------|
G|------Play 4------------|Play 4------------------|----------------12--12--|16--14161412------------|
D|------times-------------|times-------------------|------------------14--14|------------1414121412--|
A|------------------------|------------------------|------------------------|----------------------14|
E|------------------------|------------------------|------------------------|------------------------|
 |                                                                                                   |
E|-----------1512---------|1512------------1517----|(17)--------------------|------------------------|
B|---------------12-------|----12------------------|------------------------|------------------------|
G|-----------Play 3-------|Play 3------------------|------------------------|------------------------|
D|-----------times--------|times-------------------|------------------------|------------------------|
A|------------------------|------------------------|------------------------|------------------------|
E|------------------------|------------------------|------------------------|------------------------|


E|------------------------|------------------------|------------------------|------------------------|
B|------------------------|------------------------|------------------------|------------------------|
G|------------------------|------------------------|------------------------|------------------------|
D|------------------------|------------------------|------------------------|--------------14--1421--|
A|11--------12111211--1211|(11)12------------------|(11)12------------------|(11)12----------------14|
E|------------------------|trill-------------------|trill-------------------|trill-------------------|
 |                                                                                                   |
E|------------------------|------------------------|------------------------|------------------------|
B|------------------------|------------------------|------------------------|------------------------|
G|------------------------|------------------------|------------------------|------------------------|
D|--------1211121112111211|12111211----------------|12111211----------------|12111211----------------|
A|------------------------|Play 4 times------------|Play 4 times------------|Play 4 times------------|
E|------------------------|------------------------|------------------------|------------------------|


E|------------------------|------------------------|------------------------|------------15----15----|
B|----------------------17|(17)--------------20--20|20------------------2017|15------1517--1715--1517|
G|------------------------|------------------------|------------------------|------------------------|
D|------------------------|------------------------|------------------------|------------------------|
A|19----------------------|------------------------|------------------------|------------------------|
E|------------------------|------------------------|------------------------|------------------------|
 |                                                                                                   |
E|------------------------|------------------------|------------------------|------------------------|
B|------------------------|------------------------|--------------------1719|--------151715----------|
G|------------------------|------------------------|------------------------|------------------------|
D|------------------------|------------------------|------------------------|------------------------|
A|1212--------------------|------------------------|------------------------|------------------------|
E|------------------------|------------------------|------------------------|------------------------|


E|------15------15------17|18--18--19------19181918|1917151715--------------|--------1512--1512--1512|
B|--1517--171515--1715----|------------------------|------------------------|------------------------|
G|------------------------|------------------------|------------------------|------------------------|
D|------------------------|------------------------|------------------------|------------------------|
A|------------------------|------------------------|------------------------|------------------------|
E|------------------------|------------------------|------------------------|------------------------|
 |                                                                                                   |
E|------------------------|------------------------|------------------------|------------------------|
B|------------------------|------------------------|------------------------|------------------------|
G|------------------------|------------------------|------------------------|------------------------|
D|------------------------|------------------------|------------------------|------------------------|
A|------------------------|------------------------|------------------------|------------------------|
E|------------------------|------------------------|------------------------|------------------------|


E|--1512--1512--1512----15|12--1512151215--12------|------------------------|------------------------|
B|--------------------12--|--12----------15--15----|------------------------|--15--------------------|
G|------------------------|--------------------14--|12--12--121416------1212|16--14-1614--12---------|
D|------------------------|----------------------14|--14--14----------14----|-----------14--1412-1412|
A|------------------------|------------------------|------------------------|------------------------|
E|------------------------|------------------------|------------------------|------------------------|
 |                                                                                                   |
E|------------------------|------------------------|------------------------|------------------------|
B|------1512-1512-1512----|------1512------------12|--1512121517------------|(17)--------------------|
G|------------------------|----------12------------|------------------------|------------------------|
D|------------------------|------Play 4------------|------------------------|------------------------|
A|------------------------|------times-------------|------------------------|------------------------|
E|------------------------|------------------------|------------------------|------------------------|


E|------------------------|------------------------|------------------------|------------------------|
B|------------------------|------------------------|------------------------|------------------------|
G|------------------------|----------------9---11--|131113------------------|(13)------111311----9119|
D|(12)--------------------|------------12----------|------------------------|------------------------|
A|------------------------|------------------------|------------------------|------------------------|
E|------------------------|------------------------|------------------------|------------------------|
 |                                                                                                   |
E|------------------------|------------------------|------------------------|------------------------|
B|------------------------|------------------------|------------------------|------------------------|
G|------------------------|------------------------|----11131113------------|(13)------111311----9119|
D|------------------------|------------------------|------------------------|------------------------|
A|------------------------|------------------------|------------------------|------------------------|
E|------------------------|------------------------|------------------------|------------------------|
 |                                                                                                   |
E|------------------------|------------------------|------0-0-0-0-----0-0-0-|0-----0-0-0-------------|
B|9-----------------------|------------------------|------0-0-0-0-----0-0-0-|0-----0-0-0-------------|
G|9-----------------------|------------------------|------1-1-1-1-----1-1-1-|1-----1-1-1-2---4---6---|
D|9-----9-9-9-9-9-9-9-9-9-|9-9-9-9-9-9-9-9-9-9-9-9-|------2-2-2-2-----2-2-2-|2-----2-2-2-4---6---7---|
A|7-----7-7-7-7-7-7-7-7-7-|7-7-7-7-7-7-7-7-7-7-7-7-|2-----------------------|------------------------|
E|------------------------|------------------------|0-----------------------|------------------------|


E|------------------------|------------------------|------------------------|------------------------|
B|------------------------|------------------------|------------------------|------------------------|
G|7-----------------------|(7)---------9---11--1311|13----------------------|----------1113--11--9119|
D|------------------------|------------------------|------------------------|------------------------|
A|------------------------|------------------------|------------------------|------------------------|
E|------------------------|------------------------|------------------------|------------------------|
 |                                                                                                   |
E|------------------------|------------------------|------------------------|------------------------|
B|------------------------|------------------------|------------------------|------------------------|
G|7-----------------------|-97---------7---9---11--|131112------13----------|----------1113--11--9119|
D|------------------------|------------------------|------------------------|------------------------|
A|------------------------|------------------------|------------------------|------------------------|
E|------------------------|------------------------|------------------------|------------------------|
 |                                                                                                   |
E|------0-0-0-0-----0-0-0-|0-----0-0-0-------------|------0-0-0-0-----0-0-0-|0-----0-0-0-------------|
B|------0-0-0-0-----0-0-0-|0-----0-0-0-------------|------0-0-0-0-----0-0-0-|0-----0-0-0-------------|
G|6-----1-1-1-1-----1-1-1-|1-----1-1-1-2---4---6---|6-----1-1-1-1-----1-1-1-|1-----1-1-1-2---4---6---|
D|7-----2-2-2-2-----2-2-2-|2-----2-2-2-4---6---7---|7-----2-2-2-2-----2-2-2-|2-----2-2-2-4---6---7---|
A|------------------------|------------------------|------------------------|------------------------|
E|------------------------|------------------------|------------------------|------------------------|


E|------------------------|------------------------|------------------------|------------------------|
B|------------------------|------------------------|------------------------|------------------------|
G|131213------------------|(13)------1113--11--9119|7-----------------------|(7)---------------------|
D|------------------------|------------------------|------------------------|------------------------|
A|------------------------|------------------------|------------------------|------------------------|
E|------------------------|------------------------|------------------------|------------------------|
 |                                                                                                   |
E|------------------------|------------------------|------------------------|------------------------|
B|------------------------|------------------------|------------------------|------------------------|
G|14----16----------------|----------141614--131413|11----------------------|11----------13111311----|
D|------------------------|------------------------|------------------------|------------Play 2------|
A|------------------------|------------------------|------------------------|------------times-------|
E|------------------------|------------------------|------------------------|------------------------|
 |                                                                                                   |
E|------------------------|------------------------|121212121212121212121212|121212121212121212121212|
B|9-9-9-9-9-9-9-9-9-9-9-9-|9-9-9-9-9-9-9-9-9-0-0-0-|121212121212121212121212|121212121212121212121212|
G|9-9-9-9-9-9-9-9-9-9-9-9-|9-9-9-9-9-9-9-9-9-0-0-0-|131313131313131313131313|131313131313131313131313|
D|9-9-9-9-9-9-9-9-9-9-9-9-|9-9-9-9-9-9-9-9-9-------|141414141414141414141414|141414141414141414141414|
A|7-7-7-7-7-7-7-7-7-7-7-7-|7-7-7-7-7-7-7-7-7-------|------------------------|------------------------|
E|------------------------|------------------------|121212121212121212121212|121212121212121212121212|


E|------------------------|------------------------||
B|------------------------|------------------------||
G|------------------------|------------------------||
D|------------------------|------------------------||
A|------------------------|------------------------||
E|------------------------|------------------------||
 |                                                 ||
E|------------------------|------------------------||
B|------------------------|------------------------||
G|11----------------------|------------------------||
D|------------------------|------------------------||
A|------------------------|------------------------||
E|------------------------|------------------------||
 |                                                 ||
E|121212121212121212121212|121212121212121212121212||
B|121212121212121212121212|121212121212121212121212||
G|131313131313131313131313|131313131313131313131313||
D|141414141414141414141414|141414141414141414141414||
A|------------------------|------------------------||
E|121212121212121212121212|121212121212121212121212||

                                                    (With violin bow and wah-wah)
E|------------------------|------------------------|0-----------------------|(0)---------------------|
B|------------------------|------------------------|0-----------------------|(0)---------------------|
G|------------------------|------------------------|------------------------|------------------------|
D|------------------------|------------------------|------------------------|------------------------|
A|------------------------|------------------------|------------------------|------------------------|
E|------------------------|------------------------|------------------------|------------0-----------|
 |                                                                                                   |
E|------------------------|------------------------|------------------------|------------------------|
B|------------------------|------------------------|9-----------------------|------------------------|
G|------------------------|------------------------|9-----------------------|------------------------|
D|14----------------------|------------------------|9-----------------------|------------------------|
A|------------------------|------------------------|7-----------------------|------------------------|
E|------------------------|------------------------|------------------------|------------------------|


E|0-----------------------|(0)---------------------|------------------------|------------------------|
B|0-----------------------|(0)---------------------|------------------------|------------------------|
G|------------------------|------------------------|------------------------|------------------------|
D|------------------------|------------------------|------------------------|------------------------|
A|------------------------|------------------------|------------------------|------------------------|
E|------------------------|------------0-----------|(0)---------------------|(0)---------------------|
 |                                                                                                   |
E|------------------------|------------------------|------------------------|------12----------------|
B|------------------------|------------------------|------------------------|------12----------------|
G|------------------------|------------------------|------------------------|------//----------------|
D|------------------------|------------------------|------------------------|------//----------------|
A|------------------------|------------------------|------------------------|------------------------|
E|------------------------|------------------------|------------------------|------------------------|


E|------------------------|------------------------|------------------------|------------------------|
B|9-----------------------|9-----------------------|------------------------|------------------------|
G|------------------------|------------------------|------------------------|------------------------|
D|9---------9-------9-----|9-----------------------|------------------------|------------------------|
A|------------------------|------------------------|------------------------|------------------------|
E|0-----------------------|(0)---------------------|(0)---------------------|(0)---------------------|
 |                                                                                                   |
E|------------------------|------------------------|------------------------|12----------------------|
B|------------------------|------------------------|------------------------|12----------------------|
G|------------------------|------------------------|------------------------|12----------------------|
D|------------------------|------------------------|------------------------|//----------------------|
A|------------------------|------------------------|------------------------|//----------------------|
E|------------------------|------------------------|------------------------|------------------------|


E|------------------------|------------------------|------------------------|------------------------|
B|------------------------|------------------------|------------------------|------------------------|
G|------------------------|------------------------|------------------------|------------------------|
D|9-----------12----------|(12)--------------------|9-----------2-----------|------------------------|
A|------------------------|------------------------|------------------------|------------------------|
E|7-----------10----------|(10)--------------------|7-----------0-----------|------------------------|
 |                                                                                                   |
E|------------------------|------------------------|------------------------|------------------------|
B|------------------------|------------------------|------------------------|------------------------|
G|------------------------|------------------------|------------------------|------------------------|
D|9-----------12----------|(12)--------------------|9-----------2-----------|------------------------|
A|------------------------|------------------------|------------------------|------------------------|
E|7-----------10----------|(10)--------------------|7-----------0-----------|------------------------|


E|------------------------|------------------------|------------------------|------------------------|
B|------------------------|------------------------|------------------------|------------------------|
G|------------------------|------------------------|------------------------|------------------------|
D|9-----------12----------|(12)--------------------|------------------------|------------------------|
A|------------------------|------------------------|9-----------7-----------|------------------------|
E|7-----------10----------|(10)--------------------|7-----------0-----------|------------------------|
 |                                                                                                   |
E|------------------------|------------------------|------------------------|------------------------|
B|------------------------|------------------------|------------------------|------------------------|
G|------------------------|------------------------|------------------------|------------------------|
D|9-----------12----------|(12)--------------------|9-----------2-----------|------------------------|
A|------------------------|------------------------|------------------------|------------------------|
E|7-----------10----------|(10)--------------------|7-----------0-----------|------------------------|


E|------------------------|------------------------|------------------------|------------------------|
B|------------------------|------------------------|------------------------|------------------------|
G|------------------------|------------------------|------------------------|------------------------|
D|9-----------12----------|(12)--------------------|9-----------2-----------|------------------------|
A|------------------------|------------------------|------------------------|------------------------|
E|7-----------10----------|(10)--------------------|7-----------0-----------|------------------------|
 |                                                                                                   |
E|------------------------|------------------------|------------------------|------------------------|
B|------------------------|------------------------|------------------------|------------------------|
G|------------------------|------------------------|------------------------|------------------------|
D|9-----------12----------|(12)--------------------|9-----------2-----------|------------------------|
A|------------------------|------------------------|------------------------|------------------------|
E|7-----------10----------|(10)--------------------|7-----------0-----------|------------------------|


E|------------------------|------------------------|------------------------|------------------------|
B|------------------------|------------------------|------------------------|------------------------|
G|------------------------|------------------------|------------------------|------------------------|
D|9-----------12----------|(12)--------------------|------------------------|------------------------|
A|------------------------|------------------------|9-----------7-----------|------------------------|
E|7-----------10----------|(10)--------------------|7-----------0-----------|------------------------|
 |                          //                                                                       |
E|------------------------|------------------------|------------------------|------------------------|
B|------------------------|------------------------|------------------------|------------------------|
G|------------------------|------------------------|------------------------|------------------------|
D|9-----------12----------|(12)--------------------|9-----------2-----------|------------------------|
A|------------------------|------------------------|------------------------|------------------------|
E|7-----------10----------|(10)--------------------|7-----------0-----------|------------------------|
                            //


E|------------------------|------------------------|9---------9---9---9---9-|----------------9---7---|
B|----------------------9-|8---7---9----9--9--8--9-|10--------10--10--10--10|------------------------|
G|------------------------|------------------------|9---------9---9---9---9-|----------------9---7---|
D|----------------------9-|7---7---9----9--9--8--9-|11--------11--11--11--11|------------------------|
A|--------------7---------|------------------------|0---------0---0---0---0-|------------------------|
E|--1212------------------|------------------------|------------------------|------------------------|
 |  ////                                                                                             |
E|------------------------|------------------------|------------------------|------------------------|
B|------------------------|------------------------|------------------------|------------------------|
G|------------------------|------------------------|------------------------|------------------------|
D|------------------------|------------------------|-----------12-----------|(12)--------------------|
A|------------------------|------------------------|------------------------|------------------------|
E|------------------------|------------------------|-----------10-----------|(10)--------------------|
                                                               //


E|------------------------|------------------------|------------------------|------------------------|
B|------------9---7---9---|9---8---9---8---9---9---|------------------------|------------------------|
G|------------------------|------------------------|11----------------------|11----------------------|
D|------------9---7---9---|9---8---9---8---9---9---|12----------------------|12----------------------|
A|------------------------|------------------------|------------------------|------------------------|
E|10----12----------------|------------------------|10----------------------|10----------------------|
 |//    //                                          //                       //                      |
E|------------------------|------------------------|------------------------|------------------------|
B|------------------------|------------------------|------------------------|------------------------|
G|------------------------|------------------------|------------------------|------------------------|
D|12----14----------------|14----------------------|12----------------------|12----------------------|
A|------------------------|------------------------|------------------------|------------------------|
E|10----12----------------|12----------------------|10----------------------|10----------------------|
                           //                       //                       //

E|------------------------|------------------------|------------------------|------------------------|
B|------------------------|----------14--12--12----|------------------------|------------------------|
G|------------------------|------------------------|------------------------|------------------------|
D|12----14----14----------|14--------14--12--12----|------------------------|------------------------|
A|------------------------|------------------------|------------------------|------------------------|
E|10----12----12----------|12----------------------|10----------------------|10----------------------|
 |//    //    //                                    //                       //                      |
E|------------------------|------------------------|------------------------|------------------------|
B|------------------------|------------------------|------------------------|------------------------|
G|------------------------|------------------------|------------------------|------------------------|
D|12----14----14----------|12----------------------|12----------------------|12----------------------|
A|------------------------|------------------------|------------------------|------------------------|
E|10----12----12----------|10----------------------|10----------------------|10----------------------|
  //                       //                       //                       //

E|------------------------|------------------------|------------------------|------------------------|
B|------------------------|------------------------|------------------------|------------------------|
G|------------------------|------------------------|------------------------|------------------------|
D|14----------------------|14----------------------|------------------------|12----------------------|
A|------------------------|------------------------|------------------------|------------------------|
E|12----------------------|12----------14--16--14--|1214121010----10--------|10----------------22----|
 |//                       //          //  //  //           //    //         //                //    |
E|------------------------|------------------------|------------------------|------------------------|
B|------------------------|------------------------|------------------------|------------------------|
G|------------------------|------------------------|------------------------|------------------------|
D|12----------------------|12----------------------|12----------------------|12----------------------|
A|------------------------|------------------------|------------------------|------------------------|
E|10----------------------|10----------------------|10----------------------|10----------------------|
  //                       //                       //                       //

E|------------------------|------------------------|------------------------|------------------------|
B|------------------------|------------------------|------------------------|------------------------|
G|------------------------|------------------------|------------------------|------------------------|
D|------------14----------|------------------------|------12----12----------|12----------------------|
A|------------------------|------------------------|------------------------|------------------------|
E|0----12-----12----------|12----14----16----121412|1210--10----10----------|10------------22----120-|
 |//          //           //    //    //           ////  //    //           //                      |
E|------------------------|------------------------|------------------------|------------------------|
B|------------------------|------------------------|------------------------|------------------------|
G|------------------------|------------------------|------------------------|------------------------|
D|------------------------|------------------------|------------------------|12----------------------|
A|------------------------|------------------------|------------------------|------------------------|
E|7-----------------------|12----14----16----121412|1210--------------------|10----------------------|


E|------------------------|------------------------|------------------------|----------------------||
B|------------------------|------------------------|------------------------|----------------------||
G|------------------------|------------------------|------------------------|----------------------||
D|------------------------|------------------------|------------------------|12--------------------||
A|------------------------|------------------------|------------------------|----------------------||
E|------------------------|12----14----16----121412|1210--------------------|10----------12----0---||
 |                         //    //    //           ////  //    //           //                    ||
E|------------------------|------------------------|------------------------|----------------------||
B|------------------------|------------------------|------------------------|----------------------||
G|------------------------|------------------------|------------------------|----------------------||
D|------------------------|------------------------|------------------------|12--------------------||
A|------------------------|------------------------|------------------------|----------------------||
E|10----12----------------|12----14----16----121412|1210--------------------|10--------------------||


  4/4 time  "Oh Rosie" part
E|----------------|----------------|
B|------------8---|------------8---|
G|------------7---|------------7---| Play 7
D|------------6---|------------6---| times
A|------------7---|------------7---|
E|----------------|----------------|

E|----------------|----------------|
B|------------8---|------------8---|
G|------------7---|------------7---| Play 6
D|----57-7----6---|----57-7----6---| times
A|0-00--------7---|0-00--------7---|
E|0-0035-57-0-----|0-0035-57-0-----|

E|----------------|----------------|----------------|--------3-------||
B|----------------|----------------|----------------|--------3-------||
G|----------------|----------------|----------------|--------5-------||
D|9-9-9-9-9-9-9-9-|9---77-97-7-7-7-|----7---7-7-7-7-|7-7-7---5-------||
A|9-9-9-9-9-9-9-9-|9-79-----9-9-9--|77--7---7-7-7-7-|7-7-7---5---5---||
E|7-7-7-7-7-7-7-7-|7---------------|55--5---5-5-5-5-|5-5-5-0-3---3---||
                                                             Cuz I

  12/8 time
E|------------------------|------------------------|------------------------|------------------------|
B|------------------------|------------------------|------------------------|------------------------|
G|------------------------|------------------------|------------------------|------------------------|
D|------------------------|------------------------|------------------------|------------------------|
A|2-----------------------|------------------------|------------------------|------------------------|
E|0-----------------------|------------------------|------------------------|------------------------|
  got you         in       the         sights                 of       my

E|------------------------|------------------------|------------------------|------------------------|
B|------------------------|------------------------|------------------------|------------------------|
G|------------------------|------------------------|------------------------|------------------------|
D|------------------------|------------------------|------------------------|------------------------|
A|------------------------|------------------------|------------------------|------------------------|
E|------------------------|------------------------|------------------------|------------------------|
  gun_____

E|------------------------||
B|------------------------||
G|------------------------||
D|------------------------||
A|------------------------||
E|------------------------||

E|------------------------|------------------------|
B|------------------------|------------------------|
G|------------------------|------------------------| Play 5
D|------------------------|------------------------| times
A|------7---5-------5-----|------7-----5---------5-|
E|0-----------7-----------|0-----------------7-----|

E|------------------------|------------------------|
B|------------------------|------------------------|
G|------------------------|7-7---7-----6-6---6-----|
D|------------------------|7-7---7-----7-7---7-----|
A|------7---5-------5-----|5-5---5-----7-7---7-----|
E|0-----------7-----------|------------5-5---5-----|

E|------------------------|------------------------|
B|------------------------|------------------------|
G|------------------------|------------------------| Play 3
D|------------------------|------------------------| times
A|------7---5-------5-----|------7-----5---------5-|
E|0-----------7-----------|0-----------------7-----|

E|------------------------|------------------------|
B|------------------------|------------------------|
G|------------------------|7-7---7-----6-6---6-----|
D|------------------------|7-7---7-----7-7---7-----|
A|------7---5-------5-----|5-5---5-----7-7---7-----|
E|0-----------7-----------|------------5-5---5-----|

E|------------------------|------------------------|
B|------------------------|------------------------|
G|------------------------|------------------------| Play 3
D|------------------------|------------------------| times
A|------7---5-------5-----|------7-----5---------5-|
E|0-----------7-----------|0-----------------7-----|

E|------------------------|------------------------|
B|------------------------|------------------------|
G|------------------------|7-7---7-----6-6---6-----|
D|------------------------|7-7---7-----7-7---7-----|
A|------7---5-------5-----|5-5---5-----7-7---7-----|
E|0-----------7-----------|------------5-5---5-----|

E|------------------------|------------------------|
B|------------------------|------------------------|
G|------------------------|------------------------|
D|------------------------|------------------------|
A|------7---5-------5-----|------7-----5---------5-|
E|0-----------7-----------|0-----------------7-----|

E|------------------------|------------------------|
B|------------------------|------------------------|
G|------------------------|7-7---7-----6-6---6-----|
D|------------------------|7-7---7-----7-7---7-----|
A|------7---5-------5-----|5-5---5-----7-7---7-----|
E|0-----------7-----------|------------5-5---5-----|

E|------------------------|------------------------|
B|------------------------|------------------------|
G|------------------------|------------------------|
D|------------------------|------------------------|
A|------7---5-------5-----|------7-----5---------5-|
E|0-----------7-----------|0-----------------7-----|

E|------------------------|------------------------|
B|------------------------|------------------------|
G|------------------------|7-7---7-----6-6---6-----|
D|------------------------|7-7---7-----7-7---7-----|
A|------7---5-------5-----|5-5---5-----7-7---7-----|
E|0-----------7-----------|------------5-5---5-----|

E|0-----------------------|------------------------|0-----------------------|------------------------|
B|0-----------------------|------------------------|0-----------------------|------------------------|
G|1-----------------------|7-7---7-----6-6---6-----|1-----------------------|7-7---7-----6-6---6-----|
D|2-----------------------|7-7---7-----7-7---7-----|2-----------------------|7-7---7-----7-7---7-----|
A|2-----------------------|5-5---5-----7-7---7-----|2-----------------------|5-5---5-----7-7---7-----|
E|0-----------------------|------------5-5---5-----|0-----------------------|------------5-5---5-----|

                                                                                          Free time
E|0-----------------------|------------------------|0-----------------------|------------------------|
B|0-----------------------|------------------------|0-----------------------|------------------8-----|
G|1-----------------------|7-7---7-----6-6---6-----|1-----------------------|------------------7-----|
D|2-----------------------|7-7---7-----7-7---7-----|2-----------------------|------------------6-----|
A|2-----------------------|5-5---5-----7-7---7-----|2-----------------------|------------------7-----|
E|0-----------------------|------------5-5---5-----|0-----------------------|------------------------|
                                                                                               //

E|------------------------|------------------------|------------------------|------------------------|
B|------------------------|------------------------|------------------------|------------------------|
G|------------------------|------------------------|------------------------|------------------------|
D|2-----------------------|2-----------------------|2-----------------------|2-----------------------|
A|2-----------------------|2-----------------------|2-----------------------|2-----------------------|
E|0-----------------------|0-----------------------|0-----------------------|0-----------------------|
 |//                       //                       //                       //                      |
E|------------------------|------------------------|------------------------|------------------------|
B|8-----------------------|8-----------------------|8-----------------------|8-----------8-----8-----|
G|7-----------------------|7-----------------------|7-----------------------|7-----------7-----7-----|
D|6-----------------------|6-----------------------|6-----------------------|6-----------6-----6-----|
A|7-----------------------|7-----------------------|7-----------------------|7-----------7-----7-----|
E|------------------------|------------------------|------------------------|------------------------|
  //                       //                       //                       //

E|------------------------||
B|------------------------||
G|------------------------||
D|2-----------------------||
A|2-----------------------||
E|0-----------------------||
 |                        ||
E|------------------------||
B|(8)---------------------||
G|(7)---------------------||
D|(6)---------------12----||
A|(7)---------------------||
E|------------------13----||


1000 views - 28 April 2013
2000 views - 28 November 2013
comments
We did not receive enough feedback on this tab! Please rate:
print report bad tab
1 2 3 4 5
I want to post or [tab]
guest
You may want to rate the tab now too:
select rating
Please do not post tabs as comments. Select "correction" instead!