Oops, an error
Loading. Please wait.

Led Zeppelin 2 Tab

86,746 views 128 this week
7 commentsread comments
1 2 3 4 5
excellent!
x 20
Autoscroll
+/-
esc
set tempo
stop
Contributor
Hey! There's an official Ultimate Guitar app which is ideal
for learning songs when you're away from computer. Get the app
WARNING: You are trying to view
                                    content from Ultimate-Guitar.com
                                    in an unauthorized application,
                                    which is prohibited.

                                    Please use an official Ultimate
                                    Guitar Tabs application for iPhone,
                                    iPad or Android to access legitimate
                                    chords, guitar, bass, and drum tabs
                                    from Ultimate-Guitar.com database.

                                    Type "ultimate guitar tabs" in Apple
                                    App Store's or Android Market's
                                    search to find the application.
Tracks
1.Whole Lotta Love
2.What Is And What Should Never Be
3.The Lemon Song
4.Thank You
5.Heartbreaker
6.Living Lving Maid(She's Just A Woman)
7.Ramble On
8.Moby Dick
9.Bring It On Home
________________________________________________________________________

Whole Lotta Love

Guitar 1:Electric w/distortion
Guitar 2:Solo

Tuning: (E,A,D,G,B,e)


     Gtr. 1     Intro:    
e-|--------------------------|-----------------------------------|-
B-|--------------------------|-----------------------------------|-
G-|--------------------------|-----------------------------------|-
D-|----------------0)----0)--|--9-------9-------9-------9--------|-
A-|----------------5-----5---|--7-------7-------7-------7--------|-
E-|-------------7-----7------|--0-0-0-0-0-0-0-0-0-0-0-0-0-0-0-0--|-
                   * Bend 1/4 step

e-|-----------------------------------|-----------------------------------|-
B-|-----------------------------------|-----------------------------------|-
G-|-----------------------------------|-----------------------------------|-
D-|--9-------9-------9-9----0)----0)--|--9-------9-------9-------9--------|-
A-|--7-------7-------7-7----5-----5---|--7-------7-------7-------7--------|-
E-|--0-0-0-0-0-0-0-0-0-0-7-----7------|--0-0-0-0-0-0-0-0-0-0-0-0-0-0-0-0--|-

                                         Verse:
e-|-----------------------------------|-----------------------------------|-
B-|-----------------------------------|-----------------------------------|-
G-|-----------------------------------|-----------------------------------|-
D-|--9-------9-------9-9----0)----0)--|--9-------9-------9------0)----0)--|-
A-|--7-------7-------7-7----5-----5---|--7-------7-------7------5-----5---|-
E-|--0-0-0-0-0-0-0-0-0-0-7-----7------|--0-0-0-0-0-0-0-0-0-0-7-----7------|-

e-|-----------------------------------|-----------------------------------|-
B-|-----------------------------------|-----------------------------------|-
G-|-----------------------------------|-----------------------------------|-
D-|--9-------9-------9------0)----0)--|--9-------9-------9------0)----0)--|-
A-|--7-------7-------7------5-----5---|--7-------7-------7------5-----5---|-
E-|--0-0-0-0-0-0-0-0-0-0-7-----7------|--0-0-0-0-0-0-0-0-0-0-7-----7------|-

e-|-----------------------------------|-----------------------------------|-
B-|-----------------------------------|-----------------------------------|-
G-|-----------------------------------|-----------------------------------|-
D-|--9-------9-------9------0)----0)--|--9-------9-------9------0)----0)--|-
A-|--7-------7-------7------5-----5---|--7-------7-------7------5-----5---|-
E-|--0-0-0-0-0-0-0-0-0-0-7-----7------|--0-0-0-0-0-0-0-0-0-0-7-----7------|-

e-|-----------------------------------|-----------------------------------|-
B-|-----------------------------------|-----------------------------------|-
G-|-----------------------------------|-----------------------------------|-
D-|--9-------9-------9------0)----0)--|--9-------9-------9------0)----0)--|-
A-|--7-------7-------7------5-----5---|--7-------7-------7------5-----5---|-
E-|--0-0-0-0-0-0-0-0-0-0-7-----7------|--0-0-0-0-0-0-0-0-0-0-7-----7------|-
                                                             
                                                             Chorus: 
e-|-----------------------------------|---------------------------------|-
B-|-----------------------------------|----------------------7--7-7--7--|-
G-|-----------------------------------|----------------------7--7-7--7--|-
D-|--9-------9-------9------0)----0)--|--9-------9-------9---7--7-7--7--|-
A-|--7-------7-------7------5-----5---|--7-------7-------7---5--5-5--5--|-
E-|--0-0-0-0-0-0-0-0-0-0-7-----7------|--0-0-0-0-0-0-0-0-0-0------------|-
      
     Gtr. 1
e-|---------------------------------|---------------------------------|-
B-|----------------------7--7-7--7--|----------------------7--7-7--7--|-
G-|----------------------7--7-7--7--|----------------------7--7-7--7--|-
D-|--9-------9-------9---7--7-7--7--|--9-------9-------9---7--7-7--7--|-
A-|--7-------7-------7---5--5-5--5--|--7-------7-------7---5--5-5--5--|-
E-|--0-0-0-0-0-0-0-0-0-0------------|--0-0-0-0-0-0-0-0-0-0------------|-
  |                                 |                                 |
  |  Gtr. 2  w/ slide               |                                 |      
e-|---------------------------------|---------------------------------|-
B-|---------------------------------|---------------------------------|-
G-|------9\-------------------------|------9\-------------------------|-
D-|------9\-------------------------|------9\-------------------------|-
A-|---------------------------------|---------------------------------|-
E-|---------------------------------|---------------------------------|-

e-|---------------------------------|-----------------------------------|-
B-|----------------------7--7-7--7--|-----------------------------------|-
G-|----------------------7--7-7--7--|-----------------------------------|-
D-|--9-------9-------9---7--7-7--7--|--9-------9-------9------0)----0)--|-
A-|--7-------7-------7---5--5-5--5--|--7-------7-------7------5-----5---|-
E-|--0-0-0-0-0-0-0-0-0-0------------|--0-0-0-0-0-0-0-0-0-0-7-----7------|-
  |                                 |                                   |
  |                                 |                                   |      
e-|---------------------------------|-----------------------------------|-
B-|---------------------------------|-----------------------------------|-
G-|------9\-------------------------|------9\---------------------------|-
D-|------9\-------------------------|------9\---------------------------|-
A-|---------------------------------|-----------------------------------|-
E-|---------------------------------|-----------------------------------|-

Repeat from verse

Guitar solo:


     Gtr. 1
e-|----------------------------------------------------------|-
B-|--9----9--------------------------------------------------|-
G-|--9----9--------------------------------------------------|-
D-|--9----9--------------------------------------------------|-
A-|--7----7--------------------------------------------------|-
E-|----------------------------------------------------------|-
  |                                                          |
  |  Gtr. 2      1                                    1      |
e-|--------------------12------------------------------------|-
B-|--------------)-12------15p12----------------------)~~~~--|-
G-|------------14-----------------15p14p12--14--12--14-------|-
D-|----------------------------------------------------------|-
A-|----------------------------------------------------------|-
E-|----------------------------------------------------------|-


e-|--------------------------------------------------------|-
B-|--9----9------------------------------------------------|-
G-|--9----9------------------------------------------------|-
D-|--9----9------------------------------------------------|-
A-|--7----7------------------------------------------------|-
E-|--------------------------------------------------------|-
  |                                                        | 
  |                                                        |
e-|--------------------------------------------------------|-
B-|-----------------3--------------------------------------|-
G-|------------2/4-----4p2p0--4p2p0------------------------|-
D-|----------------------------------2p0-----2p0-----------|-
A-|---------------------------------------2-------2-0h2----|-
E-|--------------------------------------------------------|-

e-|-----------------------------------------------|-
B-|--9----9---------------------------------------|-
G-|--9----9---------------------------------------|-
D-|--9----9---------------------------------------|-
A-|--7----7---------------------------------------|-
E-|-----------------------------------------------|-
  |                                               |
  |              1           1   1        1       | 
e-|--------------------12----)---)---15---)~~~----|-
B-|--------------)-12------15--15-------15--------|-
G-|------------14---------------------------------|-
D-|-----------------------------------------------|-
A-|-----------------------------------------------|-
E-|-----------------------------------------------|-

e-|----------------------------------------------------|-
B-|--9----9--------------------------------------------|-
G-|--9----9--------------------------------------------|-
D-|--9----9--------------------------------------------|-
A-|--7----7--------------------------------------------|-
E-|----------------------------------------------------|-
  |                                                    | 
  |                    2                               |  
e-|--------------------)''''''''\----------------------|-
B-|------------17----20------------17------20p17~~~----|-
G-|------------------------------------18--------------|-
D-|----------------------------------------------------|-
A-|----------------------------------------------------|-
E-|----------------------------------------------------|-

e-|-----------------------------------------------------|-
B-|--9----9---------------------------------------------|-
G-|--9----9---------------------------------------------|-
D-|--9----9---------------------------------------------|-
A-|--7----7---------------------------------------------|-
E-|-----------------------------------------------------|-
  |                  1                                  |
  |                  )                                  |
e-|----------------19----19--18--17---------------------|-
B-|------------17--------------------20p17--20p17~~~----|-
G-|-----------------------------------------------------|-
D-|-----------------------------------------------------|-
A-|-----------------------------------------------------|-
E-|-----------------------------------------------------|-

e-|---------------------------------------------------|-
B-|--9----9-------------------------------------------|-
G-|--9----9-------------------------------------------|-
D-|--9----9-------------------------------------------|-
A-|--7----7-------------------------------------------|-
E-|---------------------------------------------------|-
  |                                                   |
  |                     1/2 1/2 1/2   1               | 
e-|----------------------)---)---)----)--19-----------|-
B-|------------17--19--19--19--19---19-------17~~~----|-
G-|---------------------------------------------------|-
D-|---------------------------------------------------|-
A-|---------------------------------------------------|-
E-|---------------------------------------------------|-

Then play verse and chorus again, then there is a
break with no instruments just vocals. At the end 
of the break play B5 and A5.

At the end the main riff changes to this, but the 
main riff is still played sometimes.
Guitar 1
 
e-|---------------------------|---------------------------------|-
B-|---------------------------|---------------------------------|-
G-|---------------------------|---------------------------------|-
D-|-----------------0)-----7--|--9-------9-------9-----0)----7--|-
A-|-----------------5------5--|--7-------7-------7-----5-----5--|-
E-|--------------7------7-----|--0-0-0-0-0-0-0-0-0-0-7----7-----|-

e-|----------------------------------|----------------------------------|-
B-|----------------------------------|----------------------------------|-
G-|----------------------------------|----------------------------------|-
D-|--9-------9-------9------0)----7--|--9-------9-------9------0)----7--|-
A-|--7-------7-------7------5-----5--|--7-------7-------7------5-----5--|-
E-|--0-0-0-0-0-0-0-0-0-0-7-----7-----|--0-0-0-0-0-0-0-0-0-0-7-----7-----|-

___________________________________________________________________________

What Is And What Should Never Be

Guitar 1: Clean Electric
Guitar 2: Electric w/dist

Standard tuning
Electric Gutiar 1 w/clean tone
                          Rhythm Figure 1
|-------------------------|0--0--0--0--0--0--0--0----|
|-------------------------|7--7--7--7--7--7--7--7--0-|
|-------------------------|6--6--6--6--6--6--6--6--0-|
|-------------------------|5--5--5--5--5--5--5--5----|
|-------------------------|--------------------------|
|-------------------------|--------------------------|
 And if I say_ to you to - mor-row,


|-----0---7---0----0-----0--0--0--0--0--0--0--0--0----|
|7--7-0-7-7-7-0-7--0--7--0--7--7--7--7--7--7--7--7--0-|
|7--7-7-7-7-7-7-7--7--7--7--6--6--6--6--6--6--6--6--0-|
|6--6-6-6---6-6-6--6--6--6--5--5--5--5--5--5--5--5----|
|-----------------------------------------------------|
|-----------------------------------------------------|
          take my hand child, come with me,__


|-----0---7---0----0-----0--0--0--0--0--0--0--0--0----|
|7--7-0-7-7-7-0-7--0--7--0--7--7--7--7--7--7--7--7--0-|
|7--7-7-7-7-7-7-7--7--7--7--6--6--6--6--6--6--6--6--0-|
|6--6-6-6---6-6-6--6--6--6--5--5--5--5--5--5--5--5----|
|-----------------------------------------------------|
|-----------------------------------------------------|
          it's  to a cas-tle__ I will take you,__

                                  End of Rhythm Figure 1
|-----0---0-7-----0-----0--0--0--0--0--0--0--0--------|
|7--7-0-7-0-0--7--0--7--0--7--7--7--7--7--7--7-(7)/---|
|7--7-7-7-7-7--7--7--7-----6--6--6--6--6--6--6-(6)/---|
|6--6-6-6-6-6--6--6--6--6--5--5--5--5--5--5--5-(5)/---|
|-----------------------------------------------------|
|-----------------------------------------------------|
         well, what's to  be they say will_ be.__  Ah,


Rhythm Figure 2
with distortion
|---------------------------------------------------------------|
|----------------------------------------------------3---2--x-x-|
|----------------------------------------------------2---2--x-x-|
|5-7h~~--7p5-5----5~~------5p0------4~~4-0-4p0-x---0-4---2--x-x-|
|0-----0-0----(0)-0---0--0-0----x-0-0--0-0-0---x-0-0-----0--x-x-|
|---------------------------------------------------------------|
     (pm........)   (pm)                       (pm.)
catch the wind_see us spin,sail away,leave today,way up high in the sky_ Hey oh,_then the


|-----------------------------------------------------------------|
|-------------------------------------------------------3---2-----|
|-------------------------------------------------------2---2--2--|
|5-7h-------7p5-----5~~-----5p0-x---4~----4-4p0-x-x--2--4---2--2--|
|0-----0~-0-0----0--0--0--0-0---x-0---0-0-0-0---x-x--0--0---0--0--|
|-----------------------------------------------------------------|
      (pm)      (pm)  (pm)           (pm...)        (pm)
wind won't blow, you really should'nt go, it only goes to show_  that_

                                                 *
|----------------------------------------0----------------------------|
|4--4-4-4-4--4----4-----4-----4-----4--x-0---4-----(2)----------------|
|4--4-4-4-4--4----4-----4-----4-----4--x-1---4------3-----------------|
|4--4-4-4-4--4----4-----4-----4-----4----2---4------4-----------------|
|2--2-2-2-2--2-0-----0-------------------2---2------4-----------------|
|--------------------------4-----4-------0-----(0)--2-----------------|
you will be mine__ by taking our__ time.__         Ooh________________

                              End of Rhythm Figure 2
|---------------------------------------------------|
|(5)------------------------------------------------|
|-6-------------------------------------------------|
|-7-------------------------------------------------|
|-7-------------------2-----------------------------|
|-5---------------3b--0-----------------------------|
__                         And if you say to me to -


Verse 2:
clean tone
|0--0--0--0--0--0--0-----0--0--0--0--0--0--0--0--0--0--0--0--0--0--0--0--|
|7--7--7--7--7--7--7--0--5--5--5--5--5--5--5--5--7--7--7--7--7--7--7--0--|
|6--6--6--6--6--6--6--0--7--7--7--7--7--7--7--7--6--6--6--6--6--6--6--6--|
|5--5--5--5--5--5--5-----6--8--8--8--8--8--8--8--5--5--5--5--5--5--5--5--|
|------------------------------------------------------------------------|
|------------------------------------------------------------------------|
mor-row,                         oh,what fun it all___would be.__


|------0-----0-----0-----0--0--0--0--0--0--0--0-----------------------0--|
|5--0-----0-----0-----0--7--7--7--7--7--7--7--0--7--0--7--7-----0--7--0--|
|7--7-----7-----7-----7--6--6--6--6--6--6--6--6--7--7--7--7-----7--7--7--|
|6--6-----6-----6-----6--5--5--5--5--5--5--5--5--6--6--6--6-----6--6--6--|
|------------------------------------------------------------------------|
|------------------------------------------------------------------------|
     Then what's to stop us pret-ty ba - by____            but what is and

                        Distorted
|0--0--0--0-----0------------------------------------------|
|7--7--7--7-----7------------------------------------------|
|6--6--6--6-----6------------------------------------------|
|5--5--5--5-----5-------5-7h~~----7-5-----5~~----5p0-x-----|
|-----------------------0-----0-0-0---(0)-0--0-0-----x--0--|
|----------------------------------------------------------|
                             (pm...)  (pm)  (pm.)      (pm)
what should never be. I catch the wind_see us spin,sail away,leave today,_


|--------------------------------------------------------------|
|------------------3---2---------------------------------------|
|----------------2-2---2---------------------------------------|
|4-4-4-4-4p0-x---2-4---2------5p7~~----7-5----5------5p0-x-----|
|0-0-0-0-0---x-0---0---0--0-0-0----0-0-0--(0)-0--0-0-----x--0--|
|--------------------------------------------------------------|
              (pm.)      (pm.)    (pm.)   (pm)  (pm.)      (pm)
way up high,in the sky Hey, oh then the wind_won't blow, you really should'nt go. It


|----------------------------------------------------------|
|------------------3---2--------------4------4-4-4---4-4-4-|
|----------------2-2---2------4---4---4------4-4-4---4-4-4-|
|4-4-4-4-4p0-x---2-4---2------4---4---4------4-4-4---4-4-4-|
|0-0-0-0-0---x-0---0---0--0-0-2---2-2----2-0-------0-------|
|----------------------------------------------------------|
              (pm.)      (pm.)
only goes to show__       that you will be mine__      by


|-------------------0---------------------------------------------------------------|
|--4-4-4---4--------0---4-----2---------------(5)-----------------------------------|
|--4-4-4---4--------1---4-----3----------------6------------------------------------|
|--4-4-4---4--------2---4--2--4----------------7------------------------------------|
|-------------------2---2--0--4----------------7-------------------2----------------|
|4-------4---4--(0)-0---------2----------------5--------------3b---0----------------|
tak - ing our_ time._         Ooh.______________

Guitar Solo:
Electric Guitar 2
w/slide
and clean tone        With Rhythm Figure 1
|---------------------|--------------------------------------------------------------|
|-------5---7/9--7/9--|7\2--2~~~~~~~~~~~2-\---------5--7/9----7/9------7\2~~~~~~~~~~-|
|--4--6---------------|----(2)---------(2)\----4--6----7/9----7/9------7\2~~~~~~~~~~-|
|---------------------|--------------------------------------------------------------|
|---------------------|--------------------------------------------------------------|
|---------------------|--------------------------------------------------------------|

                                                                8va______
|-----12~~~~10--x-----------------------------------------------12p15^-12---------------------|
|7-12-------------12--11-12h--11-12h-10---10/14---(14)~~~~--12------------12-10/12-10-8--10~--|
|---------------------------------------------------------------------------------------------|
|---------------------------------------------------------------------------------------------|
|---------------------------------------------------------------------------------------------|
|---------------------------------------------------------------------------------------------|

    End Figure 1|With Rhythm Figure 2
|---------------|-----------------------------------------------------------------------|
|10/14-14\------|-----14-14----14-14\---------14-14-14\---------------------------------|
|---------------|-----14-14----14-14\------14----14-14\------14~14~---14~14~----14(14)\-|
|---------------|7-14-------14-14-14\-5/14~------14-14\-4/14-------14~------12--14-14-\-|
|---------------|-----------------------------------------------------------12----------|
|---------------|-----------------------------------------------------------------------|


|------------------------------------------------------------------------------------|
|-----14~---14(14)\---------14----14-(14)---------14-----14--------------------------|
|-----------14(14)\------14----14-14-(14)------14----14-----14-------------14-(14)\--|
|7-14----14~14(14)\-5/14----------14-(14)-4/14-----------------12--(12)\---14-(14)\--|
|--------------------------------------------------------------12--(12)\-------------|
|------------------------------------------------------------------------------------|


|-----------------------------------------------------------------------------------------|
|--------16~---16~---(16)---------16------16-16----------16----16------16-16\9------------|
|-----16~---16~---16~(16)------16----(16)-16-16-------16----16----(16)-------9---16-(16)\-|
|9/16---------------------7/16-------------------6/16------------------------9---16-(16)\-|
|-----------------------------------------------------------------------------------------|
|-----------------------------------------------------------------------------------------|


|--------------------------------------------------------------------------|
|--16/17----16--14~~-------14\12/14-(14)~14\12/14~12/14--12/14---12\-------|
|-----------------------14-------------------------------------------------|
|-------------------14-----------------------------------------------------|
|--------------------------------------------------------------------------|
|--------------------------------------------------------------------------|

                              Verse 3:
                 End Figure 2|Guitar 1
|----------------------------|0--0--0--0--0--0--0--0----0--0-0-0-7---0-0--0--0--0--|
|(9)\------------------------|7--7--7--7--7--7--7--7--0-7--7-5-7-7-7-0-7--0--7--0--|
|(9)\------------------------|6--6--6--6--6--6--6--6--6-7--7-7-7-7-7-7-7--7--7--7--|
|(9)\------------------------|5--5--5--5--5--5--5--5--5-6--6-6-6---6-6-6--6--6--6--|
|----------------------------|-----------------------------------------------------|
|----------------------------|-----------------------------------------------------|
     So if you wake up with the sun-rise                    and all your dreans are


|0--0--0--0--0--0--0--0----0--0-0-0-7---0-0--0--0--0--0--0--0--0--0--0--0--0----|
|7--7--7--7--7--7--7--7--0-7--7-5-7-7-7-0-7--0--7--0--7--7--7--7--7--7--7--7--0-|
|6--6--6--6--6--6--6--6--6-7--7-7-7-7-7-7-7--7--7--7--6--6--6--6--6--6--6--6--6-|
|5--5--5--5--5--5--5--5--5-6--6-6-6---6-6-6--6--6--6--5--5--5--5--5--5--5--5--5-|
|-------------------------------------------------------------------------------|
|-------------------------------------------------------------------------------|
still as new._                      And hppiness is what you need so bad,___


|0--0-0-0-7---0-0--0--0--0--0--0--0--0--0--0--0-----|
|7--7-5-7-7-7-0-7--0--7--0--7--7--7--7--7--7--7-----|
|7--7-7-7-7-7-7-7--7--7--7--6--6--6--6--6--6--6-----|
|6--6-6-6---6-6-6--6--6--6--5--5--5--5--5--5--5-----|
|---------------------------------------------------|
|---------------------------------------------------|
Girl, the answer lies__ with you___yeah          I


With Rhythm Figure 2 (stop Figure at *)
Distorted
|---------------------------------------------------------------------|
|----------------------------------------------------------3---2------|
|-----------------------------------x----------------------2---2------|
|5-7h------7p5-5------5~~------5p0--x---4~~4-0-4p0-x-----0-4---2--x-x-|
|0-----0-0-0------(0)-0---0--0-0------0-0--0-0-0---x--0--0-----0--x-x-|
|---------------------------------------------------------------------|
      (pm............)   (pm)                        (pm)
Catch the wind,see us spin,sail away,leave today,way up high in the sky_Hey, Oh, but the


|--------------------------------------------------------------------|
|----------------------------------------------------------3---2-----|
|----------------------------------------------------------2---2--2--|
|5-7h-------7p5-----5~~-------5p0-x---4~------4-4p0-x-x-2--4---2--2--|
|0-----0--0-0----0--0----0--0-0---x-0----0--0-0-0---x-x-0--0---0--0--|
|--------------------------------------------------------------------|
      (pm)              (pm)            (pm)           (pm)
wind won't blow,we really should'nt go, it only goes to__show__Yeah__that


|----------------------------------------0----------------------------|
|4--4-4-4-4--4----4-----4-----4-----4----0---4------(2)---------------|
|4--4-4-4-4--4----4-----4-----4-----4----1---4-------3----------------|
|4--4-4-4-4--4----4-----4--------------x-2---4-------4----------------|
|2--2-2-2-2--2-0-----0-----------------x-2---2--(0)--4----------------|
|--------------------------4-----4-------0-----------2----------------|
you will be mine_     by  tak-ing our_time.__       Ooh_______________


|-------------------------------------------------------------|
|(5)-----------------------------------------------9-9--------|
|-6-------------------------------------9-9--------9-9--------|
|-7-------------------------------------9-9--------9-11-------|
|-7--------------------2----------------9-11------------------|
|-5--------------3b----0--------------------------------------|
____


|--------------------------------------------------------------------------------|
|--------7---------------------9----9-9--------------------7---------------------|
|--7---7-7-----9-(9)-(9)-----9-9----9-9--------------7---7-7------9-(9)-(9)------|
|7-7---7-9-----9--9---9---x--9-9----9-11-----------7-7---7-9-x----9--9---9---x-x-|
|7-9-----------7--7---7---x--9-11------------------7-9-------x----7--7---7---x-x-|
|-------------(0)-9---0------------------------------------------(0)-0---0-------|


|-------------------------------------------------------------------|
|----------9-9--------------------------------7-7---------9--9------|
|9-(9)-x-x-9-9--x-x-x-x-x-x-x-x-x-------7-(x)-7-7-x-------9--9------|
|9-(9)-x-x-9-11-x-x-x-x-x-x-x-x-x-------7-(x)-7-9-x-----9-9--9--x-x-|
|9-11h-x-x------x-x-x-x-x-x-x-x-x---7/9-9-(x)-----x-----7-7--7--x-x-|
|---------------------------------0-----------------0-x-0-0--0----x-|
                  Hey___          Ho____                  Well,the


|------------------------------------------------------------------|
|--------9-9-9-------------------------------7-7---------9--9------|
|9-(9)-x-9-9-9--x-x-x-x-x-x-x-x-x(7)-7-7-x-x-7-7-x-------9--9------|
|9-(9)-x-9-9-11-x-x-x-x-x-x-x-x-x-7--7-7-x-x-7-9-x-----9-9--9--x-x-|
|9-11h-x--------x-x-x-x-x-x-x-x-x-9--7-9-x-x-----x-----7-7--7--x-x-|
|--------------------------------------------------0-x-0-0--0----x-|
wind whon't blow,and you really shoul'nt go,well it only goes to show. Oh_ oh oh


|-------------------------------------------------------------|
|-------9-9--x--------------------------7--------------9--9---|
|9-9----9-9--x-x-x-x-x-x-x-x-x-x-7-7~~x-7-7-x-----9-9--9--9---|
|9-9----9-11-x-x-x-x-x-x-x-x-x-x-7-7~~x-7-9-x---9-9-9--9--9-9-|
|9-11----------x-x-x-x-x-x-x-x-x-7-9~~x-----x-7-7-7-7--7--7-9-|
|---------------------------------------------0---0-0--0--0---|
Catch the wind,we're gonna see you spin,we're gonna sail_ leave to day_


|------------------------------------------------------------------|
|-------9-9------------------------------7-7--------------9--9-----|
|9-9-~~~9-9--x-x-x-x-x-x-x-x-x-9\-7-7--x-7-7(7)----(9)-9--9--9-----|
|9-9-~~~9-11-x-x-x-x-x-x-x-x-x-9\-7-7--x-7-9p7----9-9--9--9--9-----|
|9-11~~~-----x-x-x-x-x-x-x-x-x----7-9--x--------7-7-7--7--7--7--9--|
|-----------------------------------------------0---0--0--0--0-----|
   Ah,du du du, mm ba, ba, mm du_oh                            (pm)


|-------------------------------------------------------------|
|---------9-9------------------------------7(7)-------9--9----|
|9(9)-~~x-9-9--x-x-x-x-x--x-x-x----7-------7-7----9---9--9----|
|9-9--~~x-9-11-x-x-x-x-x--x-x-x----7-7-7-7-7-9----9-9-9--9----|
|9-11h~~x------x-x-x-x-x--x-x-x-7--7-9-9-9------7-7-7-7--7----|
|------------------------------(0)--------------0---0-0--0----|
Ma  Ma  Ma  Ma  Ma Ma     Yeah!__                         Evry'-


|---------------------------------------------------------------|
|-------x-9-9-----------------------------7-7-7-------9--9--9---|
|9(9)---x-9-9--x-x-x-x-x-x-x-x-x----7-7~~~7-7-7-----9-9--9--9---|
|9-9------9-11-x-x-x-x-x-x-x-x-x(7)-9-9~~~7-9-7-----9-9--9--9---|
|9-11h---------x-x-x-x-x-x-x-x-x-7--7-9~~~------7-7-7-7--7--7-9-|
|--------------------------------7--------------0-0---0--0--0---|
                                                             (pm)
body I know seems to know me well,but ah they better know gonna move like hell_


|-----------------------------------------------------------------|
|----------9-9-------------------------------7-7--------9--9--9---|
|9-9-------9-9--x-x-x-x-x--x-x-(x)---7-7-7---7-7------9-9--9--9---|
|9-9-----9-9-11-x-x-x-x-x--x-x-(x)---7-7-7-7-7--------9-9--9--9---|
|9-11-11--------x-x-x-x-x--x-x-(x)-7-7-9-9-7------7-7-7-7--7--7-9-|
|-------------------------------------------------0-0---0--0--0---|
                                                               (pm)
Ah, baby, baby, baby, baby, baby, baby,_   Ho, I love_ya!


                                                    Fade out
|-----------------------------------------------------------|
|-------9-9-------------------------------------9-9--9--9---|
|9-9-~~~9-9--(x)-x-x--x--x-x-x--7(7)~~7-7-7-----9-9--9--9---|
|9-9-~~~9-11-(x)-x-x--x--x-x-x--7(7)~~7-9-7-----9-9--9--9---|
|9-11~~~-----(x)-x-x--x--x-x-x--7-9h~~------7-7-7-7--7--7-9-|
|-------------------------------------------0-0------0--0---|
                                                         (pm)
Baby, baby, babe!___    Oh,____           I love__ ya__¬


__________________________________________________________________________
The Lemon Song
Standard Tuning

Gtr I (E A D G B E) - 'Jimmy Page - Rhythm / Lead w/dist'
Gtr II (E A D G B E) - 'Jimmy Page - Lead w/dist'

 Intro
  Q=92
 4/4
  Gtr I
                     ~    ~~~~~~~
|------------------|------------------|
|-0-0-0-0-0--------|-8----8-(8)s14\---|
|------------------|-7--x-7-(7)s13\---|
|------------------|-6--x-6-(6)s12\---|
|------------------|-7--x-7-(7)s13\---|
|-0-0-4-4-5-5-7\-0-|------------------|


                ~           ~~~~~~     ~~
|-------------------|-------------------------------|
|---0---0-0---------|-------8-(8)-----12----12-12\--|
|-------------------|-7-x-x-7-(7)-----12----12-12\--|
|-------------------|-6-x-x-6-(6)-/12-12----12-12\--|
|-------------------|-7-x-x--------------14---------|
|-0-0-3s4-4-5-5-7-0-|-------------------------------|


                      ~
|-------------------|----------------------------------|
|-------0-0-0-0-0---|-8-----8-(8)\-------3-------------|
|-------------------|-7-x-x-7-(7)\-0-2h4---0-4p2p0-----|
|-------------------|-6-x-x-6-(6)\-----------------2p0-|
|-------------------|-7-x-x-7-(7)\---------------------|
|-0-0-3s4-4-5-5-7S0-|----------------------------------|


|---------------------|---------------------||
|-----------0-0-(0)---|-8-----8-(8)-(8)/----||
|---------------------|-7-x-x-7-(7)-(7)/----||
|---------------------|-6-x-x-6-(6)-(6)/----||
|---------------------|-7-x-x-7-(7)-(7)/----||
|-0-0-3s4-4-5-5--7\-0-|---------------------||


 Verse 1
                       ~
|--------------------|-------------------|--------------------|
|-------0-0-0-0-0----|------8-(8)--(8)\--|-------0-0-0-0------|
|--------------------|-7--x-7-(7)--(7)\--|--------------------|
|--------------------|-6--x-6-(6)--(6)\--|--------------------|
|--------------------|-7--x-7-(7)--(7)\--|--------------------|
|-0-0-3s4-4-5-5-7\-0-|-------------------|-0-0-3s4-4-5-5-7\-0-|


  ~                      ~                                              ~
|--------------------------|--------------------|---------------------------|
|-8----8-(8)---------------|--------------------|---------------------------|
|-7--x-7-(7)---------------|-----------0-0------|-2-------------------------|
|-6--x-6-(6)-----5-(5)-----|--------------------|-2----------2--(2)---------|
|-7--x-7-(7)-5h7-------5h7-|-0-0-3s4-4-5-5-7\-0-|-0--x----------------------|
|--------------------------|--------------------|----x-3b5==(3)-(3)r(3)-3---|


                       ~    ~~~~~~~          ~
|--------------------|---------------------|-------------------------------|
|-------0-0-0-0------|-8-x--8-(8)\---------|------------3-----3-----3------|
|--------------------|-7-x--7-(7)\---------|--------2-----2-----2-----2----|
|--------------------|-6-x--6-(6)\---------|-------------------------------|
|--------------------|-7-x--7-(7)\----0--1-|-2--(2)---2-----2-----2-----0--|
|-0-0-3s4-4-5-5-7\-0-|-------------4-------|-------------------------------|


                                        Gtrs I, II
         ~~~~~~                                            ~~~~~~~
|-----------------------------------|--------------------------------------------------|
|-2-----/5-(5)-----------8-----10---|----15b17==(15)-(15)-15r(15)-15-12-12----12-------|
|---0----------0---0-(0)---0------0-|--------------------------------------14----12b13-|
|-----------------------------------|--------------------------------------------------|
|-----0----------0-----------0------|--------------------------------------------------|
|-----------------------------------|-0------------------------------------------------|


                     ~~~~~~~
|-------------------------------------------||
|-------------------------------------------||
|-------------12----------------------------||
|-14-12-13-14----14-12-(12)----------12-----||
|---------------------------12-13-14----14\-||
|-------------------------------------------||


 Verse 2
  Gtr I
                       ~
|--------------------|-------------------|------------------|
|-------0-0-0--------|-8----8-(8)--(8)/--|-----0------------|
|--------------------|-7--0-7-(7)--(7)/--|------------------|
|--------------------|-6--0-6-(6)--(6)/--|------------------|
|--------------------|-7----7-(7)--(7)/--|------------------|
|-0-0-3s4-4-5-5-7\-0-|-------------------|-0-0-4-4-5-5-7\-0-|


  ~                                                                      ~
|---------------------------------|------------------|-----------------------|
|-8----8-(8)\-------3-------------|---------0-0------|-----------------------|
|-7--0-7-(7)\-0-2h4---2h4p2p0-----|------------------|-2---------------------|
|-6--0-6-(6)\-----------------2p0-|------------------|-2----2----(2)---------|
|-7----7-(7)\---------------------|---0-4-4-5-5-7\-0-|-0--x------------------|
|---------------------------------|-0----------------|----x-3b5==(3)r(3)-3---|


                       ~    ~~~~~~~          ~
|--------------------|---------------------|--------------------------|
|-------0-0-0-0-0----|-8----8-(8)\---------|----3-----3-----3-----3---|
|--------------------|-7--0-7-(7)\---------|------2-----2-----2---2---|
|--------------------|-6--0-6-(6)\---------|--------------------------|
|--------------------|-7----7-(7)\----0--1-|-2------2-----2-----2---0-|
|-0-0-3s4-4-5-5-7\-0-|-------------4-------|--------------------------|


|--------------0-(0)---------|
|-------2-----/5-(5)---5-----|
|-----0---0----------------0-|
|----------------------------|
|-(0)-------0--------0---0---|
|----------------------------|


                                                   Faster Q=150
                      ~~~~~
|--------------------------------------------------|------------||
|---15b17==(15)-(15)-15-15-15r-15-12----12---------|------------||
|------------------------------------14----12b12.5-|------------||
|--------------------------------------------------|-14\--------||
|--------------------------------------------------|------------||
|-0------------------------------------------------|------------||


 Guitar Solo
  Gtr II
|-16-16\---------------16-------|
|-15-15\------------------------|
|-16-16\--x-x--x--x-16----16-14-|
|-------------------------------|
|-------------------------------|
|-------------------------------|
|
| Gtr I
|-------------------------------|
|-------------------------------|
|--9--9-------(9)-------9--9--7-|
|--9--9-------(9)-------9--9--7-|
|--7--7-------(7)-------7--7--7-|
|-------------------------------|


                                  ~~~~~~~~~
|-12-12\-----------12----14-|-15-16---(16)----16----14--|
|---------------------------|---------------------------|
|-13-13\-------/13----13-14-|-15-16---(16)-16----16-14--|
|---------------------------|---------------------------|
|---------------------------|---------------------------|
|---------------------------|---------------------------|
|
|---------------------------|---------------------------|
|---------------------------|---------------------------|
|--9--9--(9)----------------|--9--9----(9)-----9--9--7--|
|--9--9--(9)----------------|--9--9----(9)-----9--9--7--|
|--7--7--(7)----------------|--7--7----(7)-----7--7--7--|
|---------------------------|---------------------------|


|-12-12\----------17-------|
|--------------------------|
|-13-13\-------18----18-19-|
|--------------------------|
|--------------------------|
|--------------------------|
|
|--------------------------|
|--------------------------|
|--9--9----(9)-----9--9----|
|--9--9----(9)-----9--9--0-|
|--7--7----(7)-----7--7--0-|
|--------------------------|


      ~~~~~~~~~
|-21-21---(21)----21----19-|-17-17\----------12----14-|
|--------------------------|--------------------------|
|-21-21---(21)-21----21-19-|-18-18\-------13----13-14-|
|--------------------------|--------------------------|
|--------------------------|--------------------------|
|--------------------------|--------------------------|
|
|--------------------------|--------------------------|
|--------------------------|--------------------------|
|--2--2----(2)-----2--2--0-|--2--2----(2)-------------|
|--2--2----(2)-----2--2--0-|--2--2----(2)-------------|
|--0--0----(0)-----0--0--0-|--0--0----(0)-------------|
|--------------------------|------------------------0-|


         ~~~~~~~~
|-16-16-16--(16)----16----14-|-12-12\-----------------|
|----------------------------|------------------------|
|-15-16-16--(16)-16----16-14-|-13-13\------6s20\------|
|----------------------------|------------------------|
|----------------------------|------------------------|
|----------------------------|------------------------|
|
|----------------------------|------------------------|
|----------------------------|------------------------|
|--9--9------(9)-----9--9--7-|--9--9--(9)--------9\---|
|--9--9------(9)-----9--9--7-|--9--9--(9)--------9\---|
|--7--7------(7)-----7--7--7-|--7--7--(7)--------7\-0-|
|----------------------------|----------------------0-|


|----17----17----17-(17)----17-----17-|
|-16----16----16---------16----16-----|
|-------------------------------------|
|-------------------------------------|
|-------------------------------------|
|-------------------------------------|
|
|-------------------------------------|
|-------------------------------------|
|--4--------4---------4---------4\----|
|--4--------4---------4---------4\----|
|--2--------2---------2---------2\----|
|-------------------------------------|


|----15----15----15-(15)----15----15-|
|-14----14----14---------14----14----|
|------------------------------------|
|------------------------------------|
|------------------------------------|
|------------------------------------|
|
|------------------------------------|
|------------------------------------|
|--2--------2--2-----(2)-----2--2----|
|--2--------2--2-----(2)-----2--2----|
|--0--------0--0-----(0)-----0--0----|
|----------------------------------0-|


|---10-----10---10-(10)---10---10-|---5-----5---5-------------------||
|-9------9----9---------9----9----|-4-----4---4---/12-12------------||
|---------------------------------|-----------------------14-14-12--||
|---------------------------------|---------------------------------||
|---------------------------------|---------------------------------||
|---------------------------------|---------------------------------||
|
|---------------------------------|---------------------------------||
|---------------------------------|---------------------------------||
|-9----9----9--------9-----9-9----|---------8---------(8)-----------||
|-9----9----9--------9-----9-9----|---------7---------(7)-----0-----||
|-7----7----7--------7-----7-7----|-9---9---9---------(9)-----0-----||
|---------------------------------|-7---7---7---------(7)-----------||


   ~~
|---------------------------------|
|---------------/12---12----------|
|-12---14\---------------14-14-12-|
|---------------------------------|
|---------------------------------|
|---------------------------------|
|
|---------------------------------|
|---------------------------------|
|--9-9------(9)-----9--9-----7----|
|--9-9------(9)-----9--9-----7----|
|--7-7------(7)-----7--7-----7----|
|---------------------------------|


                                                    ~~
|--------------------------------(12)------------|----------------------------|
|---------------------------------12-------------|--------------12---12-------|
|-14b16==(14)r---12b12.5----------------16-14-12-|-12---14--------------14-12-|
|------------------------14-(14)-----------------|----------------------------|
|------------------------------------------------|----------------------------|
|------------------------------------------------|----------------------------|
|
|------------------------------------------------|----------------------------|
|------------------------------------------------|----------------------------|
|----------9---9-------------(9)------9--9-----7-|--9-9-----(9)----9--9-----7-|
|----------9---9-------------(9)------9--9-----7-|--9-9-----(9)----9--9-----7-|
|----------7---7-------------(7)------7--7-----7-|--7-7-----(7)----7--7-----7-|
|------------------------------------------------|----------------------------|


|----------------12--------------------12----------------------12-|
|-------------------15p12-----------------15p12-------------------|
|-14b16==(14)r------------14b16==(14)r----------14b16==(14)r------|
|-----------------------------------------------------------------|
|-----------------------------------------------------------------|
|-----------------------------------------------------------------|
|
|-----------------------------------------------------------------|
|-----------------------------------------------------------------|
|----------9---9------------------(9)---------9----------9---7----|
|----------9---9------------------(9)---------9----------9---7----|
|----------7---7------------------(7)---------7----------7---7----|
|-----------------------------------------------------------------|


|--------------------12--------------------12-------------|
|-15p12-----------------15p12-----------------15p12-------|
|-------14b16==(14)r----------14b16==(14)r----------14p12-|
|---------------------------------------------------------|
|---------------------------------------------------------|
|---------------------------------------------------------|
|
|---------------------------------------------------------|
|---------------------------------------------------------|
|--9-----9----------------------------(9)---9--9-----0----|
|--7-----7----------------------------(7)---7--7-----0----|
|--0-----0----------------------------(0)---0--0-----0----|
|---------------------------------------------------------|

|-------------------------------------------------|
|-------------------------------------------------|
|-------------------------------------------------|
|-14p12-------------------------------------------|
|-------14p12s10----10h12-10-13p10----10-12S14----|
|----------------12----------------12-------------|
|                                                  
|-------------------------------------------------|
|--2-----2----------------------------------------|
|--2-----2-----------2p====0----------------------|
|--2-----2----------------------------------------|
|--0-----0----------------------------------------|
|-------------------------------------------------|

|----------------------------------------------------------|
|----------------------------------------------------------|
|------------12-14-12-14b15p12-14-14b15==(14)r-12----12----|
|---12-13-14--------------------------------------14----14-|
|----------------------------------------------------------|
|----------------------------------------------------------|
|
|----------------------------------------------------------|
|----------------------------------------------------------|
|-9--9-----9-----9----(9)-------9----------9----9-----7----|
|-9--9-----9-----9----(9)-------9----------9----9-----7----|
|-7--7-----7-----7----(7)-------7----------7----7-----7----|
|-0--0-----0-----0----(0)-------0----------0----0-----0----|


                                          ~~~~
|----------------------12--------------------|-------------------------------------------|
|-------------------12----15--15b17r====(15)-|--------------15-----------------15-(15)---|
|-12-14b16==(14)r----------------------------|-14b15==(14)r----14-14b15==(14)r-----------|
|--------------------------------------------|-------------------------------------------|
|--------------------------------------------|-------------------------------------------|
|--------------------------------------------|-------------------------------------------|
|
|--------------------------------------------|-------------------------------------------|
|--------------------------------------------|-------------------------------------------|
|--9--------------9-------(9)--9----9-9------|----------4--------------------------(4)---|
|--9--------------9-------(9)--9----9-9---0--|----------4--------------------------(4)---|
|--7--------------7-------(7)--7----7-7---0--|----------2--------------------------(2)-0-|
|--0--------------0-------(0)--0----0-0---0--|-------------------------------------------|


                                     ~~~~~
|----------------------------------------------|
|--------------15------------------------------|
|-13b15==(13)r----13-13-----13b16==(13)r-------|
|----------------------------------------------|
|----------------------------------------------|
|----------------------------------------------|
|
|----------------------------------------------|
|------------------2----2-2--------------2-2---|
|----------2-------2----2-2--------------2-2---|
|----------2-------2----2-2--------------2-2---|
|----------0-------0----0-0--------------0-0-0-|
|--------------------------------------------0-|


                                                     ~~
|-------------------------------------------------|--------------------------------||
|----------------15-------------------------------|------------------17b20==(17)r--||
|-13b16==(13)r------14b16==(14)r-14-(14)-12----14-|-12---(12)\---------------------||
|-------------------------------------------14----|--------------------------------||
|-------------------------------------------------|--------------------------------||
|-------------------------------------------------|--------------------------------||
|
|-------------------------------------------------|--------------------------------||
|-------------------------------------------------|--4-4--------(4)-----------4/---||
|----------------------------9----9---9---9--9--0-|---------------------------2/---||
|----------9---9-------------9----9---9---9--9--0-|--4-4--------(4)-----------4/---||
|----------7---7-------------7----7---7---7--7--0-|--2-2--------(2)-----------2/---||
|----------0---0----------------------------------|--------------------------------||


|-----------------------------------------|------------------------------------------------|
|-17b20---17b20---17b20==(17)r-----17b20==|=(17)r-----17b21====(17)r---17b20r==(17)-17pb19-|
|-----------------------------------------|------------------------------------------------|
|-----------------------------------------|------------------------------------------------|
|-----------------------------------------|------------------------------------------------|
|-----------------------------------------|------------------------------------------------|
|
|-----------------------------------------|------------------------------------------------|
|--9----9--9-------9-------9---9-9--------|---9---9-9--9-----9---9---9--9----9---9---9-----|
|--7----7--7----x--7-------7---7-7--x-----|---7---7-7--7-----7---7---7--7----7---7---7-----|
|---------------x-------------------x-----|------------------------------------------------|
|---------------x-------------------x-----|------------------------------------------------|
|-----------------------------------------|------------------------------------------------|


                                                     ~~
|------------------------------------------------------|
|-17pb21-17pb19---17pb21---17pb19-17b21-------15b17-15-|
|------------------------------------------------------|
|------------------------------------------------------|
|------------------------------------------------------|
|------------------------------------------------------|
|
|------------------------------------------------------|
|--9------9-----9--9-----9--9------9----9-9-9--9-----9-|
|--7------7-----7--7-----7--7------7----7-7-7--7-----7-|
|------------------------------------------------------|
|------------------------------------------------------|
|------------------------------------------------------|


    ~~~~
|----------------------15p12-----15p12-|----15p12------15p12----15p12------15p12-|
|-(15)-----x---x---x---------15--------|-15-------15---------15-------15---------|
|--------------------------------------|-----------------------------------------|
|--------------------------------------|-----------------------------------------|
|--------------------------------------|-----------------------------------------|
|--------------------------------------|-----------------------------------------|
|
|--------------------------------------|-----------------------------------------|
|---9--9-9-9-9-9-9-9-9--9--9--9\-------|------------------------------------0----|
|---7--7-7-7-7-7-7-7-7--7--7--7\-------|--6--6-----6b7--6-----6--6--6--6b7--0----|
|--------------------------------------|--5--5-----5----5-----5--5--5--5----0----|
|--------------------------------------|-----------------------------------------|
|--------------------------------------|-----------------------------------------|


|----15p12------16p0----15p12------15p12-|
|-15-------15--------15-------15---------|
|----------------------------------------|
|----------------------------------------|
|----------------------------------------|
|----------------------------------------|
|
|----------------------------------------|
|----------------------------------------|
|--6--6-----6b7--0----6--6-----6b7--0----|
|--5--5-----5----0----5--5-----5----0----|
|------------------------------0----0----|
|----------------------------------------|


|----15p12----15p12------15p12----15p12-|
|-15-------15-------15---------15-------|
|---------------------------------------|
|---------------------------------------|
|---------------------------------------|
|---------------------------------------|
|
|---------------------------------------|
|--9--9--9--9--x--x--9-9--9--9--9--x--x-|
|--7--7--7--7--x--x--7-7--7--7--7--x--x-|
|--------------x--x----------------x--x-|
|--------------x--x----------------x--x-|
|---------------------------------------|


|----15p12------15p12------12---15-15b18====|=(15)r-15-15b19-15b19==(15)----15r==|
|-15-------15---------15--------------------|------------------------------------|
|-------------------------------------------|------------------------------------|
|-------------------------------------------|------------------------------------|
|-------------------------------------------|------------------------------------|
|-------------------------------------------|------------------------------------|
|
|-------------------------------------------|------------------------------------|
|--9--9--9--9-9--9--9--9-9--9-9--9--0-----0-|------------------------------------|
|--7--7--7--7-7--7--7--7-7--7-7--7--0-----0-|---4-------4-------------4---4------|
|-----------------------------------0-----0-|---4-------4-------------4---4------|
|-------------------------------------------|---2-------2-------------2---2--0---|
|-------------------------------------------|------------------------------------|


                                  ~~~~~~~
|-(15)-12----15---12------15-|---12-(12)---(12)\------|
|---------14---------14------|------------------------|
|----------------------------|------------------------|
|----------------------------|------------------------|
|----------------------------|------------------------|
|----------------------------|------------------------|
|
|----------------------------|------------------------|
|----------------------------|------------------------|
|---2------2----2-------2----|-9--9---9--9---9----9-9-|
|---2------2----2-------2----|-9--9---9--9---9----9-9-|
|---0------0----0-------0--5S|=7--7---7--7---7----7-7-|
|----------------------------|------------------------|


                                H.=H
|----------------12--------------------------------------||
|-------------------15p12--------------------------------||
|-14b16==(14)r------------14p12--------------------------||
|-------------------------------14p12--------------------||
|-------------------------------------14p12s10----12-----||
|----------------------------------------------12----12--||
|
|--------------------------------------------------------||
|--------------------------------------------------------||
|----------9---9-----9-----9-----9-----9-----9-----------||
|----------9---9-----9-----9-----9-----9-----9-----------||
|----------7---7-----7-----7-----7-----7-----7-----------||
|--------------------------------0-----0-----0-----------||


 Pre-Verse
  A Tempo Q=92
|----------------------|----------------------------|--------------------|
|----------------------|----------------------------|--------------------|
|----------------------|----------------------------|--------------------|
|----------------------|----------------------------|--------------------|
|-10\------------------|----------------------------|--------------------|
|----------------------|----------------------------|--------------------|
|
|             ~          ~                                      ~~~~
|----------------------|----------------------------|--------------------|
|----------------------|-8----8-(8)----12----12-12\-|-------0-0-0-0-0----|
|----------------------|-7--x-7-(7)----12----12-12\-|--------------------|
|----------------------|-6--x-6-(6)-12-12-12-12-12\-|--------------------|
|----------------------|-7--x-7-(7)-----------------|--------------------|
|--0--0-3s4-4-5-5-7\-0-|----------------------------|-0-0-3s4-4-5-5-7\-0-|


  Gtr I
  ~                                                                      ~
|-----------------------------------|-----------------|----------------------|
|-8----8\-------3-------------------|---------0-------|----------------------|
|-7--0-7\-0h2h4---2h4p2p0-----------|-----------------|-2--------------------|
|-6--0-6\-----------------2p0h2p0h2-|-----------------|-2----2-(2)-----------|
|-7----7\---------------------------|-0--/4-4-5-5-7s0-|-0--x----x------------|
|-----------------------------------|-----------------|----x-3-(3)b5r(3)-3---|


                                                    ~~~~~~~
|--------------------|---------------|-------------------------|
|---0---0-0-0-0------|-8----8-(8)\---|----------3--------------|
|--------------------|-7-x--7-(7)\---|------------2----------0-|
|--------------------|-6-x--6-(6)\---|-------------------------|
|--------------------|-7-x--7-(7)s===|=2--(2)-2-----2--(2)-0---|
|-0-0-3s4-4-5-5-7\-0-|---------------|-------------------------|


                                        ~~~~~~
|----------------------|----------------------------------------------|
|----------5---5-5-5---|---15b17==(15)-15-15r(15)-15-12----12---------|
|--------------------0-|--------------------------------14----12b12.5-|
|----------------------|----------------------------------------------|
|-0--(0)-0---0---------|----------------------------------------------|
|----------------------|-0--------------------------------------------|


                     ~~~~~~~
|-------------------------------------------||
|-------------------------------------------||
|-------------12----------------------------||
|-14-12-13-14----14-12-(12)----------12-----||
|---------------------------12-13-14----14\-||
|-------------------------------------------||


 Verse 3
                             Gtr II
|----------|-----------------|-------------|------------------|
|----------|-----------------|-/10\--------|------/12-(12)\---|
|----------|-----------------|-------------|------------------|
|----------|-----------------|-------------|------------------|
|----------|------------x\---|-------------|------------------|
|-0--------|-(0)----(0)------|-------------|------------------|


                      Gtr I
|-----------|---------|---------|------------|
|-----------|---------|---------|------------|
|-----------|---------|---------|------9\----|
|-----------|---------|---------|------------|
|--------x\-|---------|---------|------------|
|-----------|---------|---------|------------|


                    Gtr II
                                             ~~~~~
|---------|---------|--------------------|----------||
|---------|---------|--/10-(10)b12=======|=(10)r----||
|---------|---------|--------------------|----------||
|---------|---------|--------------------|----------||
|---------|---------|--------------------|----------||
|---------|---------|--------------------|----------||


 Verse 4
  Gtr I
                   ~~~~~~~~~~~
|---------------------|-------------------------|-------------------------|
|-------/15b17===(15)-|-(15)r-----/15-(15)b17===|=(15)r-------------------|
|-x-------------------|-------------------------|-----------/14-(14)b15===|
|-x-------------------|-------------------------|-------------------------|
|---------------------|-------------------------|-------------------------|
|---------------------|-------------------------|-------------------------|


              ~~~~~                     ~~~~~~~~~~~~~~~~
|-------------------------|---------------------|-----------------|
|-------------------------|---------------------|-----------------|
|-(14)b16===(14)r-----/16-|-(16)b18===(16)------|-(16)r-------/14-|
|-------------------------|---------------------|-----------------|
|-------------------------|---------------------|-----------------|
|-------------------------|---------------------|-----------------|


|-------------------|--------------|-----------|
|-------------------|--------------|-----------|
|-14b16=====(14)r===|=(14)\--------|-----------|
|-------------------|--------------|-----------|
|-------------------|--------------|-x\--------|
|-------------------|--------------|-----------|


|------------|-------------------|-----------||
|-9p7--------|-------------------|-----------||
|------------|--7tr9-(7tr9)------|-(7tr9)----||
|------------|-------------------|-----------||
|------------|-------------------|-----------||
|------------|-------------------|-----------||


 Verse 5
|---------|------------------------------|---------------|
|---------|------------------------------|---------------|
|---------|-14b15r(14)p12-(12)b12.5------|--------15p14p=|
|---------|------------------------------|---------------|
|---------|------------------------------|---------------|
|---------|------------------------------|---------------|


|-------------------------------------------------------------|
|-------------------------------------------------------------|
|-12b12.5--15p14p12b12.5--15p14p12b12.5--15p14p12b12.5--15p14p|
|-------------------------------------------------------------|
|-------------------------------------------------------------|
|-------------------------------------------------------------|


           ~~~~
|-------------------------|-----|
|-------------------------|-----|
|-12b14==(12)-(12)r\------|-----|
|-------------------------|-----|
|-------------------------|-----|
|-------------------------|-----|


|-----------------------------------------------------|
|-----------------------------------------------------|
|--15p14p12b12.5--15p14-12b12.5--15p14p12b12.5--15p14p|
|-----------------------------------------------------|
|-----------------------------------------------------|
|-----------------------------------------------------|


                                                        ~~~
|----------------------------------------------------|------------------|
|----------------------------------------------------|-----------12-12--|
|-12b12.5--15p14p12b12.5--15p14-12----14----12-------|------------------|
|----------------------------------14----14----14-12-|------------------|
|----------------------------------------------------|-14\--------------|
|----------------------------------------------------|------------------|


      PM
|----------------------|---------------------------------|
|-15-15b17------12tr15-|-(12tr15)b14=======(12tr15)b15===|
|----------------------|---------------------------------|
|----------------------|---------------------------------|
|----------------------|---------------------------------|
|----------------------|---------------------------------|


|-------------------------||
|-(12tr15)r===(12tr15)----||
|-------------------------||
|-------------------------||
|-------------------------||
|-------------------------||


    ~~~~
|-------------|------------------------|
|-(12)--------|------------------------|
|-------------|------------9----9----9-|
|-------------|-----(9)-11---11---11---|
|-------------|------------------------|
|-------------|------------------------|


         ~~~~~~
|---------------------------------------------|
|---------------------------------------------|
|-11b13-11b13====(11)r-11pb12r(11)p9h11-11----|
|------------------------------------------11-|
|---------------------------------------------|
|---------------------------------------------|


  ~                                                                         ~~~~~~~~
|---------------------12----|------------------------------------------------------|
|------------------12----15-|-12------------------------------------15-------------|
|-9-(9)\-----14b16----------|----14b16r(14)p12-14----12----12-14b16----14-(14)b16==|
|---------------------------|---------------------14----14-------------------------|
|---------------------------|------------------------------------------------------|
|---------------------------|------------------------------------------------------|


 ~~~~~~
|---------------------------------------------------|
|---------------------------------------------------|
|-(14)--(14)-14r(14)p12-14----12-14-14pb16==(14)r14-|
|--------------------------14-----------------------|
|---------------------------------------------------|
|---------------------------------------------------|


      ~~~~~                      ~      ~      ~
|------------------------------|-----------------------------------|
|------------------------------|-----------------------------------|
|-12----------------------9----|-9-9----9-9----9-9h11-9----9-11b13r|
|----14-14-(14)\-----9h11---11-|-----11-----11----------11---------|
|------------------------------|-----------------------------------|
|------------------------------|-----------------------------------|


|--------------------------------------------|
|--------------------------------------------|
|-(11)p9-11-9----11b13==(11)r(11)p9-11-9-----|
|-------------11-------------------------11--|
|--------------------------------------------|
|--------------------------------------------|


  Gtr II
                                                        ~~
|--------------12--------------------------------------------|
|-----------12----15-12--------------------------------------|
|---14b14.5-------------14b16r(14)p12-14-12b12.5----------12-|
|------------------------------------------------14p12-14----|
|------------------------------------------------------------|
|------------------------------------------------------------|
|
| Gtr I
| ~
|------------------------------------------------------------|
|------------------------------------------------------------|
|-9----------------------------------------------------------|
|------------------------------------------------------------|
|------------------------------------------------------------|
|------------------------------------------------------------|


|---------------------------------------------|-----------------------------------------||
|--------------12-----------------------------|-----------------------------------------||
|-12-12----12--12------14-14----12-12b12.5----|-12b12.5-12b12.5-12b12.5----12b13--------||
|-------14--------(14)-------14------------14-|-------------------------14--------------||
|---------------------------------------------|----------------------------------14\----||
|---------------------------------------------|-----------------------------------------||
|
|     ~~~~~~~~~~~~~~~~~~~~~~~~~~~~~~~~~~~~~~~~~~~~~~~~~~
|---------------------------------------------|-----------------------------------------||
|---------------------------------------------|-----------------------------------------||
|--7s=9----(9)--------------------------------|-(9)-------------------------------------||
|---------------------------------------------|-----------------------------------------||
|---------------------------------------------|-----------------------------------------||
|---------------------------------------------|-----------------------------------------||


  Gtr II
|----------|-------------|---------------------------------|
|----------|-------------|---------------------------------|
|----------|----2s11\----|---14b16r(14)p12---14b15r(14)p12-|
|----------|-------------|---------------------------------|
|----------|-------------|---------------------------------|
|-0--------|-------------|---------------------------------|


                                                      ~~
|------------------------12---------------------|------------------|
|------------------------12---------------------|------------------|
|---14b15r(14)p12-14b16=====14r(14)p12----14----|-12h14-(14)\------|
|--------------------------------------14----14-|------------------|
|-----------------------------------------------|------------------|
|-----------------------------------------------|------------------|


|------------------------------------------------------------------|
|----------------15--------------15-------------15-------------15--|
|---14b16==(14)r----14b16==(14)r----14-(14)pb16----14-(14)pb16-----|
|------------------------------------------------------------------|
|------------------------------------------------------------------|
|------------------------------------------------------------------|


|--------------------------------------------------------------------------|
|-------------15-------------15-----------15-------------------------------|
|-14-(14)pb16----14-(14)pb16----14-14pb16----14b16==(14)r(14)p12-14b15p12--|
|--------------------------------------------------------------------------|
|--------------------------------------------------------------------------|
|--------------------------------------------------------------------------|


                           ~~
|----------------|-----------------------------|
|----------------|-----------------------------|
|----14b15p12----|--14b16p12----14b16r(14)-12--|
|----------------|-----------------------------|
|----------------|-----------------------------|
|----------------|-----------------------------|


                                           Faster Q=150
                 ~~~~~~
|----------------------------|-------------||-----------||
|----------------------------|-------------||-----------||
|--14b16r(14)---14b16r(14)---|-7tr9--------||-(7tr9)----||
|----------------------------|-------------||-----------||
|----------------------------|-------------||-----------||
|----------------------------|-------------||-----------||


  Gtr II
|-16-16\-------/16-16-16-14-|-12-12\-------/12-12-12-14-|
|-15-15\-------/15-15-15----|-12-12\-------/12-12-12-14-|
|-16-16\-------/16-16-16-14-|-13-13\-------/13-13-13-14-|
|---------------------------|---------------------------|
|---------------------------|---------------------------|
|---------------------------|---------------------------|
|
| Gtr I
|---------------------------|---------------------------|
|---------------------------|---------------------------|
|--9--9----(9)---9--9--9--7-|--9--9--(9)----------------|
|--9--9----(9)---9--9--9--7-|--9--9--(9)----------------|
|--7--7----(7)---7--7--7--7-|--7--7--(7)----------------|
|---------------------------|---------------------------|


         ~~~~~~~
|-16-16-16------------------------|
|-15-15-15------------15-15-15----|
|-16-16-16-(16)--(16)-16-16-16-14-|
|---------------------------------|
|---------------------------------|
|---------------------------------|
|
|---------------------------------|
|---------------------------------|
|--9-----9--------(9)--9--9--9--7-|
|--9-----9--------(9)--9--9--9--7-|
|--7-----7--------(7)--7--7--7--7-|
|---------------------------------|


                                 ~~~~~~~~~
|-12-12\-------------------|-----------------21----19-|
|-12-12\-------17-17-17----|-18-----------------------|
|-13-13\-------18-18-18-19-|-20-21---(21)-21----21-19-|
|--------------------------|--------------------------|
|--------------------------|--------------------------|
|--------------------------|--------------------------|
|
|--------------------------|--------------------------|
|--------------------------|--------------------------|
|--9--9--(9)----------0----|--2--2----(2)-----2--2--0-|
|--9--9--(9)----------0----|--2--2----(2)-----2--2--0-|
|--7--7--(7)----------0----|--0--0----(0)-----0--0--0-|
|--------------------------|--------------------------|


|-17-17\--------------12----14--|
|-------------------------------|
|-18-18\----------/13----13-14--|
|-------------------------------|
|-------------------------------|
|-------------------------------|
|
|-------------------------------|
|--2--2-------------------------|
|--2--2---2-2-2-2------2--0-----|
|--2--2---2-2-2-2------2--0--0--|
|--0--0---0-0-0-0------0-----0--|
|----------------------------0--|


       ~~~~~~~~~
|-/16--------------16----14-|-12-12\-----------------|
|---------------------------|---------1-(1)s=15---16-|
|-/16-16---(16)-16----16-14-|-13-13\-----------------|
|---------------------------|------------------------|
|---------------------------|------------------------|
|---------------------------|------------------------|
|
|---------------------------|------------------------|
|---------------------------|------------------------|
|----------------9--9--9--7-|--9--9-----(9)---9\-----|
|----------------9--9--9--7-|--9--9-----(9)---9\-----|
|---7--7----(7)--7--7--7--7-|--7--7-----(7)---7\-----|
|---0--0----(0)-------------|------------------------|


|-17----17-(17)----17----17----17-|
|----16---------16----16----16----|
|---------------------------------|
|---------------------------------|
|---------------------------------|
|---------------------------------|
|
|---------------------------------|
|---------------------------------|
|--4---------4---------4-----4----|
|--4---------4---------4-----4----|
|--2---------2---------2-----2----|
|---------------------------------|


|----15----15----15-(15)----15----15-|
|-14----14----14---------14----14----|
|------------------------------------|
|------------------------------------|
|------------------------------------|
|------------------------------------|
|
|------------------------------------|
|------------------------------------|
|--2--------2---------2---------2----|
|--2--------2---------2---------2----|
|--0--------0---------0---------0----|
|------------------------------------|


|---10---10---10-(10)---10---10-|---5-----5------------12----||
|-9----9----9---------9----9----|-4-----4---4-------12-------||
|-------------------------------|----------------------------||
|-------------------------------|----------------------------||
|-------------------------------|----------------------------||
|-------------------------------|----------------------------||
|
|-------------------------------|----------------------------||
|-------------------------------|----------------------------||
|-9-------9--------9-------9----|-4---4---4-4-(4)-4-----4-0--||
|-9-------9--------9-------9----|-4---4---4-4-(4)-4-----4-0--||
|-7-------7--------7-------7----|-2---2---2-2-(2)-2-----2-0--||
|-------------------------------|-------------------------0--||


 Outro
         ~~
|--------------------------------12-------|
|-12--------------------------12----------|
|----14-13------------------x-------------|
|------------------------14---------------|
|-----------------------------------------|
|-----------------------------------------|
|
|-----------------------------------------|
|--9--9--x-x-9-x-x-9-x-x----------9-9-x-x-|
|--9--9--x-x-9-x-x-9-x-x----------9-9-x-x-|
|--9--9--x-x-9-x-x-9-x-x----------9-9-x-x-|
|--7--7--x-x-7-x-x-7-x-x----------7-7-x-x-|
|-----------------------------------------|


              ~~                                 ~~
|---------12------------------------12--|-----------------------------------0----|
|------12------------------------12-----|-12---------------12--------------------|
|----x-------13----------------x--------|----14-13------------14-12--------------|
|-14----------0-------------14----------|----------------------------------------|
|---------------------------------------|----------------------------------------|
|---------------------------------------|----------------------------------------|
|
|---------------------------------------|----------------------------------------|
|----------9--x-x-9-x-x-9---------------|--9-----x-x-9-x-x--9-----x-x-x-x-x-x----|
|----------9--x-x-9-x-x-9-7-------------|--9-----x-x-9-x-x--9-----x-x-x-x-x-x----|
|----------9--x-x-9-x-x-9-7-------------|--9-----x-x-9-x-x--9-----x-x-x-x-x-x----|
|----------7--x-x-7-x-x-7-7-------------|--7-----x-x-7-x-x--7-----x-x-x-x-x-x----|
|---------------------------------------|----------------------------------------|


|----------------------------------|-15p12----15p12----15p12----15p12----15p12----15p|
|-12-----------------12------------|-------12-------12-------12-------12-------12----|
|----14-12--------------14-12------|-------------------------------------------------|
|----------------------------------|-------------------------------------------------|
|----------------------------------|-------------------------------------------------|
|----------------------------------|-------------------------------------------------|
|
|----------------------------------|-------------------------------------------------|
|--x--x--x-x-x-x-9-9--9------------|--2-----x--x--2-----x--x--2-----x--x--2-----x--x-|
|--x--x--x-x-x-x-9-9--9-----7--0-0-|--2-----x--x--2-----x--x--2-----x--x--2-----x--x-|
|--x--x--x-x-x-x-9-9--9-----7--0-0-|--2-----x--x--2-----x--x--2-----x--x--2-----x--x-|
|--x--x--x-x-x-x-7-7--7-----7--0-0-|--0-----x--x--0-----x--x--0-----x--x--0-----x--x-|
|---------------------------0------|-------------------------------------------------|


|-12----15p12----15p12----15p12----------12----|
|----12-------12-------12-------12-12-12-------|
|----------------------------------------------|
|----------------------------------------------|
|----------------------------------------------|
|----------------------------------------------|
|
|----------------------------------------------|
|--2-----x--x--2--2--2--2--2-------------------|
|--2-----x--x--2--2--2--2--2-----0-------------|
|--2-----x--x--2--2--2--2--2-----0-------------|
|--0-----x--x--0--0--0--0--0-----0-------------|
|----------------------------------------------|


|-(12)---------------------------------------------|
|------12----14p12----14p12----14p12----14p12------|
|---------12-------12-------12-------12-------12---|
|--------------------------------------------------|
|--------------------------------------------------|
|--------------------------------------------------|
|
|--------------------------------------------------|
|--------------------------------------------------|
|---9------x--x--9-----x--x--9--9--x--x--9--x--x-x-|
|---9------x--x--9-----x--x--9--9--x--x--9--x--x-x-|
|---7------x--x--7-----x--x--7--7--x--x--7--x--x-x-|
|--------------------------------------------------|


            ~~~~~                                 ~~~~~
|----------------------------------------------|------------------|
|---15-----15b17---------15---12---------------|------------------|
|--------------------------------14b15r(14)p12-|-14b16------------|
|----------------------------------------------|------------------|
|----------------------------------------------|------------------|
|----------------------------------------------|------------------|
|
|----------------------------------------------|------------------|
|----------------------------------------------|--4-----4--4--4---|
|-9----x-x--9----9-x-9-9-----------------------|--4-----4--4--4---|
|-9----x-x--9----9-x-9-9----0------------------|--4-----4--4--4---|
|-7----x-x--7----7-x-7-7----0------------------|--2-----2--2--2---|
|---------------------------0------------------|------------------|


  Gtr I
|----------|-----------*|
|-2--------|-8\--------*|
|-2--------|-7\--------*|
|-2--------|-----------*|
|-0--------|-7\--------*|
|----------|-----------*|

__________________________________________________________________________

Thank You
Standard Tuning
Gtr I (E A D G B E) - 'Jimmy Page - 12 Steel Clean Electric'
Gtr II (E A D G B E) - 'Jimmy Page - 6 Steel String Acoustic'

 Intro
  Q=78
 4/4
  Gtr II
|-----3-2-0-0-2-2-0-2-|-----3-2-0-0-2-2-0-2-|
|---------------------|---------------------|
|---------------------|---------------------|
|---------------------|---------------------|
|---------------------|---------------------|
|---------------------|---------------------|
|
| Gtr I
|---2-2-2---0-2-0-0-2-|---2-2-2---0-2-0-0-2-|
|-3-3-3-3-----3---3-3-|-3-3-3-3-----3---3-3-|
|-2-2-2-------2---2-2-|-2-2-2-------2---2-2-|
|-0-0-----------------|-0-0-----------------|
|---------------------|---------------------|
|---------------------|---------------------|


|---------3-2-0-0-2---2-0-2-|-------------------------------|
|---------------------------|----3---------3---------3------|
|---------------------------|-2--------2--------2-----------|
|---------------------------|-------------------------------|
|---------------------------|-------------------------------|
|---------------------------|-------------------------------|
|
|-----3-0-3-2---0-2---2-0-2-|----2---2-2-2-2-3-(3)-3-3-3----|
|-----3-3-3-3-3-3-3-3---3-3-|-3--3-3---3-3-3-3-(3)-3-3-3----|
|-----0-------0---0-0---0-0-|-2----2---2-2-2-2-(2)---2------|
|---------------------------|-0------------0---------0------|
|-0-2-----------------------|-------------------------------|
|---------------------------|-------------------------------|


|-----3-2-0-0-2---2-0-2-|---------3-2-0-0-2-2-0-2-|
|-----------------------|-------------------------|
|-----------------------|-------------------------|
|-0---------------------|-------------------------|
|-----------------------|-------------------------|
|-----------------------|-------------------------|
|
|---2-3-2-0-0-2---2-0-2-|-----0-0-3-2-0-0-2-2-0-2-|
|---3-3---3---3---3-3-3-|-----3-3-3-3-3---3-3-3-3-|
|-2-2-----2---2-2-2-2-2-|-----0-0-0---0---0---0-0-|
|-0-0-----------0-------|-------------------------|
|-----------------------|-0h3---------------------|
|-----------------------|-------------------------|


|---------3-2-0-0-2-2-0-2-|-------------------------||
|-------------------------|----3-------3---------3--||
|-------------------------|-2------2--------2-------||
|-------------------------|-------------------------||
|-------------------------|-------------------------||
|-------------------------|-------------------------||
|
|-------0-3-2-0---2-2-0-2-|----2-2-------3-(3)-3-3--||
|-----3-3-3---3---3---3-3-|-3--3---3-3-3-3-(3)-3-3--||
|-----0---0-------2---0-0-|-2--2---2-2-2-------2-2--||
|-------------------------|-0------0-0-0------------||
|-0h2---------------------|-------------------------||
|-------------------------|-------------------------||


 Verse 1
  Gtrs I, II
|-2--------|---------|---------|---------|-----|
|-3--------|---------|---------|---------|-----|
|-2--------|---------|---------|---------|-----|
|-0--------|---------|---------|---------|-----|
|----------|---------|---------|---------|-----|
|----------|---------|---------|---------|-----|


  Gtr I
|-----------------|-------------------|
|-------1---------|---------3---------|
|-----0---0---0---|-------0---0---0---|
|---2-------2---2-|-----0-------0---0-|
|-3---------------|-0h2---------------|
|-----------------|-------------------|


|-------2-3-2-----|-2-2-2-2-2---2---2-2-----||
|-----3-------3---|-3-3-3-3-3-3-3-3-3-3-0---||
|---2-----------2-|-2-2-2---2-2---2-2-2-0---||
|-0---------------|-0---0---0-----0---0-----||
|-----------------|-------------------------||
|-----------------|-------------------------||


 Chorus
|-2-2-2-2-2-2-2-2-|-4-4-4-4-4-4-4-4-|-2-2---2-2---2-2---2--|-4--0--(0)----||
|-3-3-3-3-3-3-3-3-|-5-5-5-5-5-5-5-5-|-3-3---3-3---3-3---3--|-5--2--(2)----||
|-4-4-4-4-4-4-4-4-|-4-4-4-4-4-4-4-4-|-4-4---4-4---4-4---4--|-4--2--(2)----||
|-4-4-4-4-4-4-4-4-|-6-6-6-6-6-6-6-6-|-4-4---4-4---4-4---4--|-6--2--(2)----||
|-2-2-2-2-2-2-2-2-|-7-7-7-7-7-7-7-7-|-2-2p0-2-2p0-2-2p0-2--|-7--0--(0)----||
|-----------------|-----------------|----------------------|--------------||


 Bridge
  Gtrs I, II
|-0-0-0-0-0-0-0-0-|-----------------3-----|
|-1-1-1-1-1-1-1-3-|---3-3-3-3-3-----3-----|
|-0-0-0-0-0-0-0-0-|-0-0-0-0-0-0-----0-0---|
|-2-2-2-2-2-2-2-2-|-0-0-0-0---0-0-0-0-0-0-|
|-3-3-3-3-3-3-3-3-|-----------2-0h2-------|
|-----------------|-3-3-3-----3-----3-3---|


|---2-----2-2-2-2-3-3-(3)-3-0-2-|-2---2---2-(2)---2-2---0-|
|-3-3--3--3-3-3-3-3-3-(3)-3-3-3-|-3-3-3-3-3-(3)-3-3-3-3-3-|
|-2-2--2--2-2-2-2-2-2-(2)-2-2---|-2-2-2---------2-2-2-2-2-|
|-0-0--0--0---0---0-0-(0)---0---|-0-0-0-----------0---0-0-|
|-----(0)-----------------------|-------------------------|
|-------------------------------|-------------------------|


|-0-0-0---0---0-0-0-0-----|-3---------3-3---3-3---(0)-|
|-1-1-1-1-1-1-1-1-1-3-(0)-|-3-3-3-3-3-3-3-3-3-3-------|
|-0-0-0-0---0-0---0-0-----|-0-0-0-0-0-0-2-2---2-------|
|-2-2-2-2---2-----2-2-----|-0-0---0-0---0-----0-0-----|
|-3-3-3-----3-----3-3-----|-------------2-----2-0-----|
|-------------------------|-3-----3-3---3-----3-------|


|-2---2-2-2-(2)-3-3-3-3---x-|--2--------2-2-2-2-2-2-2---2-------||
|-3-3-3-3-3--3--3-3-3-3-3---|--3--3-(3)-3-3-3-3-3-3-3---3-3-x---||
|-2-2-2-2-2--2--2---2---2---|--2--2-----2-2---2-2-2-2-2-2-2-x---||
|-0-0-0-0----0--0---0---0---|--0--0-----0-----0---0---0---0-----||
|---------------0-----------|-(0)---------------------0---------||
|---------------------------|-----------------------------------||


 Chorus
  Bm                  E
  Gtr II
  | | || | || | | |   | | || |  | | | | |
  / / // / // / / /   / / // /  / / / / /

  Gtr I
|-2-2--2-2--2-2-2-2-|-4-4--4--4-4-4-4-4--|
|-3-3--3-3--3-3-3-3-|-5-5--5--5-5-5-5-5--|
|-4-4--4-4--4-4-4-4-|-4-4--4--4-4-4-4-4--|
|-4-4--4-4--4-4-4-4-|-6-6--6--6-6-6-6-6--|
|-2-2--2-2--2-2-2-2-|-7-7--7--7-7-7-7-7--|
|-------------------|--------------------|


  Bm                      E   A
  | | | | |   | | | | ||  | |||   |
  / / / / /   / / / / xx  / xx/   /

|-2-2---2-2---2-2---2---|-4---0--(0)-----||
|-3-3---3-3---3-3---3---|-5---2--(2)-----||
|-4-4---4-4---4-4---4---|-4---2--(2)-----||
|-4-4---4-4---4-4---4---|-6---2--(2)-----||
|-2-2p0-2-2p0-2-2p0-2---|-7---0--(0)-----||
|-----------------------|----------------||


  Gtr II
|----3-2-0-0-2---2-0-2-|-----3-2-0-0-2-2-0-2-|
|----------------------|---------------------|
|----------------------|---------------------|
|----------------------|---------------------|
|----------------------|---------------------|
|----------------------|---------------------|
|
| Gtr I
|----3-2---0-2---2-0-2-|-0-3-3-2-0-0-2-2-0-2-|
|-3--3---3---3-----3-3-|-3-3-3-3-3-3-3---3-3-|
|-2--2---2---2-2---2-2-|-0-0-----0---0-------|
|-0--0---0---0-0---0-0-|-2-2-----0-----------|
|----------------------|-3-3-----------------|
|----------------------|---------------------|


                            ~~~~~~~~
|---------3-2-0-0-2-2-0-2-|---------------------------------||
|-------------------------|---------------------2--3--------||
|-------------------------|-2---(2)-----0-2---4---------7-9-||
|-------------------------|-----------4---------------------||
|-------------------------|---------------------------------||
|-------------------------|---------------------------------||
|
|-----3---3-2-0-0-2-2-0-2-|-2-------2-2-2-3-3-3-3-(3)-3-3-0-||
|-----3-3-3-3-3-3-3-3-3-3-|-3----3--3-3-3-3-3-3-3-(3)-3-3-0-||
|---------0-------0---0---|-2-2--2----2-2-2-2-2-2-(2)---2---||
|-------------------------|------0----0---------------------||
|-0h2---------------------|---------------------------------||
|-------------------------|---------------------------------||


 Guitar Solo
                                                    ~~~~~~~~
|--------7--------------------------|-----7------------------------7---|
|-7-8-10---10-8-7---7-----------7-8-|-(8)---10-10-8-8---(8)-7-8-10-----|
|-----------------9---9-7-6-7-9-----|----------------------------------|
|-----------------------------------|----------------------------------|
|-----------------------------------|----------------------------------|
|-----------------------------------|----------------------------------|
|
|------2----2-2---0-2-----0-0---2---|-----2-----2-2---0--2----0--0---2-|
|-3----3----3-3-----3-------3---3---|--3--3-----3-3------3-------3---3-|
|-2----2----2-------2-------2---2---|--2--2-----2--------2-------2---2-|
|-0----0----------------------------|--0--0----------------------------|
|-----------------------------------|----------------------------------|
|-----------------------------------|----------------------------------|


                                                                 ~~~~~~~~~~
|----------------7----------------7----------------|--------------------------------------------|
|---------7-8-10-----------7-8-10-----10---8-7---8-|---8-8-8-7-7-7-----(7)----------------------|
|---6-7-9------------6-7-9-------------------------|-------------------------(7)-6-(6)---7------|
|--------------------------------------------------|--------------------------------------------|
|--------------------------------------------------|--------------------------------------------|
|--------------------------------------------------|--------------------------------------------|
|
|-------3---0----3-2-----0---2-----------2-0---2---|-------------2---2--2--2--2--3-(3)-3-3-3----|
|-------3---3----3-3-3---3---3------3------3---3---|-3-----------3-3----3--3--3--3-(3)-3-3-3----|
|-------0------------0-------0------0------0---0---|-2-------------2----2--2--2--2-(2)---2------|
|--------------------------------------------------|-0------------------------0----------0------|
|-0-2----------------------------------------------|--------------------------------------------|
|--------------------------------------------------|--------------------------------------------|


                                        ~
|-----------------------------|-----------------------------|
|-----------------------------|-----------------------------|
|-7---7-6-7-6---6-------------|-----------------------------|
|-------------9---7-9-5-7-4-5-|-4---4-----------------4-5-7-|
|-----------------------------|---7---7-5-------4-5-7-------|
|-----------------------------|-----------------------------|
|
|---2-2-2---0-2-----0-0---2---|-----2---2-2-0-2-----0-0---2-|
|-3-3-3-3-----3-------3---3---|-3---3---3-3---3-------3---3-|
|-2-2-2-------2-------2---2---|-2---2---2-----2-------2---2-|
|-0-0-------------------------|-0---0-----------------------|
|-----------------------------|-----------------------------|
|-----------------------------|-----------------------------|


                                         ~~~~~~        ~         ~
|-------------------7--------------|------------------------------------||
|---------------7-8---10-8-7---7-9-|-8-7-7-(7)-----8-7-7----8--7-7------||
|---------6-7-9--------------9-----|------------------------------------||
|-----7-9--------------------------|------------------------------------||
|----------------------------------|------------------------------------||
|----------------------------------|------------------------------------||
|
|-----3-0-3-2---0-2------2-0---2---|--------2----2-2-2-2-3-(3)-3-3-3----||
|-----3-3-3-3-3-3-3----3---3---3---|-3------3--3---3-3-3-3-(3)-3-3-3----||
|-----0-------0---0----0---0---0---|-2---------2---2-2-2-2-(2)---2------||
|----------------------------------|-0-----------------0---------0------||
|-0-2------------------------------|------------------------------------||
|----------------------------------|------------------------------------||


 Verse 2
  D
  Gtr I
   |
   /

  Gtr II                                   Gtr I
|------------|---------|---------|---------|-----0---0---------------------|
|-(7)--------|---------|---------|---------|--10---7---------8-------------|
|------------|---------|---------|---------|-----------7-------------------|
|------------|---------|---------|---------|-------------7s9---9s7-(7)-0---|
|------------|---------|---------|---------|-----------------------------2-|
|------------|---------|---------|---------|-------------------------------|


  Gtr I
|-----------------------|-------------------------|
|-------1-----1---------|-----------1-------------|
|-----0---0h2-----------|---------0---2p0---------|
|---2-----------2p0---0-|-2p0---0---------2p0-----|
|-3-----------------3---|-----2---------------0h2-|
|-----------------------|-------------------------|


|-------2---2---2h(3)-|-3-3-2-2-2-0-2-2-2-2-2-------||
|-----3-------3-3-----|-3-3-3-3-3-3-3-3-3-3---3-0---||
|---2-----2-----------|-2-2---2-2-2-2-2-2-2---2-----||
|-0-------------------|-0-----0-0-0-0-0---0---0-----||
|---------------------|-------0---------------------||
|---------------------|-----------------------------||


 Chorus
  Bm                E                    Bm                     E  A
  Gtr II
  | | | | | | | |   | | || || | | || |   | |   | | | | |   |    |  |   |
  / / / / / / / /   / / // // / / // x   / /   / / / / /   /    /  /   /

  Gtr I
|-2-2-2-2-2-2-2-2-|-4-4--4--4-4-4--4-4-|-2-2---2-2---2-2---2--|-4--0--(0)----||
|-3-3-3-3-3-3-3-3-|-5-5--5--5-5-5--5-5-|-3-3---3-3---3-3---3--|-5--2--(2)----||
|-4-4-4-4-4-4-4-4-|-4-4--4--4-4-4--4-4-|-4-4---4-4---4-4---4--|-4--2--(2)----||
|-4-4-4-4-4-4-4-4-|-6-6--6--6-6-6--6-6-|-4-4---4-4---4-4---4--|-6--2--(2)----||
|-2-2-2-2-2-2-2-2-|-7-7--7--7-7-7--7-7-|-2-2p0-2-2p0-2-2p0-2--|-7--0--(0)----||
|-----------------|--------------------|----------------------|--------------||


 Verse 3
  Gtr I
|---------|---------|---------|---------|
|---------|---------|---------|---------|
|---------|---------|---------|---------|
|---------|---------|---------|---------|
|---------|---------|---------|---------|
|---------|---------|---------|---------|
|
| Gtr II
|---------|---------|---------|---------|
|---------|---------|---------|---------|
|---------|---------|---------|---------|
|---------|---------|---------|---------|
|---------|---------|---------|---------|
|---------|---------|---------|---------|


|----0---0---------------------------------|
|-10---7---------------0---0---------------|
|--------------(7)-----------7-(7)---------|
|----------(7)-----7s9---------------------|
|------------------------------------------|
|------------------------------------------|
|
|--------5--5---0--2-0---------------------|
|----------------------3-0-----------------|
|--------------------------2-0-------------|
|-------------------------------4--2-0-----|
|--------------------------------------2---|
|------------------------------------------|


  Gtr I
|-------------------|-------------------------|
|-------1-----------|-------------------------|
|-----0---(0)---0---|-------------------------|
|---2---------2---2-|-----0h2p0-------0h2p0---|
|-3-----------------|-0h2-------0-0h2-------2-|
|-------------------|-------------------------|


|-----5-2-3p2---------|---------------------------|
|-------------3-3p0---|---------------------------|
|---2---------------2-|-2p0-----------------------|
|-0-------------------|-----4-2p0-----0h2p0---0---|
|---------------------|-----------0h2-------2---2-|
|---------------------|---------------------------|


                                                                    3x
|----------|----------||-----------|------------|------------|------||
|----------|----------||o----------|------------|------------|-----o||
|----------|----------||-----------|------------|------------|------||
|----------|----------||-----------|------------|------------|------||
|-3--------|-2--------||o-0--------|-(0)--------|-(0)--------|-----o||
|----------|----------||-----------|------------|------------|------||


|----------|------------|----------|------------|----------|--------|
|----------|------------|----------|------------|----------|--------|
|----------|------------|----------|------------|----------|--------|
|----------|------------|----------|------------|----------|--------|
|-0--------|-(0)--------|-0--------|-(0)--------|-0--------|-(0)----|
|----------|------------|----------|------------|----------|--------|


 2/4      4/4
|--------|----------|------------|------*|
|--------|----------|------------|------*|
|--------|----------|------------|------*|
|--------|----------|------------|------*|
|-(0)----|-0--------|-(0)--------|-0----*|
|--------|----------|------------|------*|

_____________________________________________________________________________
Heartbreaker
Standard tuning
[Riff 1]
e:-------|-----------------------|-----------------------------------|
B:-------|-----------------------|-----------------------------------|
G:-------|-----------------------|-----------------------------------|
D:-------|-----------0--1-2------|---------------0--1-2--------------|
A:-------|---0--3~---------------|---0-0-0-0-3~----------------------|
E:--3b---|------------------3b---|-----------------------3b----------|

[Riff 2]
e:--------------------|----------------------------------------------|
B:--------------------|----------------------------------------------|
G:--------------------|----------------------------------------------|
D:--------2--3-4------|-------------2--3-4---------------------------|
A:--2--5--------------|--2-2-2-2-5-----------------------------------|
E:----------------5b--|---------------------5b-----------------------|

[Riff 3]
e:------------------------|------------------------------------------|
B:------------------------|------------------------------------------|
G:------------------------|------------------------------------------|
D:------------3--4-5------|---------------3--4-5---------------------|
A:--3~---6~---------------|---3-3-3-3-6~-----------------------------|
E:--------------------6b--|-----------------------6b-----------------|

[Riff 4]
e:-----------------------|-------------------------------------------|
B:-----------------------|-------------------------------------------|
G:-----------------------|-------------------------------------------|
D:-----------5--6-7------|---------------5--6-7----------------------|
A:--5~---8~--------------|---5-5-5-5-8~------------------------------|
E:------------------8b---|----------------------8b-------------------|

[Riff 5]
e:---------------------------|---------------------------------------|
B:---------------------------|---------------------------------------|
G:---------------------------|---------------------------------------|
D:------------7--8-9---------|-------------------7--8-9--------------|
A:--7~--10~------------------|----7-7-7-7--10~-----------------------|
E:--------------------10b----|---------------------------10b---------|

[Fill 1]
e:-------------------------------------------------------------------|
B:-------------------------------------------------------------------|
G:------7---7---7---7-7-7--9-9-9-------------------------------------|
D:--7s9---9---9---9--------------------------------------------------|
A:-------------------------------------------------------------------|
E:-------------------------------------------------------------------|

Progression:

[Riff 1] x2
[Riff 2] x1
[Riff 1] x1

 A5				     D		    A
Hey fellas have you heard the ...
					D	  A
It won't take long until someone can ...
					D	A
Her style is new but the face's ....
				      D        A
But from her eyes a different smile like that of one who knows.....
	D  A  D  A  D  A

[Riff 1] x2
[Riff 2] x1
[Riff 1] x1

       A5			       D	  A
Well it's been ten years and maybe ....
				  D	   A
The best years of my life gone....
				D	A
Some people cry and some people ...
				     D	       A
But I'll just keep on rollin'....

	D  A  D  A  D  A

With [Riff 3] x2:

People talkin' all around 'bout ...
, I know where ...

With [Riff 4] x1:

One thing I do have on my mind, ...

With [Riff 5] x1:

It's the way you call me another ...

[Fill 1] x2

Wallop an E chord, then break into the solo:

e:--------------------|--------------------|-------------------------|
B:--------------------|--------------------|-------------------------|
G:--2~~~h5p2p0--------|--2~~~h5p2p0--------|-------------------------|
D:--------------2p0---|-------------2p0----|-------------------------|
A:------------------3-|-----------------3--|-------------------------|
E:--------------------|--------------------|-------------------------|

e:-------------------------------------------------------------------|
B:-------------------------------------------------------------------|
G:-2~~h5p2p0h5p2p0h5p2p0h5p2p0h5p2p0h5p2p0-h5b8r7p2p0-h5b8r7p2p0-----|
D:-------------------------------------------------------------------|
A:-------------------------------------------------------------------|
E:-------------------------------------------------------------------|
					     *		*

e:-------------------------------------------------------------------|
B:-------------------------------------------------------------------|
G:-h5b8r7p2p0-h5b8r7p2p0-h5b8r7p2p0-h5b8r7p2p0---5b9r5b9r5b9r5b9r5---|
D:-------------------------------------------------------------------|
A:-------------------------------------------------------------------|
E:-------------------------------------------------------------------|
     *		*	   *	      * 	  *   *   *   *

e:----------------|-----------------------|--------------------------|
B:----------------|-----------------------|--------------------------|
G:----5-7b9-7b9---|-----5--7b9-7b9r7-5----|----5-7b9r7b9r7b9r7b9~----|
D:--7-------------|--7-----------------7--|--7-----------------------|
A:----------------|-----------------------|--------------------------|
E:----------------|-----------------------|--------------------------|

e:-------------------------------------------------------------------|
B:------------------------------------------5-5--8p5-5---5-5--8p5----|
G:-7b9r7-5-----7b9r7-5-----7b9r7-5----5-7b-------------7----------7b9|
D:---------7-----------7-----------7---------------------------------|
A:-------------------------------------------------------------------|
E:-------------------------------------------------------------------|

e:-------------------------------------8p5-7---------8p5-7-----5h8p5-|
B:--5-8p5--5-5-5-5-8p5-------5--8p5-5--------5h7--5--------5h7-------|
G:---------------------7--7b-----------------------------------------|
D:-------------------------------------------------------------------|
A:-------------------------------------------------------------------|
E:-------------------------------------------------------------------|

e:------8p5-7p5--5------5---8--11--11p8---10p8-8---------------------|
B:-7-5-------------/10----------------------------8h10---------------|
G:-----------------------------------------------------8-9-8-8-9--6-7|
D:-------------------------------------------------------------------|
A:-------------------------------------------------------------------|
E:-------------------------------------------------------------------|

e:-------------------------------------------------------------------|
B:-------------------------------------------------------------------|
G:--7---4-5-4--------------4-5p4-------------------------------------|
D:------------6-5------4-5--------7----7-7--4h5p4---4h5p4------------|
A:----------------0-7---------------0-------------7-------7-0-0-4-3--|
E:-------------------------------------------------------------------|

e:-----------|------------------------5------------------------------|
B:-----------|---------------------5-----8p5-------------------------|
G:-----------|-------------2--4s6--------------7b9--8p7-5--7p5-------|
D:-----------|---------2-4-------------------------------------7p5---|
A:--5-3-4----|-0--2-4----------------------------------------------7-|
E:--------3~-|-------------------------------------------------------|

e:----------------------------------5--------------------------------|
B:--------------------------------5---8p5-8p5------------------------|
G:---------5--7--5h7p5---5-7--7b9-------------7-8-8b---5-5h7--5----5-|
D:--5h6h7--------------7----------------------------------------7----|
A:-------------------------------------------------------------------|
E:-------------------------------------------------------------------|

e:--------------5--5-------------------------------------------------|
B:------------5-------8~~-----------9-------7-------5-----4-----3~~\-|
G:--5--5h6--6--------------------------------------------------------|
D:---------------------------0---9------7-------6------5-----4~~~~~\-|
A:-------------------------------------------------------------------|
E:-------------------------------------------------------------------|

Repeat this 8 times:

    A7	 A13sus4  A7	  A6
e:-------------------------------------------------------------------|
B:---2------3------5-------7-----5------3----------------------------|
G:---0------0------0-------0-----0------0----------------------------|
D:---2------4------5-------7-----5------4----------------------------|
A:---0------0---------------------------0----------------------------|
E:-------------------------------------------------------------------|

After the above riff repeats 4 times, these riffs enter in tandem:

	e:--3~~--------------------5~~------------------|
	B:--1~~--------------------3~~------------------|
     -- G:--0~~--------------------0~~------------------| --
     |	D:--2~~--------------------4~~------------------|  |
     |	A:--0~~--------------------0~~------------------|  |
     |	E:----------------------------------------------|  |
     |							   |
     |	e:----------------------|-----------------------|  |
     |	B:----------------------|-----------------------|  |
     |	G:----------------------|-----------------------|  |
     -- D:------------5-5--4--2-|------------5-5--4--2--| --
	A:--0~---3-4------------|--0~---3-4-------------|
	E:----------------------|-----------------------|

Next solo break:
(the two-bar lower riff shown above repeats 4 times under solo)

e:------------------------------------5----------8-9--10p9-10p8-10b12|
B:------------------------------5--7-----/10~~-----------------------|
G:------------2-------2-2--5-6---------------------------------------|
D:------------2---4--------------------------------------------------|
A:-------3s4---------------------------------------------------------|
E:--4s5--------------------------------------------------------------|

e:-10b12-10b12r10---8-9-10-8-9---------------------------------------|
B:------------------------------10--10b12-10b11-10b11-10b11-10b11-10-|
G:-------------------------------------------------------------------|
D:-------------------------------------------------------------------|
A:-------------------------------------------------------------------|
E:-------------------------------------------------------------------|

e:-----------------12--12b14~---12b14--12b13--12b14-12b13--12b15~----|
B:----8---------10---------------------------------------------------|
G:-----------11------------------------------------------------------|
D:-------------------------------------------------------------------|
A:-------------------------------------------------------------------|
E:-------------------------------------------------------------------|

e:--12b14--12b13r12p10-----10----------------------------------------|
B:---------------------13-----13---10h13p10----10-13-10h13p10-----10-|
G:------------------------------------------12----------------12-----|
D:-------------------------------------------------------------------|
A:-------------------------------------------------------------------|
E:-------------------------------------------------------------------|

e:-------------------------------------------------------------------|
B:-13-10h13p10-----10-13-10h13p10-----10-13--10-12-10-10h12p10----10-|
G:-------------12-----------------12---------------------------11----|
D:-------------------------------------------------------------------|
A:-------------------------------------------------------------------|
E:-------------------------------------------------------------------|

e:-------------------------------------------------------------------|
B:--13p10-12p10-----10h13p10--10h12p10-----10h13p10-12-10-10-13b15---|
G:--------------11---------------------11----------------------------|
D:-------------------------------------------------------------------|
A:-------------------------------------------------------------------|
E:-------------------------------------------------------------------|

e:-------------------------------------------------------------------|
B:--13b17~----10----13p10-----10--13b17~~~--13b17~~--13b17--10-----13|
G:---------------13-------13-----------------------------------12----|
D:-------------------------------------------------------------------|
A:-------------------------------------------------------------------|
E:-------------------------------------------------------------------|

e:--------------------------|
B:--10------------5--5------|
G:----------7b9-------------|
D:--------------------------|
A:--------------------------|
E:--------------------------|

At this point another guitar enters banging out these chords:
     A	 G   A	 C   A	G
e:---------------------------|
B:---5---3---5~--8---5--3----|
G:---6---4---6~--9---6--4----|
D:---7---5---7~--10--7--5----|
A:---7---5---7~--10--7--5----|
E:---------------------------|

e:---------------------------------------------------5---------------|
B:-------------------------------------------------5---/10~~-10b13---|
G:--------------------------------------2---4--5s6-------------------|
D:----7-------------------------------2---4--------------------------|
A:-------3--0-0----------------3s4-----------------------------------|
E:----------------3--3--5--5-----------------------------------------|

e:-------------------------------------------------------------------|
B:--10b11-10b13-10b11-10b14-10b14~~~~~---10b13r10--------8--8--8--8--|
G:---------------------------------------------------/7--9--9--9--9--|
D:-------------------------------------------------------------------|
A:-------------------------------------------------------------------|
E:-------------------------------------------------------------------|

				    (second guitar plays a high A chord)
e:---------------------------------------14p12-----14p12-----14p12---|
B:--8---8---8-8-8-8--8-8-8-8--8-8-8-8----------13--------13--------13|
G:--9---9---9-9-9-9--9-9-9-9--9-9-9-9--------------------------------|
D:-------------------------------------------------------------------|
A:-------------------------------------------------------------------|
E:-------------------------------------------------------------------|

e:--14p12------14--12---12--12---------15----15----15~---15~---15~---|
B:--------13------------12--13-----/17----17----17----17----17----17\|
G:-------------------------------------------------------------------|
D:-------------------------------------------------------------------|
A:-------------------------------------------------------------------|
E:-------------------------------------------------------------------|

D   A
  Work so hard I can't ...
D   A
  Abuse my love a thousand ...
D   A
  Heartbreaker your time has ....
D   A
   Go away ...

	D  A  D  A  D  A

	D  A  D  A  D  A

[Riff 1] x1 /w lyrics:

Heartbreaker! Heartbreaker! Heart -

_____________________________________________________________________________
Living Loving Maid (She's Just a Woman)
Standard tuning
"With a purple umbrella and a fifty cent hat"
E|-----------------|
B|-----------------|
G|-----------------|
D|-2222222222222222
A|-0000000000000000
E|-----------------
   xxxxxxx

E|-----------------------|
B|-----------------------|
G|-----------------------|
D|-----------------------|
A|-0-3-0-3-3-5---000-3-0-|
E|-------------3---------|

  "Livin', Lovin', She just a woman"
E|-------------------------------------------|
B|-------------------------------------------|
G|------2222---------------------------------|
D|22-22-0000-2-------------------------------|
A|00-00------0-------------------------------|
E|-------------------------------------------|

  "Misses cool rides out in her aged Cadillac"
E|-----------------|
B|-----------------|
G|-----------------|
D|-2222222222222222
A|-0000000000000000
E|-----------------
   xxxxxxx

E|-------------------------------------------|
B|-------------------------------------------|
G|-------------------------------------------|
D|-------------------------------------------|
A|-0-3-0-3-3-5---000-3-0---------------------|
E|-------------5-----------------------------|

  "Livin', Lovin', She just a woman"
E|-------------------------------------------|
B|-------------------------------------------|
G|------2222---------------------------------|
D|22-22-0000-2-------------------------------|
A|00-00------0-------------------------------|
E|-------------------------------------------|

  "Come on, babe on the round about, ride on the merry-go-round"
E|---------------------------------------------------|
B|---------------------------------------------------|
G|---------------------------------------------------|
D|--------7-7-7-7---------5-5-5-5--------------------|
A|5-5-5-5-5-5-5-5-7-7-7-7-3-3-3-3-7-7-7-5-5-5-5------|
E|3-3-3-3---------5-5-5-5---------5-5-5-3-3-3-3------|

  "We all know what your name is, so you better lay your money down..."
E|----------------|
B|----------------|
G|--------------2-|
D|2-2-2-2-2-2-2-2-|
A|0-0-0-0-0-0-0-0-|
E|----------------|
  X X X X X X X

E|---------------------------------------------------|
B|---------------------------------------------------|
G|---------------------------------------------------|
D|2222222222222222----------------------------7777---|
A|0000000000000000-0-3-0-333-5--000-3-0-00-00-5555-7-|
E|-----------------------------3-------------------5-|

  "Alimony, alimony payin' yo bills"
E|-----------------|
B|-----------------|
G|-----------------|
D|-2222222222222222
A|-0000000000000000
E|-----------------
   xxxxxxx

  "Livin', Lovin', She just a woman"
E|-------------------------------------------|
B|-------------------------------------------|
G|------2222---------------------------------|
D|22-22-0000-2-------------------------------|
A|00-00------0-------------------------------|
E|-------------------------------------------|

  "When ur conscience hits, you knock it back with pills"
E|-----------------|
B|-----------------|
G|-----------------|
D|-2222222222222222
A|-0000000000000000
E|-----------------
   xxxxxxx

  "Livin', Lovin', She just a woman"
E|-------------------------------------------|
B|-------------------------------------------|
G|------2222---------------------------------|
D|22-22-0000-2-------------------------------|
A|00-00------0-------------------------------|
E|-------------------------------------------|

  "Come on, babe on the round about, ride on the merry-go-round"
E|---------------------------------------------------|
B|---------------------------------------------------|
G|---------------------------------------------------|
D|--------7-7-7-7---------5-5-5-5--------------------|
A|5-5-5-5-5-5-5-5-7-7-7-7-3-3-3-3-7-7-7-5-5-5-5------|
E|3-3-3-3---------5-5-5-5---------5-5-5-3-3-3-3------|

  "We all know what your name is, so you better lay your money down..."
E|----------------|
B|----------------|
G|--------------2-|
D|2-2-2-2-2-2-2-2-|
A|0-0-0-0-0-0-0-0-|
E|----------------|
  X X X X X X X

E|---------------------------------------------------|
B|---------------------------------------------------|
G|---------------------------------------------------|
D|2222222222222222----------------------------7777---|
A|0000000000000000-0-3-0-333-5--000-3-0-00-00-5555-7-|
E|-----------------------------3-------------------5-|

  "Tellin' tall tales of how it used to be"
E|-----------------|
B|-----------------|
G|-----------------|
D|-2222222222222222
A|-0000000000000000
E|-----------------
   xxxxxxx

  "Livin', Lovin', She just a woman"
E|-------------------------------------------|
B|-------------------------------------------|
G|------2222---------------------------------|
D|22-22-0000-2-------------------------------|
A|00-00------0-------------------------------|
E|-------------------------------------------|

  "With the butler and the maid and the servants three"
E|-----------------|
B|-----------------|
G|-----------------|
D|-2222222222222222
A|-0000000000000000
E|-----------------
   xxxxxxx

  "Livin', Lovin', She just a woman"
E|-------------------------------------------|
B|-------------------------------------------|
G|------2222---------------------------------|
D|22-22-0000-2-------------------------------|
A|00-00------0-------------------------------|
E|-------------------------------------------|

It's solo time!
Don't be a pussy! Make up your own solo(s)! I would tell you the real one but that's 
plagourism and I can't read.

  "No one hears a single word you say"
E|-----------------|
B|-----------------|
G|-----------------|
D|-2222222222222222
A|-0000000000000000
E|-----------------
   xxxxxxx

  "Livin', Lovin', She just a woman"
E|-------------------------------------------|
B|-------------------------------------------|
G|------2222---------------------------------|
D|22-22-0000-2-------------------------------|
A|00-00------0-------------------------------|
E|-------------------------------------------|

  "Butchya keep on talkin' `til ur dyin' day"
E|-----------------|
B|-----------------|
G|-----------------|
D|-2222222222222222
A|-0000000000000000
E|-----------------
   xxxxxxx

  "Livin', Lovin', She just a woman"
E|-------------------------------------------|
B|-------------------------------------------|
G|------2222---------------------------------|
D|22-22-0000-2-------------------------------|
A|00-00------0-------------------------------|
E|-------------------------------------------|

"Come on, babe on the round about, ride on the merry-go-round"
E|---------------------------------------------------|
B|---------------------------------------------------|
G|---------------------------------------------------|
D|--------7-7-7-7---------5-5-5-5--------------------|
A|5-5-5-5-5-5-5-5-7-7-7-7-3-3-3-3-7-7-7-5-5-5-5------|
E|3-3-3-3---------5-5-5-5---------5-5-5-3-3-3-3------|

  "We all know what your name is, so you better lay your money down..."
E|----------------|
B|----------------|
G|--------------2-|
D|2-2-2-2-2-2-2-2-|
A|0-0-0-0-0-0-0-0-|
E|----------------|
  X X X X X X X

E|---------------------------------------------------|
B|---------------------------------------------------|
G|---------------------------------------------------|
D|2222222222222222----------------------------7777---|
A|0000000000000000-0-3-0-333-5--000-3-0-00-00-5555-7-|
E|-----------------------------3-------------------5-|

"Livin', Lovin', She just a woman"
E|-------------------------------------------|
B|-------------------------------------------|
G|------2222---------------------------------|
D|22-22-0000-2-------------------------------|
A|00-00------0-------------------------------|
E|-------------------------------------------|

E|-----------------------|
B|-----------------------|
G|-----------------------|
D|-----------------------|
A|-0-3-0-3-3-5---000-3-0-|
E|-------------3---------|


"L-L-L-Livin', Lovin', She just a woman"
E|-------------------------------------------|
B|-------------------------------------------|
G|------2222---------------------------------|
D|22-22-0000-2-------------------------------|
A|00-00------0-------------------------------|
E|-------------------------------------------|


E|-----------------------|
B|-----------------------|
G|-----------------------|
D|-----------------------|
A|-0-3-0-3-3-5---000-3-0-|
E|-------------3---------|

"L-L-L-Livin', L-L-Lovin', She just a woman"
E|-------------------------------------------|
B|-------------------------------------------|
G|------2222---------------------------------|
D|22-22-0000-2-------------------------------|
A|00-00------0-------------------------------|
E|-------------------------------------------|

__________________________________________________________________________
Ramble On
Standard TuningThe main acoustic riff is Riff.1.

Riff.1
E-|---------------0----------|-----0----------------------0-----------------|
B-|--9---------0--0----------|--5--5----5--5--5--5--5--5--5--------0--------|
G-|--9---9--9--7--9----------|--6--6h7--7--7--7--7--7--7--6--6--6--6--------|
D-|--9---9--9--7--7---0--0---|--7--7----7--7--7--7--7--7--7--7--7--5--7-----|
A-|--7---7--7--7--9---0--0---|--0--0----0-----0--0--0--0--------0-----7-----|
E-|---------0------------0---|----------------------------------------0-----|
                                                                               
Riff.1
E-|--------------0---------0--------------|----0----------------------------|
B-|--------9--9--0---------0--------------|----5----5-5-5---5---5--5--5----5|
G-|--7/9---9--9--7--7-7----9--9-9-9-------|-6--6h7--7-7-7-7-6h7-7--7--6h7--7|
D-|--------9--9--7--7-7-7--7--7-7-7--0--0-|-7--7----7-7-7-7-7---7--7--7----7|
A-|--9/11--7--7--7---------9---------0--0-|-0-----------0---0---0--0--0----0|
E-|-----------0-------------------------0-|---------------------------------|
                                                                             Riff.2 (acoustic)
E, F#m7, G#m7 | A, F#m7, E.  
                                                                             
Riff.2 (electric)
E-|-0---0-----0------------|-------------0---0---------|-0--------0---------|
B-|-0----0-0--0---0-0----0-|-0----0--0---0-0---0-------|---------0--0--0-0-0|
G-|-11-----9--9-----9h11---|-7p6-----6p4---------------|b11(13)p9---9--9h11-|
D-|------------------------|---------------------7p6---|--------------------|
A-|------------------------|-------------------------7-|--------------------|
E-|------------------------|---------------------------|--------------------|

Riff.2 (acoustic)                 
E-|-4---------------------------|--0----------------0-----------------------|
B-|----------2------7-----------|--5-----------2----0-----------------------|
G-|-1--------2------4--4--4-----|--6-----------2----1-----------------------|
D-|----------2------4--4--4--0--|--7--7--------2----2-----------------------|
A-|-2--2-----4------6--6--------|--0--0-0--7---4----2-----------------------|
E-|-0-----0--2--0---4-----------|----------0---2----0-----------------------|
                                                                               


Riff.3 (electric)
E-|--------------------|-----------------------------2---2--3---------------|
B-|-9------------------|--3/5-----5--5\3---3--3------3---3--3---------------|
G-|-9--9--9--7--9\-----|-------------------------0-------2------------------|
D-|-9--9--9--7--7\-----|--5/7--------7\5------5--0--------------------------|
A-|-7--7--7--7--9\-----|----------------------------------------------------|
E-|--------------------|----------------------------------------------------|
                                                                               
Riff.3 (acoustic)
E-|--------------------|-------0----------0---0----------2--3---------------|
B-|--------------------|----5--5--5--5\3--3---3----------3--3---------------|
G-|-9--9--9--7--9\-----|-------0--0-------0---0--0-0-----2--0---------------|
D-|-9--9--9--7--7\-----|----7--------7\5---------0-0-----0------------------|
A-|-7--------7--9\-----|----------------------------------------------------|
E-|--------------------|----------------------------------------------------|
                                                                               

Solo.1 (gtr1)                                                                               
E-|---------|-----------------------------12--------------------------------|
B-|-15------|-15p14h15--15p14h15-15p14h15-----15-14-15----------------------|
G-|---------|---------------------------------------------------------------|
D-|---------|---------------------------------------------------------------|
A-|---------|---------------------------------------------------------------|
E-|---------|---------------------------------------------------------------|
                                                                               
Solo.1 (gtr2)                                                                               
E-|---------|---------------------------------------------------------------|
B-|-12------|-12p10h12--12p10h10-12p10h12-14--12-10-12----------------------|
G-|---------|---------------------------------------------------------------|
D-|---------|---------------------------------------------------------------|
A-|---------|---------------------------------------------------------------|
E-|---------|---------------------------------------------------------------|
                                                                               


Solo.2 (gtr1)
E-|-12-------------12------------12------|-12-------------------------------|
B-|---15-14-12-------15-14-12------15-14-|---15-14-12---12-14--12-14--12-14-|
G-|------------14-------------14----------|------------14-------------------|
D-|---------------------------------------|---------------------------------|
A-|---------------------------------------|---------------------------------|
E-|---------------------------------------|---------------------------------|
                                                                               
Solo.2 (gtr2)                                                                               
E-|-------------------------------------|-----------------------------------|
B-|-14p12---------14p12---------14p12---|-14p12-----------------------------|
G-|------14p11---------14p11---------14-|------14p11----11-14--11-14--11-14-|
D-|-----------14------------14----------|-----------14----------------------|
A-|-------------------------------------|-----------------------------------|
E-|-------------------------------------|-----------------------------------|
                                                                               


Riff.4 (electric)
E-|------------------------------|------------------------------------------|
B-|------------------------------|------------------------------------------|
G-|--------9--9--9---------------|------9-9--9--7---7-7-7-------------------|
D-|------9-9--9--9-------9-9-----|-9h11-----11--7h9-----9--6-7--------------|
A-|-9h11-----11--9--9p11-----11--|------------------------------------------|
E-|------------------------------|------------------------------------------|

_____________________________________________________________________________
Moby Dick
Note: Sixth string = D (one full step down)

|----------------------------------|----------------------------------|
|----------------------------------|----------------------------------|
|----------------------------------|----------------------------------|
|----------------------------------|----------------------------------|
|-----5---5p3----------------------|-----5---5p3----------------------|
|-0-----------5-3-----5-3-----5---3|-0-----------5-3-----5-3-----5---3|

|----------------------------------|----------------------------------|
|----------------------------------|----------------------------------|
|----------------------------------|----------------------------------|
|----------------------------------|----------------------------------|
|-----5---5p3----------------------|-----5---5p3----------------------|
|-0-----------5-3-----5-3-----5---3|-0-----------5-3-----5-3-----5---3|

|--------------------------------|--------------------------------|
|--------------------------------|--------------------------------|
|--------------------------------|--------------------------------|
|-----5---5p3--------------------|-----5---5p3--------------------|
|-------------5-1-----3---1-3---1|-------------5-1-----3---1-3---1|
|-5------------------------------|-5------------------------------|

|----------------------------------|----------------------------------|
|----------------------------------|----------------------------------|
|----------------------------------|----------------------------------|
|----------------------------------|----------------------------------|
|-----5---5p3----------------------|-----5---5p3----------------------|
|-0-----------5-3-----5-3-----5---3|-0-----------5-3-----5-3-----5---3|

|--------------------------------|-------------------------------------|
|--------------------------------|-------------------------------------|
|--------------------------------|-----------------5b(7)-----5-2-------|
|-----7---7p5---7---7-----5---7-0|-5-5-5-5-5-3-------------------5-3---|
|-------------7---------7--------|-------------5-----------------------|
|-7------------------------------|-------------------------------------|

|----------------------------------|----------------------------------|
|----------------------------------|----------------------------------|
|----------------------------------|----------------------------------|
|----------------------------------|----------------------------------|
|-----5---5p3----------------------|-----5---5p3----------------------|
|-0-----------5-3-----5-3-----5---3|-0-----------5-3-----5-3-----5---3|

|----------------------------------|
|----------------------------------|
|----------------------------------|
|----------------------------------|
|-----5---5p3----------------------|
|-0-----------5-3-----5-3-----5---3|

|-----------10-------------------------------------------------|
|--------10-10----------------------------------------12-10---\|
|-12b(14)--------12b(14)r12-10----12-10---------------12-10---\|
|------------------------------12-------12---12-10-12----------|
|--------------------------------------------------------------|
|--------------------------------------------------------------|

|----------------------------------|
|----------------------------------|
|----------------------------------|
|----------------------------------|
|-----5---5p3----------------------|
|-0-----------5-3-----5-3-----5---3|

Hold Bend...........................................
|----------------------------------------------------13b(15)-----x-------13b(15)-x-------|
|-13b(15)-13b(15)---13b(15r13-13b(15)-13b(15)-13b(15)--------------x---------------x-----|
|--------------------------------------------------------------------x---------------x---|
|----------------------------------------------------------------------------------------|
|----------------------------------------------------------------------------------------|
|----------------------------------------------------------------------------------------|

|-------------------------------3p1|
|----------------------------------|
|----------------------------------|
|-----5---5p3----------------------|
|-------------5-1-----3-1---3------|
|-5--------------------------------|

|-p0-------------------3-1-0------------------------|
|----3p1p0-------------------3p1p0------------------|
|----------4p2p0-------------------4p2p0------------|
|----------------3p2p0-------------------3p2p0------|
|----------------------------------------------3p2p0|
|---------------------------------------------------|

|----------------------------------|
|----------------------------------|
|----------------------------------|
|----------------------------------|
|-----5---5p3----------------------|
|-0-----------5-3-----5-3-----5---3|

|----------------------------------10---------------------------|
|----------------------------10-12----13b(15)---13b(15)---------|
|----------------7-7-7---/11------------------------------------|
|------------7-9------------------------------------------------|
|-5-5-5---/9----------------------------------------------------|
|---------------------------------------------------------------|

|--------------------------------|-------------------------------------|
|--------------------------------|-------------------------------------|
|--------------------------------|-----------------5b(7)-----5-2-------|
|-----7---7p5---7---7-----5---7-0|-5-5-5-5-5-3-------------------5-3---|
|-------------7---------7--------|-------------5-----------------------|
|-7------------------------------|-------------------------------------|

|-------|
|-3-----|
|-2-----|
|-0-----|
|-------|
|-------|

(Drum Solo)

On cue...

|----------------------------------|-------|
|----------------------------------|-------|
|----------------------------------|-------|
|----------------------------------|-------|
|-----5---5p3----------------------|-------|
|-0-----------5-3-----5-3-----5---3|-0-----|

|----------------------------------|-------|
|----------------------------------|-------|
|----------------------------------|-------|
|----------------------------------|-------|
|-----5---5p3----------------------|-------|
|-0-----------5-3-----5-3-----5---3|-5-----|

|--------------------------------|-------------------------------------|
|--------------------------------|-------------------------------------|
|--------------------------------|-----------------5b(7)-----5-2-------|
|-----7---7p5---7---7-----5---7-0|-5-5-5-5-5-3-------------------5-3---|
|-------------7---------7--------|-------------5-----------------------|
|-7------------------------------|-------------------------------------|

|-------------|-------|
|-7-----5-----|-2-----|
|-7-----5-----|-2-----|
|-7-----5-----|-2-----|
|-5-----3-----|-0-----|
|-------------|-------|

___________________________________________________________________________
Bring It On Home
Standard Tuning
/3-\ /3-\ /3-\ /3-\
|---------------------|---------------------|
|---------------------|---------------------|
|---------------------|---------------------|   
|---------------------|---------------------|
|-2--2-4--4-2-------2-|-2--2-4--4-2-------2-|
|-0--0-0--0-0--0-3h4--|-0--0-0--0-0--0-3h4--|

|---------------------|---------------------|
|---------------------|---------------------|
|---------------------|---------------------|   Repeat once
|-2--2-4--4-2-------2-|-2--2-4--4-2-------2-|
|-0--0-0--0-0--0-3h4--|-0--0-0--0-0--0-3h4--|
|---------------------|---------------------|

|---------------------|---------------------|
|---------------------|---------------------|
|---------------------|---------------------|   Repeat once
|---------------------|---------------------|
|-2--2-4--4-2-------2-|-2--2-4--4-2-------2-|
|-0--0-0--0-0--0-3h4--|-0--0-0--0-0--0-3h4--|

|---------------------|---------------------|
|---------------------|---------------------|
|---------------------|---------------------|
|---------------------|---------------------|
|-9--9-11-11-9-9-11-9-|-7--7-9--9-7--7-9--7-|
|-7--7-7--7--7-7-7--7-|-5--5-5--5-5--5-5--5-|

|---------------------|---------------------|
|---------------------|---------------------|
|---------------------|---------------------|
|---------------------|---------------------|
|-2--2-4--4-2-------2-|-2--2-4--4-2-------2-|
|-0--0-0--0-0--0-3h4--|-0--0-0--0-0--0-3h4--|

|---------------------|---------------------|
|---------------------|---------------------|
|---------------------|---------------------|
|---------------------|---------------------|
|-9--9-11-11-9-9-11-9-|-7--7-9--9-7--7-9--2-|
|-7--7-7--7--7-7-7--7-|-5--5-5--5-5--5-5--0-|

Now, it gets a bit slower, although it sounds faster because sixteenth notes
are now used....The eighth and sixteenth notes are now played evenly.

|--------------------------|--------------------------|
|--------------------------|--------------------------|
|-------------4--2p1-2p1---|-------------4--2p1-2-----|   Play four times
|-----0h2----------------2-|-----0h2------------------|
|-0h2----------------------|-0h2----------------------|
|---------0----------------|---------0----------------|
  ^^^
  Those are 16th notes


For the verses, it basically seems to go E7, A7, E7 (quarter notes).
  E7  A7  E7
|-0---0---0------------|
|-0---2---0------------|
|-1---0---1------------|
|-0---2---0------------|
|-2---0---2------------|
|-0-------0---3-0------|
              ^
              I usually bend that up a little...it's kind of a cool effect.

And in between verses (again)....

|--------------------------|--------------------------|
|--------------------------|--------------------------|
|-------------4--2p1-2p1---|-------------4--2p1-2-----|   Play four times
|-----0h2----------------2-|-----0h2------------------|
|-0h2----------------------|-0h2----------------------|
|---------0----------------|---------0----------------|


Then it slows down quite a bit (this is like the intro)....

|---------------------|---------------------|
|---------------------|---------------------|
|---------------------|---------------------|
|---------------------|---------------------|
|-9--9-11-11-9-9-11-9-|-7--7-9--9-7--7-9--7-|
|-7--7-7--7--7-7-7--7-|-5--5-5--5-5--5-5--5-|

|---------------------|-------------------|
|---------------------|-------------------|
|---------------------|-------------------|
|---------------------|-------------------|
|-2--2-4--4-2-------2-|-2--2-4--4-2-------|
|-0--0-0--0-0--0-3h4--|-0--0-0--0-0-4--5--|

|---------------------|--------------------|
|---------------------|--------------------|
|---------------------|--------------------|
|---------------------|--------------------|
|-9--9-11-11-9-9-11-9-|-7--7-9--9-7--7-9---|
|-7--7-7--7--7-7-7--7-|-5--5-5--5-5--5-5-0-|

  /-3--\  /--3---\  /--3---\         E7
|---12-------12--------12---------|---------------------|
|-9----9--10----10--11----11--12\-|---3-----------------|
|---------------------------------|---1-----------------|
|-9----9--10----10--11----11--12\-|---2-----------------|
|---------------------------------|---2-----------------|
|---------------------------------|-0-------------------|

Lyrics
~~~~~
Intro:
Ba-a-a-a-aby,
Ba-a-a-a-aby,
Gonna bring it on home to you.
I've got my ticket, I've got that load.
Got up, gone higher, all aboard.
Take my seat, right way back.
Ooh, yeah,
Watch this train roll down the track.
Gonna bring it on home,
Bring it on home to you.
Watch out, watch out.

Verses:
Try to tell you, baby,
What you tryin' to do?
Tryin' to love me, baby,
Love some other man, too.
Bring it on home,
Bring it on home.

Went a little walk downtown,
Messed and got back late.
Found a little note there waitin'.
It said, "Daddy, I just can't wait."
Bring it on home,
Bring it back home,
Bring it on home,
Bring it back home to me, baby.

Tell you, pretty baby,
Love to mess me 'roun'.
I'm gonna give you lovin', baby,
Gonna move you out of town.
Bring it on home,
Bring it on home.

Sweetest little thing
Daddy ever saw.
I'm gonna give you lovin', baby,
I'm gonna give you more.
Bring it on home,
Bring it on home,
Bring it on home,
Oh, yeah.

Outro:
Bring it on home,
Bring it on home to you.

--


Here's another version of Bring it on Home, by Led Zeppelin (sorry, no chorus, 
just the beginning):

    e---------------------------|
    B---------------------------|
    G---------------------------|
    D---------------------------|	x 4
    A--2-2---4-4---2-2-------2--|
    E--0-0---0-0---0-0---2-3----|



    e---------------------------|
    B---------------------------|
    G---------------------------|
    D--2-2---4-4---2-2-------2--|	x 4
    A--0-0---0-0---0-0---2-3----|
    E---------------------------|



    e---------------------------|
    B---------------------------|
    G---------------------------|
    D---------------------------|	x 2
    A--2-2---4-4---2-2-------2--|
    E--0-0---0-0---0-0---2-3----|
    

    e---------------------------|
    B---------------------------|
    G---------------------------|
    D--4-4---6-6---4-4---6-4----|
    A--2-2---2-2---2-2---2-2----|
    E---------------------------|
    
    
    e---------------------------|
    B---------------------------|
    G---------------------------|
    D--2-2---4-4---2-2---4-2----|
    A--0-0---0-0---0-0---0-0----|
    E---------------------------|
    
    
    e---------------------------|
    B---------------------------|
    G---------------------------|
    D---------------------------|	x 4
    A--2-2---4-4---2-2-------2--|
    E--0-0---0-0---0-0---2-3----|
    
        
I'm Not sure about the x4, x2, etc. (I don't have the song with me right now).

e------------------------------------|--------------------------------------
B------------------------------------|--------------------------------------
G------------------------------------|--------------------------------------
D------------------5(7)-5----5-------|--------------5(7)-5---5--------------
A-------5-7----------------7---7-5---|--------5-7----------7----------------
E--5-7------0------------------------|---5-7------0-------------------------



That's all I know. Could anyone post the rest of it?
Correctios are wellcome.

------------
------------

: e------------------------------------|--------------------------------------
: B------------------------------------|--------------------------------------
: G------------------------------------|--------------------------------------
: D------------------5(7)-5----5-------|--------------5(7)-5---5--------------
: A-------5-7----------------7---7-5---|--------5-7----------7----------------
: E--5-7------0------------------------|---5-7------0-------------------------

OOPS!
I arrived home, took the guitar, played this and... yuck!!

Here's how it goes.

e------------------------------------|--------------------------------------
B------------------------------------|--------------------------------------
G------------------------------------|--------------------------------------
D------------------5(7)-5--4-5-4-----|--------------5(7)-5-4-5--------------
A-------5-7----------------------5---|--------5-7---------------------------
E--5-7------0------------------------|---5-7------0-------------------------


-----------
-----------


-------------------------------------------------------------------------------
>E-----------------------------------------------------------------------------
>B------------------------------------------------------------------------------
>G-------------------2~4--2-1-2-1-----------------------------2~4--2-1-2-------
>D-------0--h2--------------------2---------------0--h2-------------------------
>A-0--h2----------------------------------0--h2---------------------------------
>E--------------0---------------------------------------0-----------------------
>

This is the way to play this, because it leaves you in good shape to play the
chords, which are

----2--0-----------2--0-------------|
----2--0-----------2--0------------*|
----2--0-----------2--0-------------|
----2--0--0-h2-----2--0--0-f2-p2---*|
------------------------------------|
-0--------------0-------------------|
comments
print report bad tab
7 comments total. Showing first comments.
0 reply
ledhed68 wrote on July 18 2005, 12:00 am

I take no credit for these song tabs. I took the highest rated tab from each song and put them on here i give all the credit to the people with the highest rating on the songs.

0 reply
hippieboy444 wrote on February 15 2007, 02:54 pm

I believe livin lovin maid goes like this

|-------------------------|
|-------------------------|
|-------------------------|
|-------------------------|
|---3--3-4-5---------3----|
|-5--5-------3-3-3-5---5--|

0 reply
breakingglass27 wrote on May 10 2007, 01:14 am

Yeah... something really needs to be done about that Living Loving Maid song. I realize that it's hard to write down solos, but calling people a pussy about it is kinda lame.

I want to post or [tab]
guest
You may want to rate the tab now too:
select rating
Please do not post tabs as comments. Select "correction" instead!