Oops, an error
Loading. Please wait.

Led Zeppelin Bass Tab

19,433 views 33 this week
no commentswrite comment
1 2 3 4 5
excellent!
x 4
Autoscroll
+/-
esc
set tempo
stop
Contributor
Hey! There's an official Ultimate Guitar app which is ideal
for learning songs when you're away from computer. Get the app
WARNING: You are trying to view
                                    content from Ultimate-Guitar.com
                                    in an unauthorized application,
                                    which is prohibited.

                                    Please use an official Ultimate
                                    Guitar Tabs application for iPhone,
                                    iPad or Android to access legitimate
                                    chords, guitar, bass, and drum tabs
                                    from Ultimate-Guitar.com database.

                                    Type "ultimate guitar tabs" in Apple
                                    App Store's or Android Market's
                                    search to find the application.
1.Good Times Bad Times

INTRO:
G|----------------------------------------------------------|
D|----------------------------------------------------------|
A|----77-------77------77------77------77---------77--------|
E|----------------------------------------------------------|

1ST VERSE
G|------7---7-------------------------------7---7--------------------|
D|----7---7---7---4-7---------------------7---7---7---4-7------------|
A|--5-----------5-----4----5--6---77----5-----------5-----4--5-6---77|
E|-------------------------------------------------------------------|

G|------7---7-------------------------------7---7--------------------|
D|----7---7---7---4-7---------------------7---7---7---4-7------------|
A|--5-----------5-----4----5--6---77----5-----------5-----4--5-6---77|
E|-------------------------------------------------------------------|

G|------7---7-------------------------------7---7--------------------|
D|----7---7---7---4-7---------------------7---7---7---4-7------------|
A|--5-----------5-----4----5--6---77----5-----------5-----4--5-6-----|
E|-------------------------------------------------------------------|

GOOD TIMES BAD TIMES....
G|-------------------------------------------------------------------|
D|-5--7--7---7-------------------------5--7--7---7-------------------|
A|-------------4--4--4--5---5---6---7--------------4--4--4--5--5-6--7|
E|-------------------------------------------------------------------|

G|-------------------------------------------------------------------|
D|-7--9--9--9---------------------------7--9--9--9-X-7--9--9--9--9---|
A|-----------------6--7--7--7--7--8--9-------------------------------|
E|------------9-10---------------------------------------------------|

BASS SOLO:
G|--------------------------------------------------------------------|
D|-9--------9--8--7---------------------------------------------------|
A|------9-------------0--9--0--7--5-----------------------------------|
E|-----------------------------------7--6-----------------------------|

VERSE 2
G|---------------------------------------------------------------------|
D|--------------------2--(4)------------------------0---2--4-----------|
A|---------2--4--4--4--------------------0--2--3--4--------------------|
E|-2--2--2-------------------------2--2--------------------------------|

G|---------------------------------------------------------------------|
D|-----------------------2--3--4--------------------2---3--4-----------|
A|--------0--2--3--4--4---------------0-2--3--4--4---------------------|
E|--2--2--------------------------2--2---------------------------------|

G|---------------------------------------------------------------------|
D|--------4--3--2--------------------------4--3-2----------------------|
A|------4---------0--4--2--1-------------4---------0--4--2--1----------|
E|-2--2----------------------2-0----2--2-----------------------2-0-----|

G|---------------------------------------------------------------------|
D|--------4--3--2--------------------------4--3-2----------------------|
A|------4---------0--4--2--1-------------4---------0--4--2--1----------|
E|-2--2----------------------2-0----2--2-----------------------2-0-----|

GOOD TIMES BAD TIMES...
G|---------------------------------------------------------------------|
D|-7-9----9----9----------------9----9--9------------------------------|
A|----------------X-7--7--7---------------6---X-7--7--7--7-------------|
E|---------------------------------------------------------------------|

G|----------------------------------------------------------------------|
D|------------2--3-4--4--4--4---5---6----------3--4---------------------|
A|--4--4--4-4--------------------------4----4--------X-4--4-------------|
E|-----------------------------------------------------------4/---------|

REST 4 BEATS

GUITAR SOLO:
G|-----9---9-------7--------------------9----9-------7------------------|
D|---9---9---9---7---7--7-------------9----9---9---7---7---7------------|
A|-7-----------7-------5------------7------------7-------5--------------|
E|-----------------------5-----------------------------------5----------|

G|-----9---9-------7--------------------9----9-------7------------------|
D|---9---9---9---7---7--7-------------9----9---9---7---7---7------------|
A|-7-----------7-------5------------7------------7-------5--------------|
E|-----------------------5-----------------------------------5----------|

G|-----9---9-------7--------------------9----9-------7------------------|
D|---9---9---9---7---7--7-------------9----9---9---7---7---7------------|
A|-7-----------7-------5------------7------------7-------5--------------|
E|-----------------------5-----------------------------------5----------|

G|-----9---9-------7--------------------9----9-------7------------------|
D|---9---9---9---7---7--7-------------9----9---9---7---7---7------------|
A|-7-----------7-------5------------7------------7-------5--------------|
E|-----------------------5-----------------------------------5----------|

GOOD TIMES BAD TIMES...
G|-----9---9------------------------------------------------------------|
D|---9---9---9----5--7--7--7--7--7--7---5--7-7----------5------4-5-6-7--|
A|-7-----------7--------------------------------4-5-6-7---7-X-----------|
E|----------------------------------------------------------------------|

G|----------------------------------------------------------------------|
D|------------------7---8--9----9--9--9--9--9-X-9--9--9-----------------|
A|-------6-7--8--9------------------------------------------------------|
E|-7---7----------------------------------------------------------------|

2ND BASS SOLO:
G|-------7-----7------7------7------------------------------------------|
D|-9-7-9--7--9---7--9---7--9---7-9--------------------------------------|
A|------------------------------------------------7--7/-----------------|
E|----------------------------------------------------------------------|

OUTRO:
G|-----7---7-------------------------------7---7------------------------|
D|---7---7---7----4--7-------------------7---7----7---4--7--------------|
A|-5-----------5-------4---5--6---77--5-------------5------4--5--6------|
E|----------------------------------------------------------------------|

G|-----7---7-------------------------------7---7------------------------|
D|---7---7---7----4--7-------------------7---7----7---4--7--------------|
A|-5-----------5-------4---5--6---77--5-------------5------4--5--6------|
E|----------------------------------------------------------------------|

G|-----7---7-------------------------------7---7------------------------|
D|---7---7---7----4--7-------------------7---7----7---4--7--------------|
A|-5-----------5-------4---5--6---77--5-------------5------4--5--6------|
E|----------------------------------------------------------------------|

G|-----7---7-------------------------------7---7------------------------|
D|---7---7---7----4--7-------------------7---7----7---4--7--------------|
A|-5-----------5-------4---5--6---77--5-------------5------4--5--6------|
E|----------------------------------------------------------------------|

FADE OUT....
****************************************************************************

2.Babe I'm Gonna Leave you
|----------------|----------------|----------------|----------------|
D|3---------------|2---------------|3---------------|2---------------|
A|----------------|----------------|----------------|----------------|
E|----------------|----------------|----------------|----------------|

G|2-------2-------|0-------0-------|----------------|----------------|
D|----------------|----------------|4-------4-------|3-------2-------|
A|----------------|----------------|----------------|----------------|
E|----------------|----------------|----------------|----------------|

G|2-222-2---2---2-|--2-2-2-2-2-2-2-|2-222-2---2---2-|--2-2-2-2-2-2-2-|
D|----------------|----------------|----------------|----------------|
A|----------------|----------------|----------------|----------------|
E|----------------|----------------|----------------|----------------| X2

G|2---------------|----------------|----------------|------------5---|
D|----------------|----------------|----------------|----------------|
A|----------------|----------------|----------------|----------------|
E|----------------|----------------|----------------|----------------|

G|2---------------|0---------------|----------------|----------------|
D|----------------|----------------|4---------------|3-------2-------|
A|----------------|----------------|----------------|----------------|
E|----------------|----------------|----------------|----------------| X5

G|2-222-2---2---2-|--2-2-2-2-2-2-2-|2-222-2---2---2-|--2-2-2-2-2-2-2-|
D|----------------|----------------|----------------|----------------|
A|----------------|----------------|----------------|----------------|
E|----------------|----------------|----------------|----------------| X2

G|2------2--------|2-------2-------|2-------2-------|2-------2-------|
D|----------------|----------------|----------------|----------------|
A|----------------|----------------|----------------|----------------|
E|----------------|----------------|----------------|----------------| X2

G|2-2-2-2-2---2---|0-0-0-0-0---0---|----------------|----------------|
D|----------------|----------------|4-4-4-4-4---4---|3-3-3-3-2---2---|
A|----------------|----------------|----------------|----------------|
E|----------------|----------------|----------------|----------------| X5

G|----------------|----------------|----------------|----------------|
D|3-3-3-3-3---3---|2-2-2-2-2---2---|3-3-3-3-3---3---|2-2-2-2-2---2---|
A|----------------|----------------|----------------|----------------|
E|----------------|----------------|----------------|----------------|

G|2-222-2---2---2-|--2-2-2-2-2-2-2-|2-222-2---2---2-|--2-2-2-2-2-2-2-|
D|----------------|----------------|----------------|----------------|
A|----------------|----------------|----------------|----------------|
E|----------------|----------------|----------------|----------------| X2

G|2---------------|0---------------|----------------|----------------|
D|----------------|----------------|4---------------|3-------2-------|
A|----------------|----------------|----------------|----------------|
E|----------------|----------------|----------------|----------------|

G|2---------------|0---------------|----------------|----------------|
D|----------------|----------------|4---------------|3-------2-------|
A|----------------|----------------|----------------|----------------|
E|----------------|----------------|----------------|----------------|

G|------------2---|0---------------|----------------|----------------|
D|----------------|----------------|4-------4-------|3-------2-------|
A|0---------------|----------------|----------------|----------------|
E|----------------|----------------|----------------|----------------|

G|--------2-------|0-------0-------|----------------|----------------|
D|----------------|----------------|4---------------|3-------2-------|
A|0---------------|----------------|----------------|----------------|
E|----------------|----------------|----------------|----------------|

G|------------2---|0---------------|----------------|----------------|
D|----------------|----------------|4---------------|3-------2-------|
A|0---------------|----------------|----------------|----------------|
E|----------------|----------------|----------------|----------------|

G|----------------|0---------------|----------------|----------------|
D|----------------|----------------|4---------------|3-------2-0-----|
A|0---------------|----------------|----------------|------------3-2-|
E|----------------|----------------|----------------|----------------|

G|--------2---2---|0-0-0-0-0---0---|----------------|----------------|
D|----------------|----------------|4-4-4-4-4---4---|3-3-3-3-2---2---|
A|0-0-0-0---------|----------------|----------------|----------------|
E|----------------|----------------|----------------|----------------| X2

G|2-----------2---|0---------------|----------------|----------------|
D|----------------|----------------|4---------------|3-------2-------|
A|----------------|----------------|----------------|----------------|
E|----------------|----------------|----------------|----------------|

G|----------------|0---------------|----------------|----------------|
D|----------------|----------------|4---------------|3-------2-------|
A|0---------------|----------------|----------------|----------------|
E|----------------|----------------|----------------|----------------|

G|------------2---|0---------------|----------------|----------------|
D|----------------|----------------|4---------------|3-------2-------|
A|0---------------|----------------|----------------|----------------|
E|----------------|----------------|----------------|----------------|

G|------------2---|0---------------|----------------|----------------|
D|----------------|----------------|4-4---4-4---4-4-|3-3-3-3-2-0-----|
A|0---------------|----------------|----------------|------------3-2-|
E|----------------|----------------|----------------|----------------|

G|--------2---2---|0-0-0-0-0---0---|----------------|----------------|
D|----------------|----------------|4-4-4-4-4---4---|3-3-3-3-2---2---|
A|0-0-0-0---------|----------------|----------------|----------------|
E|----------------|----------------|----------------|----------------| X2

G|------------2---|0-----------2-0-|------2-------2-|----------------|
D|----------------|----------------|4---------4-----|3-3---2---0-----|
A|0---------------|----------------|----------------|----3-------3-2-|
E|----------------|----------------|----------------|----------------|

G|------------2---|0---------------|------2---------|----------------|
D|----------------|----------------|4---4-----4---2-|3-------2---2---|
A|0-0-------------|----------------|----------------|----------------|
E|----------------|----------------|----------------|----------------|

G|------------2---|0---------------|----------------|----------------|
D|----------------|----------------|4---------------|3-------2---2---|
A|0---------------|----------------|----------------|----------------|
E|----------------|----------------|----------------|----------------|

G|------------2---|0---------------|----------------|----------------|
D|----------------|----------------|4---------------|3-------2---2---|
A|0---------------|----------------|----------------|----------------|
E|----------------|----------------|----------------|----------------|

G|------------2---|0-----------0---|----------------|----------------|
D|----------------|----------------|4---------------|3-----3-2---2---|
A|0---------------|----------------|----------------|----------------|
E|----------------|----------------|----------------|----------------|

G|------------2---|0---------------|----------------|----------------|
D|----------------|----------------|4---------------|3---3---2-0-----|
A|0---------------|----------------|----------------|------------3-2-|
E|----------------|----------------|----------------|----------------|

G|2-2-2-2-2---2---|0-0-0-0-0---0---|----------------|----------------|
D|----------------|----------------|4-4-4-4-4---4---|3-3-3-3-2---2---|
A|----------------|----------------|----------------|----------------|
E|----------------|----------------|----------------|----------------| X4
 
G|----------------|----------------|----------------|----------------|
D|3---------------|(3)-------------|2---------------|(2)-------------|
A|----------------|----------------|----------------|----------------|
E|----------------|----------------|----------------|----------------|

G|----------------|----------------|----------------|----------------|
D|3---------------|(3)-------------|2---------------|(2)-------------|
A|----------------|----------------|----------------|----------------|
E|----------------|----------------|----------------|----------------|

G|----------------|----------------|----------------|----------------|
D|----------------|----------------|----------------|----------------|
A|4-------4---4---|3-------3---3---|2-------2---2---|1-------1---1---|
E|----------------|----------------|----------------|----------------|

G|----------------|----------------|
D|----------------|----------------|
A|0---------------|(0)-------------|
E|----------------|----------------|
****************************************************************************

3.You Shook Me

Intro
G|------------------------|------------------------|
D|------------------2-----|------------2---2---0-1-|
A|--------------------3-2-|0---0-4---4-------4-----|
E|------------------------|------------------------|

G|------------------------|------------------------|
D|2---2-------------------|------------------------|
A|------------0---0-1---2-|------0-1-2-2---2-2---2-|
E|------4---4-------------|0---0-------------------|

Verses
G|------------------------|------------------------|
D|------------------------|------------------0-1-2-|
A|------------2---2-4-----|------------2---2-------|
E|0---0-4---4-----------3-|0---0-4---4-------------|

G|------------------------|------------------------|
D|------------------------|------------------0-1-2-|
A|------------2---2-4-----|------------2---2-------|
E|0---0-4---4-----------3-|0---0-4---4-------------|

G|------------------------|------------------------|
D|------------2---2-3-4-3-|------------2---2---012-|
A|0---0-4---4-------------|0---0-4---4-------4-----|
E|------------------------|------------------------|

G|------------------------|------------------------|
D|------------------------|------------------0-1-2-|
A|------------2---2-4-----|------------2---2-------|
E|0---0-4---4-----------3-|0---0-4---4-------------|

G|------------------2-3-4-|------------------------|
D|------1---1-4---4-------|------------2---2---0-12|
A|2---2-------------------|0---0-4---4-------4-----|
E|------------------------|------------------------|

G|------------------------|------------------------|
D|------------------------|2---2-------------------|
A|------------0---0-1---2-|------------2---2-2-0---|
E|0---0-4---4-------------|------4-5-6-----------3-|

G|------------------------|------------------------|
D|------------------------|------------------0-1-2-| Repeat same 12
A|------------2---2-5-----|------------2---2-------| bars until
E|0---0-4---4---------3-3-|0---0-4---4-------------|

G|------------------------|------------------------|
D|------------------------|------------------------|
A|------------------------|------------------------| Then go back to
E|5-----------------------|5-----------------------| repeating the 12 bars

Ending
G|------------------------|------------------------|
D|------------------------|------------------------|
A|------------------------|------------------------|
E|------------------------|--------------1---------|

G|------------------------|------------------------|
D|------------------------|------------------------|
A|------------------------|------------------------|
E|0-----------------------|------------------------|
****************************************************************************

4.Dazed and Confused

Intro:
G|------------------------------|------------------------------|
D|------------------------------|------------------------------|
A|---10--9--8--7----5--4--3--2--|---10--9--8--7----5--4--3--2--|
E|-0--------------0-------------|-0--------------0-------------|

G|------------------------------|
D|------------------------------|
A|---10--9--8--7----5--4--3--2--|
E|-0--------------0-------------|

Verse 1:
G|------------------------------|------------------------------|
D|------------------------------|------------------------------|
A|---10--9--8--7----5--4--3--2--|---10--9--8--7----5--4--3--2--|
E|-0--------------0-------------|-0--------------0-------------|

G|------------------------------|
D|------------------------------|
A|---10--9--8--7----5--4--3--2--|
E|-0--------------0-------------|

Pre-Verse 1:
G|------------------------------|------------------------------|
D|------------------------------|------------------------------|
A|---10--9--8--7----5--4--3--2--|---10--9--8--7----5--4--3--2--|
E|-0--------------0-------------|-0--------------0-------------|

G|------------------------------|
D|------------------------------|
A|---10--9--8--7----5--4--3--2--|
E|-0--------------0-------------|

Verse 2:
G|------------------------------|------------------------------|
D|------------------------------|------------------------------|
A|---10--9--8--7----5--4--3--2--|---10--9--8--7----5--4--3--2--|
E|-0--------------0-------------|-0--------------0-------------|

G|------------------------------|
D|------------------------------|
A|---10--9--8--7----5--4--3--2--|
E|-0--------------0-------------|

Pre-Verse 2:
G|------------2-4---------------|------------2-4---------------|
D|--------2-4-----2-4-----------|--------2-4-----2-4-----------|
A|-2-2-2------------------------|-2-2-2------------------------|
E|------------------------------|------------------------------|

G|------------2-4---------------|------------2-4---------------|
D|--------2-4-----2-4-----------|--------2-4-----2-4-----------|
A|-2-2-2------------------------|-2-2-2------------------------|
E|------------------------------|------------------------------|

Pre-Verse 1:
G|------------------------------|------------------------------|
D|------------------------------|------------------------------|
A|---10--9--8--7----5--4--3--2--|---10--9--8--7----5--4--3--2--|
E|-0--------------0-------------|-0--------------0-------------|

G|------------------------------|
D|------------------------------|
A|---10--9--8--7----5--4--3--2--|
E|-0--------------0-------------|

Verse 3:
G|------------------------------|------------------------------|
D|------------------------------|------------------------------|
A|---10--9--8--7----5--4--3--2--|---10--9--8--7----5--4--3--2--|
E|-0--------------0-------------|-0--------------0-------------|

G|------------------------------|
D|------------------------------|
A|---10--9--8--7----5--4--3--2--|
E|-0--------------0-------------|

Pre-Verse 2:
G|------------2-4---------------|------------2-4---------------|
D|--------2-4-----2-4-----------|--------2-4-----2-4-----------|
A|-2-2-2------------------------|-2-2-2------------------------|
E|------------------------------|------------------------------|

G|------------2-4---------------|------------2-4---------------|
D|--------2-4-----2-4-----------|--------2-4-----2-4-----------|
A|-2-2-2------------------------|-2-2-2------------------------|
E|------------------------------|------------------------------|

Violin Bow solo:
G|------------------------------|------------------------------|
D|-----------------------0------|-----------------------0------|
A|--2-2-2-2-0----2-2-2-2--------|--2-2-2-2-0----2-2-2-2--------|
E|------------------------------|------------------------------|

G|------------------------------|------------------------------|
D|-----------------------0------|-----------------------0------|
A|--2-2-2-2-0----2-2-2-2--------|--2-2-2-2-0----2-2-2-2--------|
E|------------------------------|------------------------------|

G|------------------------------|------------------------------|
D|-----------------------0------|-----------------------0------|
A|--2-2-2-2-0----2-2-2-2--------|--2-2-2-2-0----2-2-2-2--------|
E|------------------------------|------------------------------|

G|------------------------------|------------------------------|
D|-----------------------0------|-----------------------0------|
A|--2-2-2-2-0----2-2-2-2--------|--2-2-2-2-0----2-2-2-2--------|
E|------------------------------|------------------------------|

G|------------------------------|------------------------------|
D|-----------------------0------|-----------------------0------|
A|--2-2-2-2-0----2-2-2-2--------|--2-2-2-2-0----2-2-2-2--------|
E|------------------------------|------------------------------|

G|------------------------------|------------------------------|
D|-----------------------0------|-----------------------0------|
A|--2-2-2-2-0----2-2-2-2--------|--2-2-2-2-0----2-2-2-2--------|
E|------------------------------|------------------------------|

G|------------------------------|------------------------------|
D|-----------------------0------|-----------------------0------|
A|--2-2-2-2-0----2-2-2-2--------|--2-2-2-2-0----2-2-2-2--------|
E|------------------------------|------------------------------|

Guitar Solo (14x):
E|--------------------------------|--------------------------------|
D|--------5-7-5------------5-7-5--|--------5-7-5------------5-7-5--|
A|-----5-7--------------5-7-------|-----5-7--------------5-7-------|
E|--5-7--------------5-7----------|--5-7--------------5-7----------|

Pre-Verse 2:
G|------------2-4---------------|------------2-4---------------|
D|--------2-4-----2-4-----------|--------2-4-----2-4-----------|
A|-2-2-2------------------------|-2-2-2------------------------|
E|------------------------------|------------------------------|

G|------------2-4---------------|------------2-4---------------|
D|--------2-4-----2-4-----------|--------2-4-----2-4-----------|
A|-2-2-2------------------------|-2-2-2------------------------|
E|------------------------------|------------------------------|

Pre-Verse 1:
G|------------------------------|------------------------------|
D|------------------------------|------------------------------|
A|---10--9--8--7----5--4--3--2--|---10--9--8--7----5--4--3--2--|
E|-0--------------0-------------|-0--------------0-------------|

G|------------------------------|
D|------------------------------|
A|---10--9--8--7----5--4--3--2--|
E|-0--------------0-------------|

Verse 4:
G|------------------------------|------------------------------|
D|------------------------------|------------------------------|
A|---10--9--8--7----5--4--3--2--|---10--9--8--7----5--4--3--2--|
E|-0--------------0-------------|-0--------------0-------------|

G|------------------------------|
D|------------------------------|
A|---10--9--8--7----5--4--3--2--|
E|-0--------------0-------------|

Pre-Verse 2:
G|------------2-4---------------|------------2-4---------------|
D|--------2-4-----2-4-----------|--------2-4-----2-4-----------|
A|-2-2-2------------------------|-2-2-2------------------------|
E|------------------------------|------------------------------|

G|------------2-4---------------|------------2-4---------------|
D|--------2-4-----2-4-----------|--------2-4-----2-4-----------|
A|-2-2-2------------------------|-2-2-2------------------------|
E|------------------------------|------------------------------|

Outro:
G|---------------------------|---------------------------|
D|---------------------------|---------------------------|
A|---2-2-2-2-2--2-2-2-2-2----|---2-2-2-2-2--2-2-2-2-2----| 
E|---------------------------|---------------------------|

G|---------------------------|---------------------------|
D|---------------------------|---------------------------|
A|---2-2-2-2-2--2-2-2-2-2----|---2-2-2-2-2--2-2-2-2-2----| 
E|---------------------------|---------------------------|

G|---------------------------|---------------------------|
D|---------------------------|---------------------------|
A|---2-2-2-2-2--2-2-2-2-2----|---2-2-2-2-2--2-2-2-2-2----| 
E|---------------------------|---------------------------|

G|---------------------------|---------------------------|
D|---------------------------|---------------------------|
A|---2-2-2-2-2--2-2-2-2-2----|---2-2-2-2-2--2-2-2-2-2----| 
E|---------------------------|---------------------------|

G|---------------------------|---------------------------|
D|---------------------------|---------------------------|
A|---2-2-2-2-2--2-2-2-2-2----|---2-2-2-2-2--2-2-2-2-2----| 
E|---------------------------|---------------------------|

G|---------------------------|---------------------------|
D|---------------------------|---------------------------|
A|---2-2-2-2-2--2-2-2-2-2----|---2-2-2-2-2--2-2-2-2-2----| 
E|---------------------------|---------------------------|

G|---------------------------|---------------------------|
D|---------------------------|---------------------------|
A|---2-2-2-2-2--2-2-2-2-2----|---2-2-2-2-2--2-2-2-2-2----| 
E|---------------------------|---------------------------|

G|---------------------------|---------------------------|
D|---------------------------|---------------------------|
A|---2-2-2-2-2--2-2-2-2-2----|---2-2-2-2-2--2-2-2-2-2----| 
E|---------------------------|---------------------------|

G|---------------------------|---------------------------|
D|---------------------------|---------------------------|
A|---2-2-2-2-2--2-2-2-2-2----|---2-2-2-2-2--2-2-2-2-2----| 
E|---------------------------|---------------------------|

G|---------------------------|---------------------------|
D|---------------------------|---------------------------|
A|---2-2-2-2-2--2-2-2-2-2----|---2-2-2-2-2--2-2-2-2-2----| 
E|---------------------------|---------------------------|
                                                      ^
G|---------------------------|----------------------------|
D|---------------------------|----------------------------|
A|---2-2-2-2-2--2-2-2-2-2----|---2-2-2-2-2--2-2-2-2-2-2---| 
E|---------------------------|----------------------------|
****************************************************************************


5. Your Time Is Gonna Come

When bass comes in at approx. 1:04

G|----------------|----------------|----------------|----------------|
D|----------------|----------------|----------------|----------------|
A|5-------3---3---|----------------|5-------3---3---|----------------|
E|----------------|3---3-----------|----------------|3---3-----------| 9X

G|----------------|----------------||
D|----------------|----------------||
A|5---------------|----------------||
E|----------------|----------------||

G|----------------|----------------|----------------|----------------|
D|----------------|5---------------|----------------|5---------------|
A|5-5---5-5-------|----------------|5-5---5-5-------|----------------|
E|----------------|----------------|----------------|----------------|
  Your time is gonna come           Your time is gonna come

****************************************************************************

6.Black Mountain Side (No bass)

****************************************************************************

7. Communication Breakdown

G|----------------|----------------|----------------|----------------|
D|----------------|----------------|----------------|----------------|
A|----------------|----------------|----------------|--5---------5---|
E|----------------|----------------|----------------|--------5-------|

G|----------------|----------------|----------------|----------------|
D|----------------|----------------|----------------|----------------|
A|7-7-7-7-7-7-7-7-|7-5---------5---|7-7-7-7-7-7-7-7-|7-5---------5---|
E|----------------|--------5-------|----------------|--------5-------|

G|----------------|----------------|----------------|----------------|
D|----------------|----------------|----------------|----------------|
A|7-7-7-7-7-7-7-7-|7-5---5-----5---|7-7-7-7-7-7-7-7-|--5---5-----5---|
E|----------------|--------5-------|----------------|--------5-------| 4X

G|--------------2-|--2-2-2---------|--------------2-|----------------|
D|----------2-4---|--------4-2-----|----------2-4---|--4---2---------|
A|0-0-0-3-4-------|------------4-0-|--0-0-3-4-------|----------4-2-0-|
E|----------------|----------------|----------------|----------------|

Communication breakdown
G|--------4-2-----|------------2-4-|--2-------------|----------------|
D|------------4---|--2---3---4-----|------4---1-2---|----------------|
A|2-2-2-2-------2-|----------------|--------------2-|--2-2---2---2---|
E|----------------|----------------|----------------|----------------|

G|----------------|----------------|----------------|----------------|
D|----------------|----------------|----------------|----------------|
A|7-7-7-7-7-7-7-7-|7-5---------5---|7-7-7-7-7-7-7-7-|7-5---------5---|
E|----------------|--------5-------|----------------|--------5-------| 5X

G|--------------2-|--2-2-2---------|--------------2-|--0-------------|
D|----------2-4---|--------4-2-----|----------2-4---|------4---2-----|
A|0-0-0-3-4-------|------------4-0-|--0-0-3-4-------|--------------4-|
E|----------------|----------------|----------------|----------------|

Communication breakdown
G|--4-----2-------|------------2-4-|--2-------------|----------------|
D|----------4-2---|----------4-----|------4---2-----|----------------|
A|2-------------2-|--2---6---------|------------5-2-|--2-2-2-2---2---|
E|----------------|----------------|----------------|----------------|

G|----------------|----------------|
D|----------------|----------------|
A|7---------------|----------------|
E|----------------|----------------|

Bass Solo
G|----------------|----------------|----------------|----------------|
D|----------------|----------------|----------------|----------------|
A|7-7-7-7-7-7-7-7-|7-5---------5---|7-7-7-7-7-7-7-7-|7-5---------5---|
E|----------------|--------5-------|----------------|--------5-------| 4X

G|--------------2-|--0-------------|----------------|----------------|
D|----------2-----|------4---2---0-|----------------|----------------|
A|0-0-0-3-4-------|----------------|--4---2---0-----|----------------|
E|----------------|----------------|--------------2-|--3---4---5-5-5-|

Communication breakdown
G|--------------11|--11--9---8-----|----------------|----------------|
D|--------9-7-----|------------9-7-|----------------|----------------|
A|----------------|----------------|--9---7---5---6-|----------------|
E|7-7-7-7---------|----------------|----------------|--7---------7---|

G|----------------|----------------|----------------|----------------|
D|----------------|----------------|----------------|----------------|
A|7-7-7-7-7-7-7-7-|--5---------5---|7-7-7-7-7-7-7-7-|--5---------5---|
E|----------------|--------5-------|----------------|--------5-------| 5X 
****************************************************************************

8.I Can't Quit You Baby

1st Verse
------------------------------------------------
---------4---7---4--5--6--7---------------------
-----5-------------------------4--7-------7-----
------------------------------------------------

------------------------------------------------
----------------------------4---7----------4---7
--------4---7-------6--5---------------5--------
--5--------------5------------------------------

------------------------------------------------
--5--6--7---------------------------------5---7-
------------------4---7-----5--4----------------
-------------5-----------------------5----------

------------------------------------------------
-----------------6--9---------------4--7-----4--
--4--5--6--7-------------7--6--5----------------
------------------------------------------------

------------------------------------------------
------------------------------------------------
--7---------------------------------------4--7--
-------5----5---6---------5----6-----5----------

-------------------------4/5--------------------
--7--------------4--7-----------7---------------
------7--6--5-------------------------4---7-----
------------------------------------------------

--------------------------------5--7------------
------7---5-------------4--7--------------------
---------------7---5----------------------------
--5---------------------------------------------

------------------------------------------------
--4---5---6---7-5------------------5--6---------
------------------7-------4--7------------------
---------------------5--------------------------

------------------------------------------------
-7---------5--5----------------6--9-------------
------5/7--------4--5--6--7-----------7--6--5---
------------------------------------------------

------------------------------------------------
-4--7----5-4-5--7-------------------------------
------------------------------------------------
---------------------5---6-------5----6---------

Guitar solo
----------------------9-------------------------
--------5---5-------------------------4----4--7-
---------------7---7------3--4--5--5------------
-5---5------------------------------------------

------------------------------------------------
--7--7----5--6----7--7--5----5--4--4------------
--------------------------------------8--7------
--------------------------------------------6---

                                 =======2x======
------------------------------------------------
-----------------7--7-------------------4--4--7-
--------4--5--7--------4--5--7---5---5----------
--5--6------------------------------------------

===========
----5--6--7-------------------------------------
-7-------------7---7--5---5----------------4----
-----------------------------7----7--4--7-------
------------------------------------------------

---------------------------------------------7/9
------------------------------------------------
---------7/9--7--9--7----7--4--5--6--7----7-----
--5---5-----------------------------------------

-7--------------------------6/7--6/7--6/7--5--5-
-----9----11-----5------------------------------
--------------7--------5--5---------------------
------------------------------------------------

------------------------------------------------
-5--6--7----------------------------------------
------------------------------------------------
------------5--6---------5--6-----------5-------

------------------------------------------------
------------------------------------------------
5-----------------------------2-2-2--3-3-4---5--
-----------5--------5---5-5-5-------------------

--------------6h7---7-7---------------------4/5-
-----4--5--7-------------4--5--7----------------
--5---------------------------------5----5------
------------------------------------------------

-5---------------------------9------------------
----7---7--5--6--7--------------7--7------------
--------------------------------------5--6--7---
---------------------5---5----------------------

------------------------------------------------
---------4--5--6--7--------------------------6-7
-------------------------2--3--4--5----7--7-----
--5---5---------------5-------------------------

-------7-8-9------------------------------------
-8--9--------9----------------------------------
----------------5--7--6---5--5------------------
-------------------------------2--2-5---5-6-6---

------------------------------------------------
------------------------------------------------
----------------------------5/7-----------------
--5---5----6--------5---6-----------------------

3rd Verse
------------------------------------------------
--------------------------4--7-----4--5--6--7---
-------4--7----6----5---------------------------
-5----------------------------------------------

------------------------------------------------
--------------5------------------5--5h7---7/10\-
---4--7---------4--7--------5h7-----------------
-------------------------5----------------------

-------------5----------------------------------
----------4-----5--5h7---5--4-------4--7---4-6-7
--5----x----------------------5-----------------
------------------------------------------------

------------------------------------------------
-----5------------------------------------5-----
---------7--7--5--------------3/4-----7------5-6
-5-----------------0----5--5--------------------

------------------------------------------------
------6----9------------------------------------
-7--------------7----6-----5--------3-----------
------------------------------2--5-----5--0-----

------------------------------------------------
------------------------------------------------
------------------------------------------------
---5---6-----------5----6-----------5---6-------
****************************************************************************

9.How Many More Times

*Key*
x= mute
p=pull-off
h=hammer-on
\-slide down
/=slide up

G|------------------------|
D|------------------------|
A|---7p5---5----7-5---5---|(12x for Intro)
E|-0-----7----0-----7-----|

"How Many More Times..."
G|------------------------|
D|------------------------|
A|---7p5---5----7-5---5---|(12x for First vocal section)
E|-0-----7----0-----7-----|

[AFTER]...Please be true"
G|------------------------|
D|------------------------|
A|-555--------------------|
E|-----555----------------|

G|------------------------|
D|------------------------|
A|---7p5---5----7-5---5---|(11x for Second vocal section)
E|-0-----7----0-----7-----|

[AFTER]..."I'm sure, sure you're gonna crawl"
G|------------------------|
D|------------------------|
A|---7p5---5----7-555-7---|
E|-0-----7----0-----------|

*Guitar Solo*
G|------------------------|
D|------------------------|
A|-5~---7~----------------|(x10)
E|------------------------|

2nd part of Guitar Solo
G|------------------------------------------------------------|
D|------------------------------------------------------------|
A|-5-5555-5555-555555555----7-7777-7777-777777777-------------|(Around 5x)
E|------------------------------------------------------------|

G|----------------999-777------------------------|
D|------------------------999-777-555------------|
A|-7-77777777777---------------------777-555-----|
E|------------------------------------------777-0|

**NOISE AND STUFF**

G|-----------------------------------------------|
D|-----------------------------------------------|
A|-7-7-7-7-7-7-7-777-777-777-777-777-777-777-777-|
E|-----------------------------------------------|

G|-999-777---------------------------------------|
D|---------999-777-555---------------------------|
A|---------------------777-555-------------------|
E|-----------------------------777-0-------------|

"Oh, Rosie"
G|-----|
D|-----|
A|--7\-|
E|-----|
             (x2)
"Oh girl"
G|-----|
D|-----|
A|--7\-|
E|-----|

"Steal Away"
G|-7/9-----|
D|---------|
A|-----7\--|
E|---------|

G|-----|
D|-----|
A|--7\-|(x7)
E|-----|

"All Right,"
G|-----|
D|-----|
A|--7\-|(x2)
E|-----|

(Note: This part's a little hard to hear on the album, so im only a little sure its right.)
G|----------------------------------|
D|----------------------------------|
A|--------------------7\------------|
E|-0--0-3/5--5--5/7-0---------------|

G|-------------------------------|
D|-------------------------------|
A|------------------7------------|
E|-0--0-3/5--5--5/7--5/7-5/7-----|

G|-------------------------------|
D|-------------------------------|
A|-7-77-5-55---------------------|
E|-----------5-3-0---------------|

G|-------------------------------|
D|-------------------------------|
A|-7-77-5-55---------------------|
E|-----------3-5/7-x-5/7---------|

G|---------------------|
D|---------------------|
A|-7-77-5-55---5-7-5---|
E|-----------5---------|

G|------------77-9--------|
D|-----------------x-7/9--|
A|-7-77-5-----------------|
E|------------------------|

G|-------------------------------|
D|-------------------------------|
A|-7-77-5-55---------------------|
E|-----------5-3-0---------------|

G|-------------------------------|
D|-------------------------------|
A|-------------------------------|
E|-5h7-x-5h7-x-5h7-5h7-0---------|


G|-------------------------------|
D|-------------------------------|
A|-7-77-5-55---------------------|
E|-----------5-3-0---------------|


G|-------------------------------|
D|-------------------------------|
A|-7-77-5-55---------------------|
E|-----------5-3-0---------------|


G|-------------------------------|
D|-------------------------------|
A|-7-77-5-55---------------------|
E|-----------5-3-0---------------|

G|------------77-9---------------|
D|--------7p9------x-7/9---------|
A|-7-77-5------------------------|
E|-------------------------------|

"'Aint no need to hide..."
G|--------------------------------------|
D|-------9--9--9--9--9-9--9--9-9--9-----|
A|-----9--9-----9--------9--9---9---9---|
E|-7-7----------------------------------|

G|--------------------------------|
D|-7---------4-6-7-7--------------|
A|-----4-5-7---------7------------|
E|---7-----------------5-5--------|

G|-----------|
D|-----------|
A|-----------|
E|-3-3--0~---|

"'Cause I've got you in the sights... of my gun!"
G|------------------------|
D|------------------------|
A|---7p5---5----7-5---5---|(x12)
E|-0-----7----0-----7-----|

G|------------------|
D|------------------|
A|---7p5---5--------|
E|-0-----7----------|

G|------------------------|
D|------------------------|
A|-555--------------------|
E|-----555----------------|

G|------------------------|
D|------------------------|
A|---7p5---5----7-5---5---|(x2)
E|-0-----7----0-----7-----|

G|------------------|
D|------------------|
A|---7p5---5--------|
E|-0-----7----------|

G|------------------------|
D|------------------------|
A|-555--------------------|
E|-----555----------------|

G|------------------------|
D|------------------------|
A|---7p5---5----7-5---5---|(x4)
E|-0-----7----0-----7-----|

G|------------------|
D|------------------|
A|---7p5---5--------|
E|-0-----7----------|

G|------------------------|
D|------------------------|
A|-555--------------------|
E|-----555----------------|

G|------------------------|
D|------------------------|
A|---7p5---5----7-5---5---|(x2)
E|-0-----7----0-----7-----|

G|------------------|
D|------------------|
A|---7p5---5--------|
E|-0-----7----------|

G|------------------------|
D|------------------------|
A|-555--------------------|
E|-----555---0------------|

G|------------------------|
D|------------------------|
A|-555--------------------|
E|-----555----0-----------|

G|-7--------------------|
D|---7---7--------------|
A|-----5---7------------|
E|-----------5----0-----|

G|------------------------|
D|------------------------|
A|-555--------------------|
E|-----555---0------------|

G|------------------------|
D|------------------------|
A|-7-7777777777777777777--|
E|------------------------|
comments
print report bad tab
I want to post or [tab]
guest
You may want to rate the tab now too:
select rating
Please do not post tabs as comments. Select "correction" instead!