Oops, an error
Loading. Please wait.

Led Zeppelin Ii Bass Tab

11,112 views 27 this week
1 commentread comment
1 2 3 4 5
excellent!
x 4
add to favorites launch autoscroll
font size
0
reset
Autoscroll
+/-
esc
set tempo
stop
Contributor
WARNING: You are trying to view
                                    content from Ultimate-Guitar.com
                                    in an unauthorized application,
                                    which is prohibited.

                                    Please use an official Ultimate
                                    Guitar Tabs application for iPhone,
                                    iPad or Android to access legitimate
                                    chords, guitar, bass, and drum tabs
                                    from Ultimate-Guitar.com database.

                                    Type "ultimate guitar tabs" in Apple
                                    App Store's or Android Market's
                                    search to find the application.
1. Whole Lotta Love

The intro is like this:
G|-------------------|------------------|------------------|
D|-------------------|------------------|------------------|
A|-----------5----5--|------------------|-------------5---5|
E|---------7----7----|--0--00--00--00--0|0--00--00--7---7--|

G|------------------|
D|------------------|
A|-------------5---5|etc.
E|-0--00--00-7---7--|

So that's how is starts, and then you basically just repeat the main riff:
G|------------------|
D|------------------|
A|-------------5---5|
E|-0--00--00-7---7--|
for the rest of the song. You stop in the middle for I think 37 bars, and during that 
just does some random slides. And then for the guitar solo, just do:
G|------------------|
D|------------------|
A|------------------|
E|-0--0-------------|
You play that six times, and after the sixth time you go right back into the main riff.
Then there's another change towards the end. I'll put it with the vocals to make it easier:
            Way down in   side,..  woman..  you need, yeah
G|---------|----------|---------|--------|--------------------|----------|
D|---------|----------|---------|--------|--------------------|----------|
A|---------|----------|---------|--------|------------------7-|-0--------|
E|--0------|----------|---------|--------|--------------------|----------|

Love!------------------

G|--------|-----------|
D|--------|-----------|
A|--------|-----------|
E|--0-----|---(0)-----|

Then you go back into the main riff again, and while it's fading, Jimmy Paige changes it 
a little, and to match that with the bass play:
G|--------------------|----------------|
D|-------------------5|----------------|
A|---------------5----|----------------|
E|--0--00--00--7---7--|--0--00--00-----|
Like that.
****************************************************************************

2. What Is and What Should Never Be

Intro: 0:02

           slow slide
G-------------|----------------------------|--------------9----------|
D-4----------2/7---------7-----------------|--------9h11-----11\9----|
A-4-----------|-----7h9----9-7-0-----0-4--0|----7--------------------|
E-------------|----------------------------|-------------------------|

G----------------------------|-----------9---------|------------------------
D-7-------7------------------|-----9h11-----11\9---|-7-----7----------------
A----7h9-----9-7--0---0-4-4-4|--7------------------|---7h9----9-7-0--0-4-5-6
E----------------------------|---------------------|------------------------

G-----------9---------|-----------------------------------|
D-----9h11-----11\9---|--7-------7------------------------|
A--7------------------|-----7h9-----9-7-0----0--4--3------|
E---------------------|-------------------------------7--6|

Chorus (catch the wind, see us spin)
G-------------------------------------------------|
D--------------7-------------5------------5-------|
A-------------------------------------------------|
E---5----5-5------5-----5------5--5--5-------5---5|

G----------------------------------------------------|
D--4-------------4-----------------------------------|
A------------------------------7----------5---4------|
E-----5---5---5------5----5---------x-------------7--|

G------------------------------------------------------|
D----------------7-----------5---------------5---------|
A------------------------------------------------------|
E---5----5--5--------5---5-------5---5---5------5---5--|

G-------------------------------------------|
D---4------------4--------------------------|
A--------------------------7--5---4---------|
E-------5--5--5-----5---5-------------7---5-|

G------------------------------------------------|
D-----------9-----------7--------------7---------|
A------------------------------------------------|
E--7---7-7-----7----7-------7---7---7------7---7-|
                                                   whole note
G---------------------------------------------|---------------|
D---6-------------6---------------------------|---------------|
A------------------------------9----7----6----|---------------|
E-------7--7--7-------7---7------------------7|-------2-------|

Post chorus riff
G------------------------|-----------|
D------------------------|-----------|
A----------------2h4-----|-----------|
E---5-------------------4|--0--------|

Second verse: Basically same as first, with slight variations.
G------|-----------------------------------|-------------9-----------------|
D-----2/7--------7-------------------------|------9h11------11\9-----------|
A------|----7h9------9---7---0--0--4---5--6|-7-----------------------------|
E------|-----------------------------------|-------------------------------|

G-------------------------------|------------9--------|
D--7--------7-------------------|------9h11-----11\9--|
A-----7h9------9--7--0----0-4--0|--7------------------|
E-------------------------------|---------------------|

G----------------------------------------|
D--7--------7----------7-----------------|
A------7h9-----9---7---------5-4--3------|
E------------------------------------7--6|

Second chorus: Same as first, but the post chorus riff is different.

Post chorus riff:
G---------------|------------------------|--------------------|
D---------------|----------------2---4---|--------------------|
A---------------|----------2--4----------|--------------------|
E---2----------2|--5--------------------4|-0------------------|

Guitar solo: Same basic set up as verse, but with variations.
G------|------------------------|----------9------------------|
D-----2/7-----7-----------------|-----9h11----11--9--6--9--6--|
A------|--7h9---9-7-0----0-4-5-6|--7--------------------------|
E------|------------------------|-----------------------------|

G---------------------------|-----------9--11h13--11--9-------|
D--7-------7----------------|-----9h11-------------------11\9-|
A-----7h9------9--7--4--5--6|--7------------------------------|
E---------------------------|---------------------------------|

G---------------------|---------------------|-----4h6-4---------------|
D--7--7-6-------------|----------------5h6-x|-7----------7-4----------|
A----------9-7-------7|------2--4--7--------|----------------7--4-----|
E---------------7h9---|-0--4----------------|----------------------7--|

Then play the chorus riff, then play this post chorus riff:
G---------------|--------------------1|-----------------------|
D---------------|-----------2---4--2--|-----------------------|
A---------------|-------2h4-----------|-----------------------|
E---2----------2|--5------------------|--0--------------------|

Verse three:
G------|--------------------------|---------9---------|
D-----2/7-------7-----------------|----9h11----11\9---|
A------|---7h9-----9--0--4--5-6--0|-7-----------------|
E------|--------------------------|-------------------|

G------------------------------------|-----------9------------|
D--7-------7-------------------------|-----9h11-----11--9-----|
A-----7h9-----9--7--0-----0--4--5---6|--7---------------------|
E------------------------------------|------------------------|

G----------------------------------------|
D--7---------7----------7----------------|
A------7h9------9---7-----------5-4-3----|
E-------------------------------------7-6|

Then play the chorus again, then play this post chorus:
G---------|------------------------1-|------------------------|
D---------|----------------2--2h4----|------------------------|
A---------|-----------2h4------------|------------------------|
E--2------|--5-----------------------|-0----------------------|

Then there are three bars of rest, then play:
G------------|-------------------|-------------------------------------|
D------------|--------6h7--------|---------5p4-------------------------|
A------------|---5H7-------------|--4h5-----------7-----7--------------|
E----------0-|-------------------|-------------------7------7-----0----|

G------------------------|-----------------------------------|--------------
D------------6h7---------|--------5--4-----------------------|------6h7-----
A-----5h7---------------4|--4h5---------7-----5--6--7--------|-5h7----------
E------------------------|-----------------7-----------7-----|--------------

G------------------------|----------------|----------------------------|
D-------5p4--------------|-------6h7------|-------5p4--------9---------|
A--4h5---------7---------|--5h7-----------|--4h5-------7---7---7-7-7-7-|
E-----------------7--0---|----------------|----------------------------|

G----------------------|----------------------|----------------------------|
D--------6--7-------14\|-------5p4------------|------6h7-------------7-----|
A--5h7-----------------|--4h5-------7--7------|-5h7-------------7--7---7---|
E----------------------|------------------7--0|----------------------------|

G------------------------------|------------------------------|
D--------5p4-------------------|-------x-6h7----------7-7-----|
A---4h5--------7-----7--7------|--5h7---------------7---------|
E-----------------7--------7--0|------------------------------|

G------------------------------|--------------|-----------------------------
D------x-5-4-3-2---------------|---------6-7--|------x-5p4------------------
A--4h5-----------x-2-0---------|-5-7-7-7------|--4h5--------7-6-5-4---------
E----------------------3--2-0-0|--------------|---------------------0-7-6-5-
****************************************************************************

3.The Lemon Song

Intro/Verse Riff (rest 3 measures then):
G|--7---7--7-------------------------------------------------7-----|
D|----x---------------------------------------------------9-----9--|
A|-------------7--7------------------------7---x--7----------------|
E|-------------------4--4--5--5--6--6--7---------------------------|

G|-----------------------------------9------------7-----7--7-------|
D|--------------------------------------------9------9----------9--|
A|---7--7-------------------------7-----7--------------------------|
E|---------x--4--4--5--5--6--7-------------------------------------|

G|--------------------------------------------9--7-----------------|
D|--------------------------------------------------9--0--7--9-----|
A|---7--7------------------------7---7--7--------------------------|
E|---------x--4--4--5--5--6--7-------------------------------------|

G|-----------------------------------9----------------9------------|
D|----------------------------------------------8--9------9--------|
A|---7--7------------------------7------7--------------------------|
E|---------x--4--4--5--5--6--7-------------------------------------|

G|-----------------------------------------------------------------|
D|---7---------------------------7------7-------5------------------|
A|---------0--4--4--5--5--6--7-------------------------5-----6-----|
E|-----------------------------------------------------------------|

G|-----------------------------9-----------------------------------|
D|----------6--6--7--7--8--9------9------------6----7----8---------|
A|---7---7---------------------------7-----7-----------------------|
E|--------------------------------------7--------------------------|

G|---------------11------------------------------------------------|
D|---9---9--x-9------9-----------------------5----7--5-------------|
A|----------------------9--------4--5--6--7-----7-------7--5--6----|
E|-------------------------7--5------------------------------------|

0:50 :
G|-------9----9--7-------------------------------------------------|
D|-----------------9--x--7--9--5h6--------------5------------------|
A|---7------------------------------7--5--6--7-----7--5-------5----|
E|------------------------------------------------------5-6-7---7--|

G|----------------------------------------------9-----9--7---------|
D|---------------------------------------------------------9-------|
A|---------------------------------x--5--6--7------7---------------|
E|---0---0---4---x--5--x--5--6--7-----------------------------7----|

G|-----------------------------------------------------------------|
D|-----------------------------------------------------------------|
A|---7-------------------------7--5---7--5---7--5--------7---------|
E|-------0---4--4--5--5--6--7-------7------7-------7--6-----6------|

G|-----------------------------------------------------------------|
D|-----------------------------7-----------------7-----------------|
A|---------4---4---5--5--6--7-----7-----------4-----5---6----------|
E|---5---5---------------------------5--5--5-----------------------|

G|---------------------------------9-------------------------------|
D|---------6---6---7---7--x--8--9-----------x--6--7--8-------------|
A|---7---7------------------------------7--------------------------|
E|-----------------------------------------------------------------|

G|----------12/13--11----------------9----11-9---------------5-----|
D|---9--9-------------13-11-9-x-9/11---11------11-9-7--7-x-5---5---|
A|---------------------------------------------------------------x-|
E|-----------------------------------------------------------------|


G|-------9---9---9--7----------------------------------------------|
D|---------------------9--7--9--5/6\-------------------------------|
A|---7-----------------------------------------------5----6--------|
E|-----------------------------------------------------------------|

Up Tempo (1:27):
G|-----------------------------------------------------------------|
D|----------6--x-7--x-8--9-------------6--6--7--7---x-8--9----------|
A|---7--7-------------------5---7--7-------------------------------|
E|-----------------------------------------------------------------|

G|--------------------------7--8--9--9--7--x-----------------------|
D|-------x--6---7--7--8--9-------------------9---x--7--6-----------|
A|---7----------------------------------------------------7--------|
E|-----------------------------------------------------------7-----|

G|-----------------------------------------------------------------|
D|------------------------------5--7--7--5-------------------------|
A|-----------4---x-5---x-6--7----------------x--7--6--5--4--5------|
E|---5---5---------------------------------------------------------|

G|------------------------------7--9--9--7-------------------------|
D|-----------6---6-7---x-8--9----------------x-9---x--7--6--7------|
A|---7---7---------------------------------------------------------|
E|-----------------------------------------------------------------|

G|-----------------------------------------------------------------|
D|---9---7---------------------------------------------------------|
A|----------9---7---5---7-------------x--4--x--5--x--5--6--7-------|
E|--------------------------5--7---5-------------------------------|

G|-----------------------------------------6--x-7--x-7--8--8--8----|
D|-----------6--6--7--7--7--8--8--8--9--9--------------------------|
A|---7---7---------------------------------------------------------|
E|-----------------------------------------------------------------|

G|---9---9---7-----------------------------------------------------|
D|--------------x--9---x--7--5h6-----------------------------------|
A|---------------------------------7---7---5-----------------------|
E|---------------------------------------------x--7--5---3h4--0----|

G|-----------------------------------------------------------------|
D|---------------------------------------5--x--5--6--x--6--7--7----|
A|---------------------------------7--7--------------------------7-|
E|----0---0---4--x--5--x--5--6--7----------------------------------|

G|-----------------------------------------------------------------|
D|----7---7---5-----------------------------------------------5h6--|
A|----------------x---7---x--5-3h4-----------4--x--5--x--6--7------|
E|----------------------------------5--5--5------------------------|

G|---------------------------------7--9--9--x-7--------------------|
D|------------6--x--7--x--8--x--9----------------9--x--6--7--8-----|
A|----7---7--------------------------------------------------------|
E|-----------------------------------------------------------------|

G|------------8---x-9---x-10-11-----------6--x--7--x--8--9---------|
D|----9---9----------------------9--7--7--------------------7------|
A|-----------------------------------------------------------------|
E|-----------------------------------------------------------------|

G|--------9--7--x-6--6--5---x--------------------------------------|
D|----9------------------------9--9--7--7--7--8--9-----------------|
A|-----------------------------------------------------------------|
E|---------------------------------------------------7-------------|

G|---------------------------------9---7---------------------------|
D|------------6---x--7---x--8---9---------9-----6--6---7---9-------|
A|----7---7----------------------------------7---------------------|
E|-----------------------------------------------------------------|

G|----9------------------------------------------------------------|
D|-------9------6---7---8------------------------------------------|
A|----------7------------------------------------------------------|
E|----------------------------0---4---4---5---5---6---7------------|

G|-----------------------------------------------------------------|
D|------------------------------------7--7---x--5------------------|
A|-------------4---4---5---5---6---7---------------x-7--x--4-5-6---|
E|-----5---5-------------------------------------------------------|

G|---------------------------------9--x-9-----9----7----9----------|
D|-------------6---6---7--7--8--9----------7----8----9-------------|
A|-----7---7-------------------------------------------------------|
E|-----------------------------------------------------------------|

G|-----------------------------------------------------------------|
D|-----9---9---7---x-----------------------------------------------|
A|--------------------9---x---7--5------------4-x-5-x-5---6--6-----|
E|----------------------------------7---5--5-----------------------|

G|-----------------------------------------------------------------|
D|-------------6--6---x-7--7---8--8--9-----------------------------|
A|-----7---7-------------------------------------------4--5--6-----|
E|--------------------------------------7--7--7--7--7--------------|

Slower Tempo (2:30):
G|-----------------------------------------------------9--7--------|
D|-------------6---6--6--7--7--8--9--------------------------9-----|
A|-----7---7-------------------------x--7---x--7-------------------|
E|-----------------------------------------------------------------|

G|----------------------------9--8--7------------------------------|
D|-------x--6--6--7--7--8--9-----------9--x--7--6---------------5/-|
A|----7-------------------------------------------7--8--5--6--7----|
E|-----------------------------------------------------------------|

G|-----------------------------------------------------------------|
D|-------------------------5--6--7---------------------------------|
A|----0---4---x-5--x-6--7-------------------4---5---6--------------|
E|------------------------------------5----------------------------|

G|-----------------------------9-----------------------------------|
D|--------x--6--6--7--7--8--9-----------6----7----8----------------|
A|----7----------------------------7-------------------------------|
E|-----------------------------------------------------------------|

G|-----9-----------------------------------------------------------|
D|---9---9--9--9--9--x--9---------------------------7---7----5---7-|
A|-------------------------9----9-------------x--4----5---5h7--7---|
E|----------------------------7---7--6--5--5-----------------------|

"Now take it down a little..." (2:56):
G|---------9-9--9--7-----------------------------------------------|
D|-------x-----------9--7--9-5h6------------5----------------------|
A|---7----------------------------7--5-6-7----7--5--------5--------|
E|-------------------------------------------------5h6-7-----5-----|

G|-------------------------------9---7-----------------7-----------|
D|---------6---7--8--9-------------------0--7--8--9----------------|
A|---7-----------------9----7--------------------------------------|
E|-----------------------7-----------------------------------------|

G|--------------------------------9--8--7--------------------------|
D|-------0--6--6--7---7--8--9--0-----------0--9--0-7--6------------|
A|---7--------------------------------------------------7-0----7---|
E|-----------------------------------------------------------7---6-|

G|-----------------------------------------------------------------|
D|----------------------------0--5--6--7-----------------7---------|
A|---0---0--4--x--5--0--6--7-------------7---7----0--4------5--6---|
E|-----------------------------------------5---5-------------------|

G|------------------------------------------------------9----------|
D|-------0--6--6-6-7--7--7--8--8--8--9--------------0-6---7--0--8--|
A|---7---------------------------------7--5-0-7--7-----------------|
E|-----------------------------------------------------------------|

G|-------------11--------------------------------------------------|
D|---9---9--9------9-------9-----9---7------------4-5-6-7----------|
A|--------------------0--9----9---------0-4-5-6-7---------4-4-5-6--|
E|-----------------------------------------------------------------|

G|-------9---7-----------------------------------------------------|
D|--------------9--7--5--------------------------------------------|
A|---7--------------------7--5-----7-7--5------------------5--6----|
E|------------------------------7---------7--5--3--5----/7---------|
				   N.H.
G|-------9--9--7---------------------------12-9--------------------|
D|----------------9--7--0--5h6------(5)---------12--9-7-8--9-------|
A|---7--------------------------7----------------------------------|
E|-----------------------------------------------------------------|

G|-----------------------------------------9--7--------------------|
D|-----------------------------------------------9--7-0-5--7-------|
A|---7--------5--5------------------7---7--------------------------|
E|-------------------7--5--3--5--7---------------------------------|

G|-----------------------------------------------------------------|
D|-------------------------4-5-6-7-------------------------5-6-7-9-|
A|---0-------4----5--6--7-----------0--4--4--5-5-6--6-7--7---------|
E|-----------------------------------------------------------------|

G|--------9---9--7-------------------------------------------------|
D|------------------9-7-x--5--6-------------x-6--7--8--9------7----|
A|---7---------------------------7--5--6--7---------------x-7------|
E|-----------------------------------------------------------------|

G|----------11-----------------------9-----------------------------|
D|---9--9-------9--------9----9--7-7----7----------------5---7-----|
A|-----------------9----9--9--------------7---4--5--6--7---7-------|
E|--------------------7---------------------5----------------------|

G|--------9--7-----------------------------------------------------|
D|--------------9--7--5--------------------------------------------|
A|---7-------------------7--5----------------------------0--2------|
E|-----------------------------7---5--3--2--1--0-1--2--3-----------|

G|-----------------------------------9---9--7--7--7----------------|
D|-----------0--6--0--7---7--8h9---------------------9--7----------|
A|---7---7------------------------7------------------------7-------|
E|-----------------------------------------------------------------|

G|---------------------------------7--9----------------------------|
D|---------6--6--7--7--8--8--9--9----------------------------------|
A|---7--7-------------------------------7--7--5--5--5--------------|
E|----------------------------------------------------7--7-5-0-3-4-|

G|-----------------------------------------------------------------|
D|---------------------------5--6--7-------------------------------|
A|-----------4---4--5---6--7----------7-----------0--4--5--6-------|
E|---5--5--5-----------------------------5--0-5--------------------|

G|------------------------7--8--9--12-9---9-9-12-9----9--9---------|
D|------x--6--6--7--8--9---------------12----------12------12-9----|
A|---7----------------------------------------------------------12-|
E|-----------------------------------------------------------------|

G|-----------------------------------------------------9---7-------|
D|---9--------------7--8--9------------------------5----------9----|
A|------9-------9-----------9--6-------------5-6-7---7----------5--|
E|---------7----------------------7--x-5-6-7-----------------------|

G|-------------9---------------------------------------------------|
D|------9/11-------------9\----------------------------------------|
A|---7------------10/11-----10/11---------7--x-5-------------------|
E|----------------------------------7--9----------7--5--3h4--------|

G|-----------------------------------------------7-----9-----------|
D|-----------------------------------------------------------------|
A|-------7--7--5--------------------------7--7---------------------|
E|---0------------7--5--2--3--4--0--0--5---------------------------|

G|----------------------------------9--------9---------------------|
D|-------------------------------------------------7-8-------------|
A|---7-----7--7--5-------------x-7-----x-7------7------------------|
E|-------7-----------7--5--0----------------------------0----------|

G|--------------------------------------------------7--6-----------|
D|-----------------------4--5--6--7-------------7---------9--7--x--|
A|--------x--4--5--6---7-------------4--7-----7---7----------------|
E|----5------------------------------------5-----------------------|

G|-------------9--9--7---------------------------------------------|
D|----9-----------------9--7--6h7--6h7--6-7-6----------------------|
A|-------7--7----------------------------------7--5-x-7------------|
E|------------------------------------------------------4--4-5--0--|

G|----------------------11-------------------7-----11--9-----------|
D|-------------9/11h13-----13--11\9--7--9h11----11--------11-----9-|
A|-------9h11------------------------------------------------9h11--|
E|----7------------------------------------------------------------|

G|--------9---7----------------------------------------------------|
D|----------------9---7--5h6---------------------------------------|
A|----7-------------------------7--5-------------------------------|
E|------------------------------------7--5--3--2--0--0--4--7-------|

G|-----------9--7----------------------------7--9------------------|
D|-----------------9--7-------------6--7--9------------------------|
A|----7------------------7---7---7---------------------------------|
E|-----------------------------------------------------------------|

G|----------9--9--9--9--9--9--7------------------------------------|
D|-------------------------------9---------4-4-4-4-5-5-5-5-6-6-6-6-|
A|----7----------------------------7-7-7-7-------------------------|
E|-----------------------------------------------------------------|

G|----------------5/6----------------------------------------------|
D|-----7--5-------------7--5--7--5-------------------------5-------|
A|------------7--------------------7--0--0--0--4--5--6-0-7--7-5--6-|
E|-----------------------------------------------------------------|

G|--------9--7-----------------------------------------------------|
D|-------------9--7--5h6-------------5-----7-5---------------------|
A|----7------------------7--5--6--7---7-5-----5-5-6-7-5-5-6-7------|
E|-----------------------------------------------------------5-5-6-|

G|-------------------11--------------------------------------------|
D|----------------9------9----------------------2------------------|
A|-------------9------------9----9----------2h4---4-2-----4--------|
E|----7---7--------------------7---7--6--5------------5-5----------|

G|-----------------------------------------------------------------|
D|------------6--6--7--7--8--8--9--9-------------------------------|
A|----7---7--------------------------------------------------------|
E|------------------------------------------/7---------------------|

Up Tempo (5:36):
G|--------------------------------------------------------7--------|
D|----------6--x--7--x--8--9------------6--6-7--x--8--9------------|
A|----7--7------------------------7--7-----------------------------|
E|-----------------------------7-----------------------------------|

G|----9---9--------------------------------------------------------|
D|-------------x--9--x--7--5h6-------------------------------------|
A|-------------------------------7--7--5---------------------------|
E|----------------------------------------0--7--0--5--3--4---------|

G|-----------------------------------------------------------------|
D|------------------------------5--7--7--5-------------------------|
A|------------4--x--5--x--6--7--------------x--7--x--5--4--5-------|
E|----5---5--------------------------------------------------------|

G|---------------------------7--9--9--7----------------------------|
D|----------6--x-7--x--8--9--------------0--9--x--7--6--7----------|
A|----7--7---------------------------------------------------------|
E|-----------------------------------------------------------------|

G|-----------8--8-9--9-10--11--------------6--x-7-x--7--8--8-------|
D|----9---9--------------------x--9--7--7--------------------------|
A|-----------------------------------------------------------------|
E|-----------------------------------------------------------------|

G|----9--9--7--7--7-6--6--5--5-5--x--------------------------------|
D|-----------------------------------9--9--8-8--8--7--7--8--9------|
A|-----------------------------------------------------------------|
E|-----------------------------------------------------------------|

G|-----------------------------------------------------------------|
D|-----------------------------------------------------------------|
A|----7--7--5------------------------------------------------------|
E|-------------0-7--x-5--3h4--0--0--4--x--5--x--5--6--7------------|

G|---------------------------7--9--9--9--7-------------------------|
D|----------6--x-7--x--8--9-----------------x-9--x-7--5h6----------|
A|----7--7------------------------------------------------7--------|
E|-----------------------------------------------------------------|

G|-----------------------------------------------------------------|
D|-------------------------------4--x-5--x-6--7--7-----------------|
A|----------4--x--5--x--6--7--7---------------------4--5-----------|
E|----5--5---------------------------------------------------------|

G|--------------------------7---9---9---7--------------------------|
D|--------6--x--7--x--8--9-----------------x--9---7--6--7----------|
A|----7------------------------------------------------------------|
E|-----------------------------------------------------------------|

G|-----------------------------------------------------------------|
D|----9---7--------------------------------------------------------|
A|------------9--8--7---5------------------------7-----------------|
E|--------------------------7--6--5--------------------------------|
****************************************************************************

4.Thank You

Intro - rest 4 measures then:
G|-----------------------------------------------------|
D|-----------------------------------------------------|
A|--5-------0--5--0--5--------3-------0--3--0--3-------|
E|-----------------------------------------------------|

G|-----------------------------------------------------|
D|-----------------------------------------------------|
A|--2-------0--2--0-----0--2--5-------0--5---5-0/5-7-7-|
E|-------------------3---------------------------------|

G|-----------------------------------------------------|
D|-----------*rest throughout first verse*-------------|
A|--5--------------------------------------------------|
E|-----------------------------------------------------|

Bridge:(Note: the Open A is a pickup to the beginning
	of the measure which begins on B)
G|-------------4---------------------------------------|
D|----------4-----4--0--2------------------------------|
A|--0-2--------------------2-------2-0------2----------|
E|-----------------------------------------------------|

G|-----------------------------------------------------|
D|----2------------------------------------------------|
A|------------------------------------------0-----1----|
E|----------------0------------4-----------------------|
	
G|----------4------------------------------------------|
D|-------4-------------------------4--0-----0--1--2----|
A|----2---------2--------------2---------2-------------|
E|-----------------------------------------------------|

G|------------------------------|
D|------------------------------|
A|--------------0---------------|
E|------------------------------|

Pre Chorus/Chorus Section:
G|------------------------5----------------------------|
D|------------------------------5----------------------|
A|----3---3------3---3--------------------3------------|
E|-----------------------------------3-----------------|

G|-----------------------------------------------------|
D|-------------------5---------------------------------|
A|----2----------5-----------5------------2/5----------|
E|---------------------------------3-------------------|

G|-----------------------------------5h7---------------|
D|-------------------5---7p5h7------------5h7----------|
A|---/5---5----5---------------------------------------|
E|-----------------------------------------------------|

G|----------------9p7--------7-------------------------|
D|----------------------7h9-----9\---------------------|
A|----5-----5------------------------------------------|
E|-----------------------------------------------------|

G|-----------------------------------------------------|
D|----------------------------5/7\---------------------|
A|----3-----3-------5h7---5----------------------------|
E|-----------------------------------------------------|

G|-----------------------------------------------------|
D|--------------5--------------------------------------|
A|----2-------------5--0h2-----------------------------|
E|---------------------------3--------3-3--5-----------|

G|-----------------------------------------------------|
D|---------------------5h7-------5h7-------------------|
A|----5---------5--------------------------------------|
E|------------------------------------------5----------|

G|-------------------------------7---------------------|
D|---------------------7------------7------------------|
A|----5---------5-----------------------0---5----------|
E|-----------------------------------------------------|

G|--------------------4-----4--------------------------|
D|-----------------4-----4---------4--------4----------|
A|----2-----2-------------------------x--2-------------|
E|-----------------------------------------------------|

G|-----------------------------------------------------|
D|----2------------------------------------------------|
A|----------------------------0----------1-------------|
E|------------------4----------------------------------|

G|--------------------------2--x--4--------------------|
D|-----------------0h2---4-----------2h4---------------|
A|----2------------------------------------------------|
E|-----------------------------------------------------|

G|-----------------------------------------------------|
D|----2-----------------*rest until solo*--------------|
A|--------------0--------------------------------------|
E|-----------------------------------------------------|

Solo:
G|-12h14-----------------------------------------------|
D|-----------------------------------------------------|
A|---------5-----5--2-----0-----2------5---------------|
E|-----------------------------------------------------|

G|-----------------------------------------------------|
D|-----------------------------------------------------|
A|-----3-----3---0----------0-----3--------------------|
E|--------------------3-----------------0h1------------|

G|-----------------------------------------------------|
D|---------------------------5-------------------------|
A|---------------------3h5--------5\3p2----------------|
E|------3---------------------------------3------------|

G|---------------------------7-------------------------|
D|----------------------5/7-----7----5--4--------------|
A|------3h5---5----------------------------------------|
E|-----------------------------------------------------|

G|--------------7-----7-----------7-----7--------------|
D|-----------------7-----7-----7-----7-----------------|
A|------5-------------------5--------------------------|
E|-----------------------------------------------------|

G|------5----------------------------------------------|
D|----------5-----------------------0---2---5-----2----|
A|--------------3--------2--3--------------------------|
E|-----------------------------------------------------|

G|-----------------------------------------------------|
D|---------------------0--0h2----5----2\---------------|
A|-------------0h2-------------------------------------|
E|-------3---------------------------------------------|

G|-----------------------------------------------------|
D|-----------------------------------------------------|
A|-------5-----5-----0---2---5---2--5--2---0----/5-----|
E|-----------------------------------------------------|

*rest 2nd verse*

Second bridge:
G|-----------------------------------4-------4---------|
D|-------------------------------4-------4------4------|
A|----2--2--2--2--2-------2--2---------------------2---|
E|-----------------------------------------------------|

G|-----------------------------------------------------|
D|----2------------------------------------------------|
A|-----------2-----------------------------0---1-------|
E|--------------0-------------0--0--4--0---------------|

G|-----------------------------------------------------|
D|-----------------------------------------------------|
A|----2-----2--2-----2--2--2--2--2--2--2--2--2--2------|
E|-----------------------------------------------------|

G|-----------------------------------------|
D|----2------------------------------------|
A|-----------------------------------------|
E|---------------------5-------------------| 

*rest for final verse and outro*
****************************************************************************

5. HeartBreaker

Intro/Main riff
G||--------------------------|---------------------------|
D||------------0----1--2-----|-------------0---1--2------|
A||--0----3------------------|--0-0-0-0-3----------------|
E||-----------------------3--|-----------------------3---|

|--------------------------|----------------------------|
|------------2----3--4-----|---------------2---3--4-----|
|--2----5---------------0--|--2-2-2-2-5--------------2--|
|--------------------------|----------------------------|

Verse
                   x3      end with           Repeat once
|--9----9/-------12---| |----9--9/---12-0--12-|
|--7----7/-------10---| |----7--9/---10-0--12-|
|---------------------| |---------------------|
|---------------------| |---------------------|

|------7-------7---------|
|--7-------7-------7-----|
|---------------------9\-|
|------------------------|

Main riff
||--------------------------|---------------------------|
||------------0----1--2-----|-------------0---1--2------|
||--0----3------------------|--0-0-0-0-3----------------|
||-----------------------3--|-----------------------3---|

|-------------------------|----------------------------|
|-----------2----3--4-----|---------------2---3--4-----|
|-2----5---------------0--|--2-2-2-2-5--------------2--|
|-------------------------|----------------------------|

||--------------------------|---------------------------|
||------------0----1--2-----|-------------0---1--2------|
||--0----3------------------|--0-0-0-0-3----------------|
||-----------------------3--|-----------------------3---|

Verse 2:
|--9----9/-------12---| |----9--9/---12-x-12--|
|--7----7/-------10---| |----7--9/---10-x-12--|
|---------------------| |---------------------|
|---------------------| |---------------------|

|--9----9/-------12---| |-9--9/---12--x--12--x--11--|
|--7----7/-------10---| |-7--7/---10--x--10--x--9---|
|---------------------| |---------------------------|
|---------------------| |---------------------------|

|--9----9/-------12---| |-9--9/---12--x--12--x--11--|
|--7----7/-------10---| |-7--7/---10--x--10--x--9---|
|---------------------| |---------------------------|
|---------------------| |---------------------------|

|--9----9/-------12---| |----9--9/---12-x-12--|
|--7----7/-------10---| |----7--9/---10-x-12--|
|---------------------| |---------------------|
|---------------------| |---------------------|

|------7-------7-------------|
|--7-------7-------7---x--7\-|
|----------------------------|
|----------------------------|

Verse 3?
||--------------------------|-----------------------------|
||------------3----4--5-----|---------------3----4--5-----|
||--3----6------------------|--3-3-3-3-6------------------|
||-----------------------6--|--------------------------6--|

||--------------------------|-----------------------------|
||------------5----6--7-----|---------------5----6--7-----|
||--5----8------------------|--5-5-5-5-8------------------|
||-----------------------8--|--------------------------8--|

|---------------------------|------------------------------|
|-------------7----8--9-----|----------------7----8--9-----|
|--7----10------------------|--7-7-7-7-10------------------|
|------------------------0--|---------------------------5--|
                                    
|---------------------------|----------------------------|
|---------------------------|o--------------------------0|
|--7--7--7----2-5-4-2-------|o-------7----2-5-4-2-------0|
|---------------------5-3-2-|--0--0---------------5-4-3--|

|-------------------------|------------------------||
|-------------------------|------------------------||
|--------7--7----7-----7--|------------------------||
|--0--0-------------0-----|--0--0--0--0--0--0--0---||

Guitar solo

Bridge (after solo)
                       x3                         x12
G||-----------------------|  |-----------------------||
D||----------5--4---5--4--|  |-----------2-----------||
A||--0---5----------------|  |--0--3--4-----5--3h-4--||
E||-----------------------|  |-----------------------||

|------------------------|------------------------|
|------------------------|------------------------|
|-------------3----------|-------3-----3----------|
|--5----3--5-------5--3--|--5-------5-------5--3--|
                                                            
|-----------------------------|-----------------------------|
|-----------------------------|-----------------------------|
|-------------------6h7-7-7-7-|-----------------------------|
|--5--5----5--5-5-5-----------|--5--5----5--5-5-5-5-5-5-5-5-|
                                                                
|----------------------------------|---------------------------||
|----------------------------------|---------------------------||
|----------------------------------|------------------>--------||
|--5-5-5-5-5-5-5-5-5-5-5-5-5-5-5-5-|--5-5-5-5-5-5-5-5-5--------||
                    x2
|--9----9/-------12---| |----9--9/---12-x-12--|
|--7----7/-------10---| |----7--9/---10-x-12--|
|---------------------| |---------------------|
|---------------------| |---------------------|

--9----9/-------12---| |-9--9/---12--x--12--x--11--|
--7----7/-------10---| |-7--7/---10--x--10--x--9---|
---------------------| |---------------------------|
---------------------| |---------------------------|

|--9----9/-------12---| |----9--9/---12-x-12--|
|--7----7/-------10---| |----7--9/---10-x-12--|
|---------------------| |---------------------|
|---------------------| |---------------------|

|------7-------7-------------||------7-------7---------|
|--7-------7-------7---x--7\-||--7-------7-------7-----|
|----------------------------||---------------------9\-|
|----------------------------||------------------------|
                       x3
|--------------------------|
|------------0----1--2-----|
|--0----3------------------|
|-----------------------3--|
****************************************************************************

6.Living Loving Maid (She's just a woman)

G|----|----------------|----------------|----------------|----------------|
D|----|----------------|----------------|----------------|----------------|
A|----|----------------|----------------|----3---3-4-5---|--------3-------|
E|----|5-5---5---5---5-|--5---5---5---0-|5-5---5-------3-|--3-3-5-----5---|

G|----------------|----------------|
D|----------------|----------------|
A|----------------|--------5-------|
E|3-5-----3-5-----|--5-5-5-----5---| 2X

G|----------7-----|----------------|----------------|----------------|
D|------5-7-----4-|--5---6-7-------|--------7-7---4-|5---------------|
A|5---------------|----------7-5-6-|----------------|----7-7---5---4-|
E|----------------|----------------|5-----5---------|------------5---|
  Come on babe on the roundabout...

G|----------------|----------------|----------------|----------------|
D|----------------|----------------|----------------|----------------|
A|5-------------2-|3-4---5-----5-6-|7---------------|----------------|
E|--2-3-4-5-5-----|----------5-----|----------------|----------------|

					      D.S. al CODA
G|----------------|----------------|----------------|----------------|
D|----------------|----------------|----------------|----------------|
A|----------------|----------------|----3---3-4-5---|--------3-3-----|
E|0-0-0-0-0-0-0-0-|0-0-0-0-0-0-0-0-|5-5---5-------3-|--3-3-5-----5---|

G|----------------|----------------|----------------|----------------|
D|----------------|----------------|----------------|----------------|
A|----------------|--------5-------|----------------|----------------|
E|3-5-----3-5-----|--5-5-5-----5---|5-5---5---5---5-|--5---5---5---0-|

G|----------------|----------------|----------------|----------------|
D|----------------|----------------|----------------|----------------|
A|----------------|--------5-------|----------------|----------------|
E|3-5-----3-5-----|--5-5-5-----5---|5-5---5---5---5-|--5---5---5---0-|

G|----------------|----------------|----7---7-------|------5-6-7-----|
D|----------------|----------------|--7---7---4---5-|6-7---------7---|
A|----------------|--------5-------|5---------------|--------------5-|
E|3-5-----3-5-----|--5-5-5-----5---|----------------|----------------|
                                    Come on babe on the roundabout...

								     to CODA
G|----------------|----------------|----------------|----------------|
D|--------7-7---5-|----------------|----------------|----------------|
A|----------------|7---5-4-----3-4-|5---------5---5-|----5---5-5-6-6-|
E|5---------------|--------5-5-----|--2-3-4-5-------|--5---5---------|

G|----------------|----------------|----------------|----------------|
D|----------------|----------------|----------------|----------------|
A|7---------------|----------------|----------------|----------------|
E|----------------|----------------|----------------|5-5-5-5-5-5-5-5-|

G|----------------|----------------|----------------|----------------|
D|----------------|----------------|----------------|----------------|
A|----------------|----3---3-4-5---|--------3-------|----------------|
E|5-5-5-5-5-5-5-5-|5-5---5-------3-|--3-3-5-----5---|3-5-----3-5-----|

G|----------------|----------------|----------------|----------------|
D|----------------|----------------|----------------|----------------|
A|--------5-------|----------------|----------------|----3---3-4-5---|
E|--5-5-5-----5---|5-5---5---5---5-|--5---5---5---5-|5-5---5-------5-|

G|----------------|----------------|----------------|----------------|
D|----------------|----------------|----------------|----------------|
A|--------3-3-----|----------------|--------5-------|5---------------|
E|--3-3-5-----5---|3-5-----3-5-----|--5-5-5-----5---|------2-3-3-4-5-|

G|----------------|--------------9-|--9-------------|--------------7-|
D|----------------|7---------------|7---7-----------|----4-5-6-7-----|
A|----3-4-5-5-6-7-|----------------|--------7-----4-|5-5-------------|
E|----------------|----------------|----------5-----|----------------|

G|--5-------------|----------------|----------------|----------------|
D|------7-4-------|----------------|----------------|----------------|
A|----------7-5-6-|7---------------|----------------|----------------|
E|----------------|----------------|----------------|0-0-0-0-0-0-0-0-|

G|----------------|----------------|----------------|----------------|
D|----------------|----------------|----------------|----------------|
A|----------------|----3---3-4-5---|--------3-------|----------------|
E|0-0-0-0-0-0-0-0-|5-5---5-------3-|--3-3-5-----5---|3-5-----3-5-----|

G|----------------|
D|----------------|
A|--------5-------|
E|--5-5-5-----5---| D.S.

  CODA
G|----------------|----------------|----------------|----------------|
D|----------------|----------------|----------------|----------------|
A|----------------|----------------|----3---3-4-5---|--------3-------|
E|5-5-5-5-5-5-5-5-|5-5-5-5-5-5-5-5-|5-5---5-------3-|--3-3-5-----5---|

G|----------------|----------------|----------------|----------------|
D|----------------|----------------|----------------|----------------|
A|----------------|--------5-------|----3---3-4-5---|--------3-------|
E|3-5-----3-5-----|--5-5-5-----5---|5-5---5-------3-|--3-3-5-----5---|

G|----------------|----------------|----------------|----------------|
D|----------------|----------------|----------------|----------------|
A|----------------|--------5-------|----3---3-4-5---|--------3-------|
E|3-5-----3-5-----|--5-5-5-----5---|5-5---5-------3-|--3-3-5-----5---|

G|----------------|----------------|
D|----------------|----------------|
A|----------------|--------5-------|
E|3-5-----3-5-----|--5-5-5-----5---|
****************************************************************************

7.Ramble On

G----------|
D------9~--|
A-7--------|
E----------|

G-------9h11~--9------------12h13----11----9-----------------------9------|
D-7---------------------------------------------11----9~-X-7-9--11---11/--|
A---------------------7---------------------------------------------------|
E-------------------------------------------------------------------------|

1st Verse  (0:20)  (X4)
G----------------------9h11~--9----------12h13---11----9~----------------9--
D------9~--------7---------------11/----------------------11---9~--7-9\11-11
A-7-------------------------------------7-----------------------------------
E---------------------------------------------------------------------------

1st Pre-Chorus  (0:59)
G-------------------------------------------|
D---------------------------------2-2~------|
A---------------------0----X-4---------4-2--|
E-0------2----4---4-------------------------|

G--------------------------------------------|
D----------------------------------2--2------|
A----------------------0--2---4---------4-2--|
E-0------2----4----4-------------------------|

1st Chorus  (1:09)
G----------9~----------------|
D----------------------------|
A--------7----------------7--|
E-0-----------0---4---7------|

G----------9-----7~---7-------7-9-----------------------------|
D-7-7-7--7---7-7----7---7-7-7------------9--------------------|
A----------------------------------7---X----7~-------------7--|
E----------------------------------------------0---4---7------|

G---------9-------7-------7---7-9-----------9--------------------|
D-7-7-7-7---7-7-7---7-7-7---7------------------------------------|
A------------------------------------7----7----7~-------------7--|
E-------------------------------------------------0---4---7------|

G---------9-----7~----7-------7-9--------0-9--------------------|
D-7-7-7-7---7-7----7----7-7-7-----------------------------------|
A-----------------------------------7---------7~-------------7--|
E------------------------------------------------0---4---7------|

G---------9-----7~---7-7-8-9-----|
D-7-7-7-7---7-7----7----------7--|
A--------------------------------|
E--------------------------------|

2nd Verse  (1:30)
G------------------------9h11----9--------|
D-9~--------------7-------------------11--|
A-----------------------------------------|
E-----------------------------------------|

G--------12h13~--11-----9~-------------------9------------------|
D---------------------------11~-X-9~--7-9\11---11/----------9~--|
A-7--------------------------------------------------7----------|
E---------------------------------------------------------------|

G--------9h11~--9------------------X-12h13----11----9~-------------------9--
D-7--------------------11/---------X--------------------11/---9~--7-9\11--11
A-----------------------------7----X----------------------------------------
E----------------------------------X----------------------------------------

1st Interlude  (1:47)
G------X--------------------X-9h11~-9----------------X-12h13~-11----9~------
D------X--9~----------7-----X-----------11--9--------X------------------11--
A-7----X--------------------X-------------------7----X----------------------
E------X--------------------X------------------------X----------------------

G-----------9-------------X--------------------9h11~-9-----------|
D-X-7--9-11---11/---------X--9~--------7----X------------11--9/--|
A-------------------7-----X-----------------X--------------------|
E-------------------------------------------X--------------------|

G-------X--12h13----11----9-----------------------9------|
D-------X-----------------------11----9~-X-7-9\11---11/--|
A-7-----X------------------------------------------------|
E-------X------------------------------------------------|

2nd Chorus  (2:06)
G---------9---9~----------------------9-----7~---7-----7-9--|
D-----------------------------7-7-7-7---7-7----7---7-7------|
A-7-7-7-7------------------7--------------------------------|
E----------------0---4--7-----------------------------------|

G----0-9----------------------------9-----7~---7-------7-9--|
D---------------------------7-7-7-7---7-7----7---7-7-7------|  X3
A-7-------7~-------------7----------------------------------|
E------------0---4---7--------------------------------------|

2nd Interlude  (2:25)
G------------------------------------------------7----9-7h9~-9------|
D-7----------7--5\7~----7----------------5\7~-7----------------5h7--|
A---------------------------5h7-7-7--0------------------------------|
E-------------------------------------------------------------------|

G---------------------------------------------------7h9--|
D-5h7----7-7--7~-7-77-----------5h7----7-7-7~--7\9~------|
A---------------------5h7--5h7---------------------------|
E--------------------------------------------------------|

3rd Verse  (2:35)
G------X-------------X--9h11~--9------------X--11\13~---11-----9~----------|
D------X--9~---7-----X----------------------X----------------------11---9--|
A-7----X-------------X----------------7-----X------------------------------|
E------X-------------X----------------------X------------------------------|

G--------9------|
D-7-9\11---11/--|
A---------------|
E---------------|

(X3)
G---|--------------9h11~--9---------------12h13~--11---9~----------------9--
D---|---7h9~----7-------------11---9----------------------11---9~--7-9\11-11
A-7-|----------------------------------7------------------------------------
E---|-----------------------------------------------------------------------

2nd Pre-Chorus  (3:14)
G-------------------------------------------------------------------|
D------------------------------------2--2---------------------------|
A------------------------0-2----4---------4-2-----------------------|
E-0-------X-2----4---5--------------------------0-----2----4-----4--|

G-----------------------|
D-------------2-2~------|
A-0-2----4---------4-2--|
E-----------------------|

Outro-Chorus  (3:23)
G-------------------------------------9-----7~---7-------7-9--|
D--------2--------------------7-7-7-7---7-7----7---7-7-7------|
A------X-------------------7----------------------------------|
E-0--------0---0---4---7--------------------------------------|

G----0-9--------------------------9-----7~---7-------7-9--|
D-------------------------7-7-7-7---7-7----7---7-7-7------|
A-7-------7~----------7-----------------------------------|
E------------0--4--7--------------------------------------|

G------0-9--------------------------9-----7~---7------------|
D---------------------------7-7-7-7---7-7----7---7-7-7-7h9--|
A-7---------7~----------7-----------------------------------|
E--------------0--4--7--------------------------------------|

G------0-9--------------------------------------------------|
D-----------------------------------------------------------|
A-7---------7~----------7---------7-7--------5-------4------|
E--------------0--4--7------7-7-7-----5-5-3~---3-0-2---2-0--|

G---------------------------------9-----7~-7-8----9-----|
D-------------------------7-7-7-7---7-7---------X----9--|
A----7-7--------------7---------------------------------|
E-0-------0~-0--4--7------------------------------------|

(3:51)
G------------9~-------------------------------------------------|
D----------9--------6--9--8--7---------------0-5-6-7------------|
A-7-7-7-7~------7--------------7----4-5-6-7~---------0-4-5--77--|
E--------------------------------5------------------------------|

G-X-9-------------------------------------------------------|
D-----------------------------------------------------------|
A------7~------------------------------------4-4-5-5-6-6-7--|
E---------0---4---7---6--5-5-5-5-5-5-5-5-5-5----------------|

G-0-9--------------------------9---------7-------6------|
D----------------------7-7-7-7---7-7-0-5---5-X-4---4-2--|
A------7~----------7------------------------------------|
E---------0--4--7---------------------------------------|

G------------------------------------------------------------|
D-2--------------------------------------0-4-5-6-7~----------|
A------0------------------------4-5-6-7-------------0-4-5-7--|
E--------6h7--0~-0--1~-2--3\5-5------------------------------|

G-0-9-----12--9--7--------------------------------------0-9--|
D-------------------9---7-0---7------5--------5--------------|
A------7~-------------------4---4-5-----6--7-----X--7--------|
E------------------------------------------------------------|

G----------------------------------------------|
D----7-6------------------7------7-------5-----|  Fade Out
A-7~-----7--5--7--------4---4-5~---5-6-7----0--|
E-----------------5---X------------------------|
****************************************************************************

8.Moby Dick

First Riff: x4
G|-----7---7p5---------------------------------------------------------|
D|-------------7-3---5-3--5--3-----------------------------------------|
A|--5------------------------------------------------------------------|
E|---------------------------------------------------------------------|


Second Riff: x2

G|------------------------------------------------------|
D|-----5--5p3-------------------------------------------|
A|-------------5-1--3-1--3-1----------------------------|
E|--3---------------------------------------------------|


First Riff: x2
G|-----7---7p5---------------------------------------------------------|
D|-------------7-3---5-3--5--3-----------------------------------------|
A|--5------------------------------------------------------------------|
E|---------------------------------------------------------------------|
Third Riff:

G|---------------------------------------------7---5---------|
D|--7-----7p5---7--7-----5--7---5-5-5-5-5-3----------7-5--3--|
A|------------7-------7---------------------5----------------|
E|-----5-----------------------------------------------------|
Play once

Play riff one three more times, then end with a fifth on the A, like so:

                             x3
G|-----7---7p5----------------|-----------------------------------------|
D|-------------7-3---5-3--5--3|-----------------------------------------|
A|--5-------------------------|--5--------------------------------------|
E|----------------------------|-----------------------------------------|
Then it goes into:
                             x1
G|-----7---7p5----------------|-----------------------------------------|
D|-------------7-3---5-3--5--3|-----------------------------------------|
A|--5-------------------------|--5--------------------------------------|
E|----------------------------|-----------------------------------------|

And then:
                          x1
G|--------------------------|----------------------------|
D|-----5--5p3---------------|----------------------------|
A|-------------5-1--3-1--3-1|----------------------------|
E|--3-----------------------|--3-------------------------|

Then:

G|-----7---7p5----------------|-----------------------------|
D|-------------7-3---5-3--5--3|-----------------------------|
A|--5-------------------------|--5--------------------------|
E|----------------------------|----------2h3-3-3-4-4--------|

Then they change it up with this:

G|------------------------------|----------------7--5------|------|
D|-----7---7p5----7----7----5--7|-5-5-5-5-5-3---------7-5-3|------|
A|-------------7---------7------|-------------5------------|-5----|
E|--5---------------------------|--------------------------|------|

Then comes the famous drum solo, and you'll end with:

                             x1
G|-----7---7p5----------------|--------|
D|-------------7-3---5-3--5--3|--------|
A|--5-------------------------|--5-----|
E|----------------------------|--------|

                          x1
G|--------------------------|----------------------------|
D|-----5--5p3---------------|----------------------------|
A|-------------5-1--3-1--3-1|----------------------------|
E|--3-----------------------|--3-------------------------|

                               x1
G|------------------------------|----------------7--5------|------|
D|-----7---7p5----7----7----5--7|-5-5-5-5-5-3---------7-5-3|------|
A|-------------7---------7------|-------------5------------|-5----|
E|--5---------------------------|--------------------------|------|

And the last two bars are:
    h    h     w
G|--------|---------------|
D|--------|---------------|
A|--5----3|---------------|
E|--------|-----5---------|
****************************************************************************

9.Bring It On Home

When bass comes in at approx. 01:48

G|----------------|----------------|
D|-------9--7676--|-------9--767---|
A|--57----------7-|--57------------|
E|57--0-----------|57--0-----------| 3X

G| |----------------|----------------|----------------|----------------|
D|o|----------------|----------------|----------------|----------------|
A|o|--------------7-|7--7-7--77------|7--777--------7-|7--7-7-7-7-7----|
E| |0--0---4-5-7-9-9|----9--9----3-0-|-------4-5-7-9--|----9-------3-0-|
    Gotta tell you baby...            Tryin' to love me baby...
    Tell you pretty baby...           I'm gonna keep you lovin'...

G|----------------|----------------|----------------|----------------|
D|----------------|----------------|----------------|----------------|
A|7--777--------7-|7--7-7-7-7-7----|7--777-------7--|7--777-4-7------|
E|-------4-5-7-9--|----9-------3-0-|-------457-79--9|------------3-0-|

G|---------7-----9|----------------|-----------7---9|
D|-------79--9911-|----------------|---------79-911-|
A|7--777----------|7--75-----------|7--777-7--------|
E|----------------|-----7-5-4-43-0-|----------------|

G|----------------|-----------7---9|----------------|----------------|
D|----------------|---------79-911-|----------------|----------------|
A|7--777-5--------|7--777-7--------|7--777-5--------|7--77--7---775--|
E|---------7-53-0-|----------------|---------7-53-0-|--------------7-|

G|----------------|----------------|----------------|----------------|
D|-------9--767---|-------9--7676--|-------9--767---|-------9--7676--|
A|--57------------|--57----------7-|--57------------|--57----------7-|
E|57--0-----------|57--0-----------|57--0-----------|57--0-----------|
                                   __________________
                                   1.                |
G|----------------|----------------|---------------- |
D|-------9--767---|-------9-97676--|-------9-9767---o|
A|--57------------|--57----------7-|--57------------o|
E|57--0-----------|57--0-----------|57--0----------- |
 _________________
 2.
G|----------------|----------------|
D|-------9--767---|7---------------|
A|--57------------|----------------|
E|57--0-----------|----------------|

G|----------------|
D|----------------|
A|----------------|
E|----------------| 8X
comments
print report bad tab
1 comment total.
0 reply
Sp00nman94 wrote on December 25 2008, 12:33 am

this is great

I want to post or [tab]
guest
You may want to rate the tab now too:
select rating
Please do not post tabs as comments. Select "correction" instead!