Oops, an error
Loading. Please wait.

Led Zeppelin Iii Bass Tab

7,288 views 12 this week
1 commentread comment
1 2 3 4 5
excellent!
x 3
Autoscroll
+/-
esc
set tempo
stop
Contributor
Hey! There's an official Ultimate Guitar app which is ideal
for learning songs when you're away from computer. Get the app
WARNING: You are trying to view
                                    content from Ultimate-Guitar.com
                                    in an unauthorized application,
                                    which is prohibited.

                                    Please use an official Ultimate
                                    Guitar Tabs application for iPhone,
                                    iPad or Android to access legitimate
                                    chords, guitar, bass, and drum tabs
                                    from Ultimate-Guitar.com database.

                                    Type "ultimate guitar tabs" in Apple
                                    App Store's or Android Market's
                                    search to find the application.
1. Immigrant Song

-Intro-
G|----------------|      G|-------------------|
D|-----4-------4--|      D|-----4-------------|
A|----------------| (x7) A|-------------------|
E|-2-22-2--2-22-2-|      E|-2-22-2--2/55-5-00-|

-Verse-
G|-------------------------------------------------------------|
D|----------------------------------4-------4-------4-------4--|
A|-------------------------------------------------------------|
E|-0-00-00--0-00-00--0-000-00/5\2-22-2--2-22-2--2-22-2--2-22-2-|

G|----------------------------------------------------------|
D|-----4-------4--------4---------------4-------4--------4--|
A|----------------------------------------------------------|
E|-2-22-2--2-22-20--2-22-2--2-22X2--2-22-2--2-22-20--2-22-2-|

G|-----------------------------------------------------------------|
D|-----------------------------------------------------------------|
A|--------------------------------------4-------4-------4-------4--|
E|-2/55-5-00-00000--00000--000000/5\2-22-2--2-22-2--2-22-2--2-22-2-|

-Chorus-
G|--------------------------------------------------------------------|
D|----------------------67-----679--------7810-------7810-------78910-|
A|-------------------679----679-------7810-------7810-------7810------|
E|-555-555-555-555-79-----79-------810--------810--------810----------|

-Pre-Verse-
G|----------------|      G|-----------------|
D|-----4-------4--|      D|-----4-----------|
A|----------------| (x5) A|-----------------|
E|-2-22-2--2-22-2-|      E|-2-22-2--2/55-5\-|

-Verse-
-Chorus-
-3rd Verse-
G|--------------------| G|---------------|
D|-----4---------4----| D|---------------|
A|--------------------| A|-------------3-| (x3)
E|-2-22-2-0--2-22-2-0-| E|-2-22-2-2--22--|

G|------------------|       |---------------------|
D|-----4------------|       |---34--42--22--------|
A|-------------3034-| (x4)  |---------2---22-2234-|
E|-2-22-22--22------|       |-2-------------------|

-Guitar Solo-  (x4)
G|------------------------2------------------------------------------------|
D|-----4---4-2------4---24-2------4---444-----4-----42-----4-------4-------|
A|----------X-X--------------4---------------------------------------------|
E|-222--22------2-22-22-------2-22-2-2----2-22-22-22---2-22-22-2-22-220-2--|

G|----------------------------------|
D|--4---444424----44-4--------------|
A|-------------------------0--------|
E|22-22--------22------002---0--001-|

G|---2224444666-699-----------------------------------------------2-----|
D|-44-------------------4----4444234---4--------------4-4-4444424---2h4-|
A|----------------------------------------------------------------------|
E|------------------2-22-22---------2-----2--2222202--------------------|

G|--------------------|
D|-hhhh-2h4-4-4-44444-|
A|--------------------|
E|--------------------|

-Outro-
G|----------------------------------|
D|-----4-------4-------4------------|
A|----------------------------------|
E|-2-22-20-2-22-20-2-22-20-2/X/X/0\-|

G|------------------|      G|-----------|
D|-----4------------|      D|-----4-----|
A|------------------| (x3) A|-----------|
E|-2-22-2--2/X/X/0\-|      E|-2-22-2-22-|
****************************************************************************

2.Friends

"double swing" beat
G|----------------|----------------|----------------|----------------|
D|----------------|----------------|----------------|----------------|
A|----------------|----------------|----------------|-------------333|
E|----------------|----------------|----------------|----------------|

G|----------------|----------------|----------------|----------------|
D|----------------|----------------|----------------|----------------|
A|3-------------33|3-------------33|3-------------33|3-------------33|
E|----------------|----------------|----------------|----------------|

  11/8 time
G|----------------------|
D|----------------------|
A|3--6--5--8--7--10-9333|
E|----------------------|

  4/4 tme
G|----------------|----------------|----------------|----------------|
D|----------------|----------------|----------------|----------------|
A|3-------------33|3-------------33|3-------------33|3-------------33|
E|----------------|----------------|----------------|----------------|

  11/8 time
G|----------------------|
D|----------------------|
A|3--6--5--8--7--10-9333|
E|----------------------|

  4/4 time
G|----------------|----------------|----------------|----------------|
D|----------------|----------------|----------------|----------------|
A|3-----------10--|9-----------10--|12----------7---|9-----------4---|
E|----------------|----------------|----------------|----------------|

G|----------------|----------------|----------------|----------------|
D|----------------|----------------|----------------|----------------|
A|3-----------10--|9-----------10--|12----------7---|9-----------4---|
E|----------------|----------------|----------------|----------------|

G|----------------|----------------|----------------|----------------|
D|----------------|----------------|----------------|----------------|
A|3-----------10--|9-----------10--|12--14------7---|9------------333|
E|----------------|----------------|----------------|----------------|

G|----------------|----------------|----------------|----------------|
D|----------------|----------------|----------------|----------------|
A|3-------------33|3-------------33|3-------------33|3-------------33|
E|----------------|----------------|----------------|----------------|

11/8 time
G|----------------------|
D|----------------------|
A|3--6--5--8--7--10-9333|
E|----------------------|

  4/4 time
G|----------------|----------------|----------------|----------------|
D|----------------|----------------|----------------|----------------|
A|3-------------33|3-------------33|3-------------33|3-------------33|
E|----------------|----------------|----------------|----------------|

11/8 time
G|----------------------|
D|----------------------|
A|3--6--5--8--7--10-9333|
E|----------------------|

  4/4 time
G|----------------|----------------|----------------|----------------|
D|----------------|----------------|----------------|----------------|
A|3-----------10--|9-----------10--|12----------7---|9-----------4---|
E|----------------|----------------|----------------|----------------|

G|----------------|----------------|----------------|----------------|
D|----------------|----------------|----------------|----------------|
A|3-----------10--|9-----------10--|12----------7---|9-----------4---|
E|----------------|----------------|----------------|----------------|

G|----------------|----------------|----------------|----------------|
D|----------------|----------------|----------------|----------------|
A|3-----------10--|9-----------10--|12--14------7---|9------------333|
E|----------------|----------------|----------------|----------------|

G|----------------|----------------|----------------|----------------|
D|----------------|----------------|----------------|----------------|
A|3-------------33|3-------------33|3-------------33|3-------------33|
E|----------------|----------------|----------------|----------------|

11/8 time
G|----------------------|
D|----------------------|
A|3--6--5--8--7--10-9333|
E|----------------------|

  4/4 time
G|----------------|----------------|----------------|----------------|
D|----------------|----------------|----------------|----------------|
A|3-------------33|3-------------33|3-------------33|3-------------33|
E|----------------|----------------|----------------|----------------|

11/8 time
G|----------------------|
D|----------------------|
A|3--6--5--8--7--10-9333|
E|----------------------|

  4/4 time
G|----------------|----------------|----------------|----------------|
D|----------------|----------------|----------------|----------------|
A|3---------------|----------------|3---------------|----------------|
E|----------------|----------------|----------------|----------------|

G|----------------|----------------|----------------|----------------|
D|----------------|----------------|----------------|----------------|
A|3---------------|----------------|3---------------|----------------|
E|----------------|----------------|----------------|----------------|

G|----------------|----------------|----------------|----------------|
D|----------------|----------------|----------------|----------------|
A|3---------------|----------------|3---------------|----------------|
E|----------------|----------------|----------------|----------------|

G|----------------|----------------|----------------|----------------|
D|----------------|----------------|----------------|----------------|
A|3---------------|----------------|3---------------|----------------|
E|----------------|----------------|----------------|----------------|

G|----------------|----------------|----------------|----------------|
D|----------------|----------------|----------------|----------------|
A|3---------------|----------------|3---------------|----------------|
E|----------------|----------------|----------------|----------------|
****************************************************************************

3.Celebration Day

G|----------------|----------------|----------------|----------------|
D|----------------|----------------|----------------|----------------|
A|----------------|----------------|----------------|----------------|
E|--5-5-5---5-545-|--5-5-5---5---5-|--5-5-5---5-545-|--5-5-5--12-4-4-|

G|----------------|----------------|----------------|----------------|
D|----------------|----------------|----------------|----------------|
A|----------------|----------------|----------------|----------------|
E|--5-5-5---5-545-|--5-5-5---5-545-|--5-5-5---5-545-|--5-5-5--55-5-3-|

G|----------------|----------------|----------------|----------------||
D|----------------|----------------|----------------|----------------||
A|----------------|----------------|----------------|------------0012||
E|--5-5-5-------5-|--5-5-5---5-5-4-|--5-5-5---5-545-|--5-5-5--02-----||

G|----------------|----------------|----------------|----------223344|
D|--------2-3-4-5-|--5-5-----------|----------0-1-3-|--3-3-333-------|
A|3---3--3--------|-------02-23-31-|--1-1--11-------|----------------|
E|----------------|----------------|----------------|----------------|

G|5---5-0---------|----------------|----------------|----------------||
D|----------2-3-5-|--5-5--552------|-----------1-12-|33-3-3-322-2-2--||
A|--------3-------|----------52--1-|--1-1--11-5-----|----------------||
E|----------------|------------3---|----------------|---------------0||

G|----------------|----------------|----------------|----------------|
D|--------7-------|--------2-------|----------------|----------------|
A|0-0-0-0---0---0-|--0---0---0---0-|0-0---0---0---0-|--0-0-----0-300-|
E|----------------|----------------|-------------3--|-----33-3-------|

G|----------------|----------------|----------------|----------------|
D|----------------|----------------|----------------|----------------|
A|----------------|----------------|----------------|----------------|
E|--5-5-5---5-545-|--5-5-5---5---5-|--5-5-5---5-545-|--5-5-5--12-4-4-|

G|----------------|----------------|----------------|----------------|
D|----------------|----------------|----------------|----------------|
A|----------------|----------------|----------------|----------------|
E|--5-5-5---5-545-|--5-5-5---5-545-|--5-5-5---5-545-|--5-5-5--55-5-3-|

G|----------------|----------------|----------------|----------------||
D|----------------|----------------|----------------|----------------||
A|----------------|----------------|----------------|------------0012||
E|--5-5-5-------5-|--5-5-5---5-5-4-|--5-5-5---5-545-|--5-5-5--02-----||

G|----------------|----------------|----------------|----------223344|
D|--------2-3-4-5-|--5-5-----------|----------0-1-3-|--3-3-333-------|
A|3---3--3--------|-------02-23-31-|--1-1--11-------|----------------|
E|----------------|----------------|----------------|----------------|

G|5---5-0---------|----------------|----------------|----------------||
D|----------2-3-5-|--5-5--552------|-----------1-12-|33-3-3-322-2-2--||
A|--------3-------|----------52--1-|--1-1--11-5-----|----------------||
E|----------------|------------3---|----------------|---------------0||

  Guitar Solo
G|----------------|----------------|----------------|--------22223344|
D|----------------|----------0-2-3-|--3-------0-1-3-|--3-3-3---------|
A|3---3-----------|--2-2-3-3-------|----1---1-------|----------------|
E|--------0-1-2-3-|3---------------|----------------|----------------|

G|5---------------|----------------|----------------|----------------|
D|--5-------2-3-5-|--5-------------|------------0-1-|33-3-3-122-2-2--|
A|----3--33-------|----2--23-5-1-1-|--1-1---1-1-----|---------------0|
E|----------------|----------------|----------------|----------------|

G|----------------|----------------|----------------|----------------|
D|--------7-------|--------2-------|----------------|----------------|
A|0-0-0-0---0---0-|--0---0---0---0-|0-0---0---0---0-|--0-0-----0-300-|
E|----------------|----------------|-------------3--|-----33-3-------|

G|----------------|----------------|----------------|----------------|
D|----------------|----------------|----------------|----------------|
A|----------------|----------------|----------------|----------------|
E|--5-5-5---5-545-|--5-5-5---5---5-|--5-5-5---5-545-|--5-5-5--12-4-4-|

G|----------------|----------------|----------------|----------------|
D|----------------|----------------|----------------|----------------|
A|----------------|----------------|----------------|----------------|
E|--5-5-5---5-545-|--5-5-5---5-545-|--5-5-5---5-545-|--5-5-5--55-5-3-|

G|----------------|----------------|----------------|----------------||
D|----------------|----------------|----------------|----------------||
A|----------------|----------------|----------------|------------0012||
E|--5-5-5-------5-|--5-5-5---5-5-4-|--5-5-5---5-545-|--5-5-5--02-----||

G|----------------|----------------|----------------|----------------|
D|----------------|------------75--|----------------|----------------|
A|--0-0-0---0---0-|--0---0---0---7-|0-0---0---0---0-|--0-0-00003-0---|
E|----------------|----------------|-------------3--|-------------33-|

G|----------------|----------------|----------------|----------------|
D|----------------|----------------|--------7-------|------------0-02|
A|--0-0-0---0---0-|--0---0---0-0---|--0---0---0-30--|--0---0-004--0--|
E|----------------|--------------3-|--------------3-|----------------| Repeat and fade

****************************************************************************

4.Since I've Been Lovin You

Intro
Slowly Q.=44
                Cm
 12/8
  Gtr I
|-------------|---------------------|
|-------------|---------------------|
|-------------|---------10--------7-|
|-------------|------11------8-11---|

  Fm                        Cm
|-------------------------|------------------------------|
|-------------10------8-9-|-10---(10)--8-----------------|
|-8---(8)--11------11-----|--------------10---(10)-------|
|-------------------------|------------------------11-10-|

                      Fm
|-------------------|-----------------------|----------------------|
|-------------------|-----------------------|--------------------8-|
|---------------7---|-8----(8)---8----(8)---|-8----(8)---8----10---|
|-8---10---11-------|----------8----------8-|----------8-----------|

  Cm
|------------------------------|-----------------------|
|-10---(10)-8------------------|-----------------------|
|--------------10--10-10-10-10-|---------------------8-|
|------------------------------|-8------(8)---(8)-11---|

  Gm
|---------------------------------|
|---------------------------------|
|-10---(10)--10-10---10-10----10--|
|--------------------------10-----|

  Ab                  Fm
|--------------------------------|
|--------------------------------|
|-11--11-11-11--11-10-8---8--8-8-|
|--------------------------------|

  Cm/EbG7/D   Cm    Eb7    D7          Dbmaj7
|------------------------|----------------------------||
|------------------------|----------------------------||
|------------------------|----------------------------||
|-11---10--10-8-8-8-11---|-10--10-10---9-9-9-9-9-9-9--||

 1st Verse
  Cm                        Fm                    Cm
|-------------------------|---------------------|----------------------|
|--------------10---------|-----------------8-9-|-10-------------------|
|-----------------------7-|-8------(8)---11-----|----------------8-10--|
|-8---8--8-8------11-11---|---------------------|---------8---11-------|

                           Fm
|------------------------|------------------------|--------------------------|
|-10------(10)--8--------|---------10-------------|------------8-------------|
|------------------------|-8---(8)------8---------|-8---(8)-11---8---(8)--10-|
|-----------------8-8-11-|------------8-----8--11-|--------------------------|


  Cm
|-----------------|-----------------------------|
|-10--------------|-----------8-10---(10)--8----|
|---------10------|--------10----------------11-|
|-----------------|-8---11----------------------|

  Gm
|--------------------------------|
|--------------------------------|
|-10---(10)--10-10--10-10-10-10--|
|--------------------------------|

  Ab               Fm             Cm/EbG7/D Cm    Eb
|-------------------------------|----------------------|
|-------------------------------|----------------------|
|-11--11-11-11--10-8--8s10-8--8-|----------------------|
|-------------------------------|-11---10---8--10-11---|

  D7                         Dbmaj7
|---------------------------------------------||
|---------------------------------------------||
|---------------------------------------------||
|-10-10-10-10-10-10-10-10-10--9-9-9-9-9-9-9-9-||

  Cm                        Fm                          Cm
|-------------------------|---------------------------|--------------------|
|-----------7s8-10--------|--------8-10---------------|-10------(10)-------|
|--------10---------------|-8---11------8---(8)-10-11-|----------------10--|
|-8---11-------------8--8-|---------------------------|--------------------|

                         Fm
|----------------------|------------------------|
|----------------------|-------------------8h10-|
|----------------------|-8---(8)----8---11------|
|-8------(8)---(8)--11-|----------8-------------|

                         Cm
|----------------------|-------------------------------|
|----------------------|-10---8------------------------|
|-8------8---(8)-10-11-|--------11-10-10--8------------|
|----------------------|--------------------11-10-8-8--|

|-----------------------------------------------------|
|---------------------------9-8-9-10-10-10-9-8-10-----|
|-------------------------------------------------8-9-|
|-8-8-8-8-8-8-8-8-8-8-8-8-8---------------------------|

  Gm
|-----------------------------------|
|-----------------------------------|
|-10s8-(8)s10-10----8-10---(10)--10-|
|----------------10-----------------|

  Ab            Fm             Cm/EbG7/D Cm  Eb7
|----------------------------|--------------------|
|----------------------------|--------------------|
|-11---(11)--10-8--8s10-8--8-|--------------------|
|----------------------------|-11---10---8---11---|

  D7               Dbmaj7
|----------------------------------||
|----------------------------------||
|----------------------------------||
|-10-10-10-10-10---9-9-9-9-9-9-9---||

 Guitar Solo
  Cm                        Fm
|-------------------------|----------------------------|
|-------------10----------|------------10------------9-|
|--------9-10-------------|-8---(8)-11----8---(8)-11---|
|-8---11-----------8--8-8-|----------------------------|

  Cm
|------------------------------|
|-10---(10)--------------------|
|------------10------------10--|
|---------------8---(8)-11-----|

|---------------------------------|
|-10--10-10-10-10-10--------------|
|-------------------------------7-|
|--------------------8---(8)-11---|

  Fm
|----------------------------|---------------------------|
|----------------------------|---------------------------|
|-8-8-8-8-(8)---8-8-8-8------|-8-8-8-8------8-8-8-8-10---|
|-------------8---------8-11-|---------8-11--------------|

  Cm
|--------------------------------|---------------------------------|
|-10--10-10-10--8----------------|-10--10-10-10--10----------------|
|-----------------10------8-9-10-|---------------------------------|
|--------------------8-11--------|------------------8-8-8-11-11-11-|

  Gm
|-----------------------------------------------|
|-----------------------------------------------|
|-10--10-10--10-10-10-10-10-10-10-10-10-10-10---|
|-----------------------------------------------|

  Ab            Fm               Cm/Eb  G7/D   Cm   Eb7
|------------------------------|--------------------------------|
|------------------------------|--------------------------------|
|-11---(11)--10-8--8s10-8--8-8-|--------------------------------|
|------------------------------|-11--11-10--10-8--8-11-11-11-11-|

  D7                            Dbmaj7
|---------------------------------------------------||
|---------------------------------------------------||
|---------------------------------------------------||
|-10-10-10-10-10-10-10-10-10-10-9-9-9-9-9-9-9-9-9-9-||

 3rd Verse
  Cm             Fm               Cm
|--------------|----------------|--------------|
|--------------|----------------|--------------|
|-3------------|-9s8------------|--------------|
|--------------|----------------|-8------------|

  Eb
|------------------------------------|
|------------------------------------|
|------------------------------------|
|-11--11-11-11-11-11-11-11-11-11-11--|

    D                       Cm  G7/D Cm/Eb  Eb7
|-------------------------|-------------------------------|
|-------------------------|-------------------------------|
|-------------------------|-------------------------------|
|-9s10--10-10--10-10------|-8---10---11--11-11-11-(11)-11-|

  D7                            Dbmaj7
|----------------------------------------------------||
|----------------------------------------------------||
|----------------------------------------------------||
|-10-10-10-10-10-10-10-10-10-10-9-9-9-9-9-9-9-9-9-9--||

 4th Verse
  Cm                          Fm                            Cm
|---------------------------|-----------------------------|--------------|
|------10----7-----------10-|---------------------------8-|-10-----------|
|---------10---------10-----|-8--8-8-------8-------8-11---|--------------|
|-8--8---------8--11--------|---------8-11----8-11--------|---------8----|

  C7                    Fm
|---------------------|-----------------------------|----------------------|
|-----------8-10------|-----------------------------|----------------------|
|------7-10-----------|-10s8-(8)--(8)----8---(8)----|-8--8-8--8-8--8-8--8--|
|-8--8----------------|----------------8----------8-|----------------------|

  Cm                                              Gm
|---------------------|-----------------------|-----------------------------|
|---------------------|-----------------------|-----------------------------|
|---------8-9-10------|------------8---------8-|-10-----(10)-10-10-10-10-10-|
|-8--8-11-------------|-8--8-8--11---8-8-8-11---|---------------------------|

  Ab            Fm             Cm/EbG7/D Cm Eb7
|----------------------------|------------------------|
|----------------------------|------------------------|
|-11---(11)--10-8--8s10-8--8-|------------------------|
|----------------------------|-11---10---8--11-(11)---|

  D7                            Dbmaj7
|-----------------------------------------------------|
|-----------------------------------------------------|
|-----------------------------------------------------|
|-10-10-10-10-10-10-10-10-10-10-9-9-9-9-9-9-9-9-9-9---|

  Ab
|---------------------------------------------|
|---------------------------------------------|
|-11--11-11--11-11-11-11-11-11-11-11-11-11-11-|
|---------------------------------------------|

  Fm
|------------------------------------------|
|------------------------------------------|
|-8-8-8-8-8-8-8-8-8-8-8-8-8-8-8-8-8-8-8-8--|
|------------------------------------------|

  Cm/EbG7/D Cm  Eb7    D7                 Dbmaj7
|--------------------|------------------------------------|
|--------------------|------------------------------------|
|--------------------|------------------------------------|
|-11---10---8---11---|-10-10-10-10-10--10-9-9-9-9-9--(9)\-|

  Cm
|--------------|--------*|
|--------------|--------*|
|--------------|--------*|
|-8------------|-(8)----*|
****************************************************************************

5. Out On The Tiles

Intro
G---------------------------------------------------------------------|
D---------------------------------------------------------------------|
A---------------------------------------------------------------------|
E--3--3--3--3--3--3--3--3--2--2--2--2--2--2--2--2--5P-3--5P-3--5P-3---|

Verse                                               (x2)
G----------------------------------------------------|
D-------------4--1-2-1-2-1-2-1-2---------------------|
A-----1---4-----------------------4-2-0-2-0-2-3-2-0--|
E--2-------------------------------------------------|

G-------------------------------------------------------------------------|
D-----------4-1-2-1-2-1-2-1-2---------------------------------------------|
A---1--4---------------------4-2-4-2-4-2-3-2-0----------------------------|
E-2---------------------------------------------4-5-4-5-4-5-4-5--2-0-2-0-2|

Chorus
G---------------------------------------------------------|
D-------------1--2-2--2-2--2-2--2-2-x---------------------|
A--------------------------------------0-----0--4--2------|
E--5-5--5-5------------------------------------------4----|

G------------------------------------------------------------------------|
D-----------1--2-2--2-2--2-2--2-2-x--------------------------------------|
A------------------------------------0-0--4--2---------------------------|
E-5-5--5-5-------------------------------------4--5p-3--5p-3--5p-3--5p-3-|

Outro
G----------------------------------------------------------------------|
D---------5------------5------------5-----------7---5------------------|
A-----7------------7------------7--------------------------------------|
E-0-----------0-0-----------0-----------0-0----------------------------|

****************************************************************************

6. Gallows Pole

G|------------------------------|
D|------------------------------|
A|------------------------------|
E|3-5-3-5-5-5-5-5-3-5-3-5-5-5-5-|

Verse:
G|-2---0---2-4---------0--2--0-----0-40-2--0--2-4--------|---------------|
D|-------------0---2-4---------2-4----------------0--2-4-|5-42-----------|
A|-------------------------------------------------------|----5320-------|
E|-------------------------------------------------------|--------3-5-3-5|

G|----------------|----------------|----------------|----------------|
D|----------------|----------------|----------------|5-42------------|
A|----------------|----------------|----------------|----5320--------|
E|3-5-3-5-5-5-5-5-|3-5-3-5-5-5-5-5-|5-5-5-5-5-5-5-5-|--------3-5-3-5-|

Ending:
G|----------------|
D|5-42------------|
A|----5320--------|
E|--------3-5-3-5-| x34
****************************************************************************

7.Tangerine

G|--------------------------------|--------------------------------|
D|--------------------------------|------------------------0-------|
A|--------------------------------|--------------------------------|
E|--------------------------------|--------------------------------|


G|0---------------0---0---0-------|--------------------------------|
D|----------------------------0---|------------------------0-------|
A|--------------------------------|3---------------3---------------|
E|--------------------------------|----------------8---------------|


G|0-----------7---0---------------|--------------------------------|
D|--------------------0---0-------|------------------------0-------|
A|----------------------------3---|3---------------3---------------|
E|--------------------------------|--------------------------------|

G|--------------------------------|--------------------------------|
D|--------------------0---0-------|------------------------0-------|
A|----------------------------3---|3---------------3---------------|
E|-3--------------3---------------|--------------------------------|


G|0-------------------0-------0---|--------------------------------|
D|--------------------------------|----0-----------0---------------|
A|--------------------------------|------------0---------------0---|
E|--------------------------------|--------------------------------|


G|--------------------------------|--------------------------------|
D|0-------------------------------|--------------------------------|
A|--------------------------------|--------------------------------|
E|--------------------------------|--------------------------------|


G|--------------------------------|--------------------------------|
D|--------------------------------|--------------------------------|
A|0-------------0-3---3-2-----0---|--------------------------------|
E|--------------------------------|3-------------------3-------3---|


G|--------------------------------|--------------------------------|
D|0-------0-----------0-----------|--------------------------------|
A|--------------------------------|--------------------------------|
E|----------------------------3---|1-------1-----------1---3---1---|


G|--------------------------------|--------------------------------|
D|----------------3---2-0-----2---|--------------------------------|
A|--------------3-----------------|----2-------------------------0-|
E|0---0---0---1-------------------|--------0-----0-1-----------3---|


G|--------------------------------|--------------------------------|
D|--------------------------------|----0---0-------0---0---0-------|
A|3---3---3-----------------------|------------0---------------0---|
E|------------3---3---3---3---3---|3-------------------------------|


G|--------------------------------|0-------0-------0---------------|
D|0-----------------------0-------|--------------------0---0-------|
A|----------------3---------------|----------------------------3---|
E|--------------------------------|--------------------------------|


G|--------------------------------|0-------0-------0---------------|
D|--------------------0---0-------|--------------------0---0-------|
A|3-----------3---3---------------|----------------------------3---|
E|--------------------------------|--------------------------------|


G|--------------------------------|0-------0-------0---------------|
D|------------------------0-------|--------------------0---0-------|
A|3---------------3---------------|----------------------------3---|
E|--------------------------------|--------------------------------|


G|--------------------------------|--------------------------------|
D|------------------------0-------|--------------------------------|
A|3---------------3---------------|--------------------------------|
E|--------------------------------|3-----------3---3---3-------3---|


G|--------------------------------|--------------------------------|
D|----0-------0---0-------0-------|0-------------------------------|
A|--------------------------3-0---|--------------------------------|
E|3-------------------------------|--------------------------------|


G|--------------------------------|--------------------------------|
D|0-------0-------0---0-----------|0-------0-----------0-------0---|
A|--------------------------------|--------------------------------|
E|--------------------------------|--------------------------------|


G|--------------------------------|--------------------------------|
D|0-------0-----------0-----------|0-------0-----------------------|
A|--------------------------0-0---|--------------------3-----2-2---|
E|--------------------------------|--------------------------------|


G|--------------------------------|------------------------0-2-----|
D|0-------0-----------0-----------|0-------0-----------0-----------|
A|--------------------------------|--------------------------------|
E|--------------------------------|--------------------------------|
****************************************************************************

8. Thats the way

     D
        x x 0 x

Gtr I (E A D G) - 'John Paul Jones Bass'
Gtr II (E A D G B E) - 'Appalachian Dulcimer'

 Intro
  Q=92
  (G)
 4/4
  Gtr II
  Wx99
|---------|
|---------|
|---------|
|---------|
|---------|
|---------|


  H    Q  E. S   E E S S E S S E S S E   S S E S S E S S E S S S S
|--------------|-----------------------|----------------------------|
|--------------|-----------------------|----------------------------|
|--------------|-2-2-----2-----2-----2-|-----2-----2-----2----------|
|------------0-|-0-0-0-0-0-0-0-0-0-0-0-|-0-0-0-0-0-0-0-0-0----------|
|--------------|-----------------------|-------------------3-3-4-4--|
|--------------|-----------------------|----------------------------|


  S S E S S E S S E E E   E E S S E S S S S S S S S   Q  Q  H
|-----------------------|---------------------------|------------|
|-----------------------|---------------------------|------------|
|-----------------------|---2-----2-----------------|------------|
|-0-0-0-0-0-0-0-0-0-----|-0---0-0---0-0-0-0-0-0-0-0-|-0----------|
|-------------------3-4-|---------------------------|------------|
|-----------------------|---------------------------|------------|


  Wx3
|--------|
|--------|
|--------|
|--------|
|--------|
|--------|

 Second Phrase
  Q=100
  Wx5
|--------|
|--------|
|--------|
|--------|
|--------|
|--------|

  Gtr I
  W          W          Q    Q    Q    Q
|----------|----------|-------------------|
|----------|----------|-------------------|
|----------|----------|-----------2----3--|
|----------|----------|-3----5------------|
|
| Gtr II
| W          W          E. S E. S E. S Q
|----------|----------|-------------------|
|----------|----------|-------------------|
|----------|----------|-------------------|
|----------|----------|---------0-0--2-2--|
|----------|----------|-2--3-3------------|
|----------|----------|-------------------|


  Q    E E  E  Q       E   E E E S S +E  Q       E   E E E S S  E  Q       E
|------------------------|-------------------------|-------------------------|
|------x-----------------|-----5-------------------|-----5-------------------|
|-5------5-----5-------0-|-3-7---3s5-(5)-----------|-3-7---3s5--5------------|
|------------------------|---------------3-------3-|---------------3-------3-|
|
| E. S E E +E  E +S  S E   E E E E   +E  E +S  S E   E E E E   +E  E +S  S E
|------------------------|-------------------------|-------------------------|
|------------------------|-------------------------|-------------------------|
|------------------------|-------------------------|-------------------------|
|-4--4-4-4-(4)-4-(4)-4-4-|-5-7-9-4---(4)-5-(5)-5-5-|-5-7-9-4---(4)-5-(5)-5-5-|
|------------------------|-------------------------|-------------------------|
|------------------------|-------------------------|-------------------------|


  E E E S S +E  Q       E   Q     E E  E  E E E   Q  E E E E E  E
|-------------------------|---------------------|-------------------|
|-----5-------------------|---------------------|-------------------|
|-3-7---3s5-(5)-----------|-5-----5-5--5--5-5-3-|-5--5-5-5-5-5--3---|
|---------------3-------3-|---------------------|-------------------|
|
| E E E E   +E  E +S  S E   E S S E E +E  E E E   Q  Q   Q   E.   S
|-------------------------|---------------------|-------------------|
|-------------------------|---------------------|-------------------|
|-------------------------|---------------------|-------------------|
|-5-7-9-4---(4)-5-(5)-5-5-|-4-4-4-4-4-(4)-4-4-4-|-4--4---4---4------|
|-------------------------|---------------------|-----------------2-|
|-------------------------|---------------------|-------------------|


  Q    Q    Q    Q      Q     E E E Q       E   E E E S S +E  Q       E
|---------------------|-----------------------|-------------------------|
|---------------------|-------x---------------|-----5-------------------|
|-----------2----3----|-5-------5---5-------0-|-3-7---3S5-(5)-----------|
|-3----5--------------|-----------------------|---------------3-------3-|
|
| E. S E. S E. S E. S   E S S E E E E +S  S E   E E E E   +E  E +S  S E
|---------------------|-----------------------|-------------------------|
|---------------------|-----------------------|-------------------------|
|---------------------|-----------------------|-------------------------|
|---------0-0--2-2--4-|-4-4-4-4-4-4-4-(4)-4-4-|-5-7-9-4---(4)-5-(5)-5-5-|
|-2--3-3--------------|-----------------------|-------------------------|
|---------------------|-----------------------|-------------------------|


  E E E S S +E  Q       E   E E E S S +E  Q       E   Q     E E  E  E Q
|-------------------------|-------------------------|---------------------|
|-----5-------------------|-----5-------------------|---------------------|
|-3-7---3s5-(5)-----------|-3-7---3s5-(5)-----------|-5-----5-5--5--5-5---|
|---------------3-------3-|---------------3-------3-|---------------------|
|
|                                                             TP TP TP  TP
| E E E E   +E  E +S  S E   E E E E   +E  E +S  S E   E S S E E +E  Q   E
|-------------------------|-------------------------|---------------------|
|-------------------------|-------------------------|---------------------|
|-------------------------|-------------------------|---------2-(2)-5---2-|
|-5-7-9-4---(4)-5-(5)-5-5-|-5-7-9-4---(4)-5-(5)-5-5-|-4-4-4-4-------------|
|-------------------------|-------------------------|---------------------|
|-------------------------|-------------------------|---------------------|


                                 Outro
      |-3-|
  S S e   S E S S E. S a E  e     Q    Q    Q    Q      Q     E E E E  E    E
|-------------------------------|---------------------|------------------------|
|-----7-----7---------------7---|---------------------|------------------------|
|-7s9-----9---9s7-5--5-7s9------|-----------2----3----|-5-----5-5-5-5--5----5--|
|-------------------------------|-3----5--------------|------------------------|
|
| E   S S   Q     Q      E.   S   E. S E. S E. S E. S   E S S E E E E +S  S E
|-------------------------------|---------------------|------------------------|
|-------------------------------|---------------------|------------------------|
|-------------------------------|---------------------|------------------------|
|-4---4-4---4-------------------|---------0-0--2-2--4-|-4-4-4-4-4-4-4-(4)-4-4--|
|-----------------------------2-|-2--3-3--------------|------------------------|
|-------------------------------|---------------------|------------------------|


  E E E S S +E  Q       E   E E E S S +E  Q       E   E E E S S +E  Q       E
|-------------------------|-------------------------|--------------------------|
|-----5-------------------|-----5-------------------|-----5--------------------|
|-3-7---3s5-(5)-----------|-3-7---3s5-(5)-----------|-3-7---3s5-(5)------------|
|---------------3-------3-|---------------3-------3-|---------------3-------3--|
|
| E E E E   +E  E +S  S E   E E E E   +E  E +S  S E   E E E E   +E  E +S  S E
|-------------------------|-------------------------|--------------------------|
|-------------------------|-------------------------|--------------------------|
|-------------------------|-------------------------|--------------------------|
|-5-7-9-4---(4)-5-(5)-5-5-|-5-7-9-4---(4)-5-(5)-5-5-|-5-7-9-4---(4)-5-(5)-5-5--|
|-------------------------|-------------------------|--------------------------|
|-------------------------|-------------------------|--------------------------|


  Q     E S S a  S  E   S E e     a  S  E   S E e a  E E E e   Q  Q  Q  Q
|-------------------------------|-------7-----7-7-9s11-9-7-9-|-------------*|
|-------------------7-----7-7---|-7s=9------9----------------|-------------*|
|-5-----5-5-5-7s=9------9-------|----------------------------|-------2--3--*|
|-------------------------------|----------------------------|-3--5--------*|
|
|         TP     TP   TP      TP     TP   TP    TP   TP  TPTP
| E S S E E     +E    Q     S S     +E    Q     E    Q   E E   H     Q  Q
|-------------------------------|----------------------------|-------------*|
|-------------------------------|----------------------------|-------------*|
|---------------------5-------4-|---(4)---2-----0----2---2---|-0-----0--2--*|
|-4-4-4-4-7-----(7)-------------|--------------------------4-|-------------*|
|-------------------------------|----------------------------|-------------*|
|-------------------------------|----------------------------|-------------*|
****************************************************************************

9.Bron-Y-Aur Stomp

Verses
|5-------------3-|4-5----5-----3--|4-5----5-----3--|
|------------5---|------5-----5---|------5-----5---|
|----------------|----------------|----------------|
|----------------|----------------|----------------|


|4/5-5---5---3---|----------------|----------------|
|------5-------3-|5------------3/4/5--------------4|
|----------------|----------------|----------------|
|----------------|----------------|----------------|


Chorus
4/4		 9/8		    4/4
|2--------------2/5-----------------|----------------|
|----------------|------------5/8/10|5-----5---5-8/10|
|----------------|------------------|----5-----------|
|----------------|------------------|----------------|


7/8	       4/4		9/8
|--------------|----------------|------------------|
|5-----5---5---|7-----7-7-7-7-7/|10----------5-8/10|
|----5-------8-|----------------|------------------|
|--------------|----------------|------------------|


4/4		 7/8
|----------------|--------------|
|5-----5---5-8/10|5-----5-4---4-|
|----5-----------|----5----535-5|
|----------------|--------------|


4/4
|----------------|----------------|
|5---------------|5---------------|
|----------------|----------------|
|----------------|----------------|


Chorus (My My...)

<6 Bar Rest>

4/4		 9/8		    4/4
|----------------|--------5---------|----------------|
|----------------|-----57-----5-8/10|5-----5---5-8/10|
|----------------|3--57-------------|----5-----------|
|5-5--5--5--5--5-|------------------|----------------|


7/8	       4/4		9/8
|--------------|----------------|--------5---------|
|5-----5---5-3-|7-7---7-5-2-----|-----57-----5-8/10|
|----5---------|------------3-5-|3--57-------------|
|--------------|----------------|------------------|


4/4		 7/8
|----------------|--------------|
|5-----5---5-8/10|5-----5-------|
|----5-----------|----5-----5---|
|----------------|--------------|


4/4
|----------------|----------------|
|----------------|----------------|
|----------------|----------------|
|3---------------|----------------|
comments
We did not receive enough feedback on this tab! Please rate:
print report bad tab
1 2 3 4 5
1 comment total.
0 reply
frenchabortion wrote on December 3 2008, 01:44 am

FUK SHOULD BE AS ALBUM

I want to post or [tab]
guest
You may want to rate the tab now too:
select rating
Please do not post tabs as comments. Select "correction" instead!