Oops, an error
Loading. Please wait.

Led Zeppelin Iv Bass Tab

10,576 views 3 this week
no commentswrite comment
1 2 3 4 5
excellent!
x 2
Autoscroll
+/-
esc
set tempo
stop
Contributor
Hey! There's an official Ultimate Guitar app which is ideal
for learning songs when you're away from computer. Get the app
WARNING: You are trying to view
                                    content from Ultimate-Guitar.com
                                    in an unauthorized application,
                                    which is prohibited.

                                    Please use an official Ultimate
                                    Guitar Tabs application for iPhone,
                                    iPad or Android to access legitimate
                                    chords, guitar, bass, and drum tabs
                                    from Ultimate-Guitar.com database.

                                    Type "ultimate guitar tabs" in Apple
                                    App Store's or Android Market's
                                    search to find the application.
1. Black Dog

Verse riff:
G||--------------|--------5-----7--9--|--5--7--5--------5-----|
D||*-------5--6--|--7--------7--------|-----------7--7-----7--|
A||*----7--------|-----7--------------|-----------------------|
E||--------------|--------------------|-----------------------|

------------------------------|
--5--7--7--------------------*|
-----------5--7--3--5--------*|
-----------------------5--5---|

Long verse end riff:
|---------------|--------------------|
|---------------|--------5-----------|
|---------5--6--|--7--------7-----5--|
|--5---7--------|-----7--------7-----|

--------------------|--------------------|--------------------------|
-----------5--------|--------------5-----|--------------------5--6--|
--6--7--------7-----|--5--6--7--------7--|-----5--6--7--5--7--------|
--------7--------7--|-----------7--------|--7-----------------------|


--------5-----7--9--|--5--7--5--------5-----|--------------------|-----------|
--7--------7--------|-----------7--7-----7--|--5--7--7-----------|-----------|
-----7--------------|-----------------------|-----------5--7--3--|--5--------|
--------------------|-----------------------|--------------------|-----5--5--|

There are 3 verses, then the first Chorus

Chorus (Type 1)This a condensed form, notes are longer, so listen for the rhythm.

|-----------------------|------------------||
|*----------------------|-----------------*||
|*----------------------|--3--------------*||
|---5----5----5----5----|-------5----5-----||

Verses 4 and 5

Bridge (let A ring  for duration)


Interlude (2nd type of chorus, as the book calls it)
-------------------------------|----------------------||
-------------------------------|----------------------||
--------------------x--3-------|--------------7----5--||
--5--3--5--3/-5--3----------3/-|--5--3--5--3/---------||

Verses 6,7 and 8

End with long verse riff
|---------------|--------------------|
|---------------|--------5-----------|
|---------5--6--|--7--------7-----5--|
|--5---7--------|-----7--------7-----|

--------------------|--------------------|--------------------------|
-----------5--------|--------------5-----|--------------------5--6--|
--6--7--------7-----|--5--6--7--------7--|-----5--6--7--5--7--------|
--------7--------7--|-----------7--------|--7-----------------------|


--------5-----7--9--|--5--7--5--------5-----|--------------------|-----------|
--7--------7--------|-----------7--7-----7--|--5--7--7-----------|-----------|
-----7--------------|-----------------------|-----------5--7--3--|--5--------|
--------------------|-----------------------|--------------------|-----5--5--|

Chorus (Type 1)(Alternate ending, Replaces the last bar after repeat)

----------------------|
----------------------|
5----4----3-----------|
---------------5------|

Verses 9 and 10

Bridge (let A ring  for duration)

Interlude or Chorus 3/Guitar Solo. (again, I don't know why they numbered it this way)

-------------------------------|----------------------||
-------------------------------|----------------------||
--------------------x--3-------|--------------7----5--||
--5--3--5--3\-5--3----------3\-|--5--3--5--3\---------||

Repeat until end with some variations on dead notes and slides etc.

Fade out.
****************************************************************************

2.Rock and Roll

          Intro 4 Meas.               Q               e e  e  e  e
-------------------------------|------r--||--||-------------------------|
---4:--------------------------|--3:--e--||--||*--4:--------------------|
---4:--------------------------|--8:--s--||--||*--4:--------------------|
-------------------------------|------t--||--||-------3h5--5--5--5------|


e  e  e   4x  e e  e  e  e  e  e  e     e  e  e  e  e  e  e  e     e
----------||-------------------------|--------------------------|-------|
---------*||-------------------------|--------------------------|-------|
---------*||--3h5--5--5--5--5--5--5--|--5--5--5--5--5--5--5--5--|-------|
5--5--5---||-------------------------|--------------------------|--3----|


e  e  e  e  e  e  e     e  e  e  e  e  e  e  e     e e  e  e  e  e
----------------------|--------------------------|----------------------|
----------------------|--------------------------|----------------------|
----------------------|--------------------------|--5h7--7--7--7--7-----|
h5--5--5--5--5--5--5--|--5--5--5--5--5--5--5--5--|----------------------|


e  e     e e  e  e  e  e  e  e     e e  e  e  e  e  e  e     e  e  e
------|-------------------------|-------------------------|-------------|
------|-------------------------|-------------------------|-------------|
7--7--|--5h7--7--7--7--7--7--7--|-------------------------|-------------|
------|-------------------------|--3h5--5--5--5--5--5--5--|--5--5--5----|


e  e  e  e  e
---------------||-------------------------------------------------------|
---------------||-------------------------------------------------------|
---------------||-------------------------------------------------------|
5--5--5--0--3--||-------------------------------------------------------|


1st and 3rd Verse  e  e  e   3x  e  e  e  e  e  e  e  e       e e  e
||---------------------------||--------------------------||-------------|
||*-------------------------*||--------------------------||*------------|
||*-------------------------*||--------------------------||*------------|
||---3h5--5--5--5--5--5--5---||--3--5--5--3--5--5--3--3--||---3h5--5----|


e  e  e  e  e   3x  e  e  e  e  e  e  e  e       e e  e  e  e  e  e
----------------||--------------------------||--------------------------|
---------------*||--------------------------||*-------------------------|
---------------*||--------------------------||*--3h5--5--5--5--5--5-----|
5--5--5--5--5---||--3--5--5--3--5--5--3--3--||--------------------------|


e   3x  e  e  e  e  e  e  e  e       e e  e  e  e  e  e  e   3x  e
----||--------------------------||---------------------------||---------|
---*||--------------------------||*-------------------------*||---------|
5--*||--3--5--5--3--5--5--3--5--||*-------------------------*||---------|
----||--------------------------||---3h5--5--5--5--5--5--5---||--3------|


e  e  e  e  e  e  e     E E  E  E  E  E  E  E     e e  e  e  e  e  e
---------------------|-------------------------|------------------------|
---------------------|-------------------------|------------------------|
---------------------|--5h7--7--7--7--7--7--7--|--5h7--7--7--7--7--6----|
5--5--3--5--5--3--3--|-------------------------|------------------------|


e     q  H                                 2nd Verse  e  e  e  e
---|-----r--||----------------------------------------------------|-----|
---|-----e--||----------------------------------------------------|-----|
6--|--5--s--||----------------------------------------------------|-----|
---|-----t--||-----------------------------3h5--5--5--5--5--5--5--|-----|


e  e  e  e  e  e  e  e     e  e  e  e  e  e  e  e     e  e  e  e  e
------------------------|--------------------------|--------------------|
------------------------|--------------------------|--------------------|
------------------------|--------------------------|--------------------|
5--5--5--5--5--5--5--5--|--5--5--5--5--5--5--5--5--|--5--5--3--3--2-----|


e  e  e       e e  e  e  e  e  e  e   7x  e  q  e  q  q       e e  e
---------||---------------------------||-----------------||-------------|
---------||*-------------------------*||-----------------||*------------|
---------||*-------------------------*||-----------------||*--3h5--5----|
2--0--0--||---3h5--5--5--5--5--5--5---||--3--5--3--5--3--||-------------|


e  e  e  e  e   3x  e  q  e  q  q       e e  e  e  e  e  e  e   3x
----------------||-----------------||---------------------------||------|
---------------*||-----------------||*-------------------------*||------|
5--5--5--5--5--*||--3--5--3--5--3--||*-------------------------*||------|
----------------||-----------------||---3h5--5--5--5--5--5--5---||------|


e  q  e  q  q     e e  e  e  e  e  e  e     e e  e  e  e  e  e  e
---------------|-------------------------|-------------------------|----|
---------------|-------------------------|-------------------------|----|
---------------|--5h7--7--7--7--7--7--7--|--5h7--7--7--7-----------|----|
3--5--3--5--3--|-------------------------|----------------7--5--0--|----|

q  H     e e  e  e  e  e  e  e     e e  e  e  e  e  e  e     e  e  e
---r--|-------------------------|-------------------------|-------------|
---e--|-------------------------|-------------------------|-------------|
5--s--|-------------------------|-------------------------|-------------|
---t--|--3h5--5--5--5--5--5--5--|--3h5--5--5--5--0--3--4--|--5--5--5----|


e  e  e  e  e     e  e  e  q  e  q     e e  e  e  e  e  e  e     e
---------------|--------------------|-------------------------|---------|
---------------|--------------------|-------------------------|---------|
------4--4--5--|--5--6--6--7--------|-------------------------|---------|
5--5-----------|--------------7--0--|--3h5--5--5--3--3--2--0--|--3------|


e  e  e  e  e  e  e     e e  e  e  e  e  e  e     e e  e  e  e  e
----------------------|-------------------------|-----------------------|
----------------------|-------------------------|-----------------------|
----------------------|-------------------------|-----------------------|
h5--5--5--5--0--3--4--|--3h5--5--5--3--3--2--0--|--3h5--5--5--5--5------|


e  e     e e  e  e  e  e  e  e     e e  e  e  e  e  e  e     e e  e
------|-------------------------|-------------------------|-------------|
------|-------------------------|-------------------------|-------------|
------|--3h5--5--5--5--5--5--5--|--3h5--5--5--5--5--5--5--|-------------|
5--5--|-------------------------|-------------------------|--3h5--5-----|


e  e  e  e  e     e  e  e  e  e  e  e  e     e  e  e  e  e  e  e  e
---------------|--------------------------|-----------------------------|
---------------|--------------------------|-----------------------------|
---------------|--------------------5--6--|--7--7--7--7--7--7--7--7-----|
5--5--5--5--5--|--5--5--5--5--5--5--------|-----------------------------|


   q  q  e  e  e  e     e e  e  e  e  e  e  e     e  q  q  e  e  e
|--------------------|-------------------------|------------------------|
|--------------------|-------------------------|--5---------------------|
|--5--5--5-----------|-------------------------|-----8--7--5------------|
|-----------0--3--4--|--3h5--5--5--5--5--5--5--|--------------8--0------|

||----------------------------------------------------------------------|
||----------------------------------------------------------------------|
||----------------------------------------------------------------------|
||----------------------------------------------------------------------|


      Guitar Solo e  e  e  e     e e  e  e  e  e  e  e     e e  e  e
------------------------------|-------------------------|----------------|
------------------------------|-------------------------|----------------|
------------------------------|-------------------------|----------------|
------3h5--5--5---5--0--3--3--|--3h5--5--5--5--5--5--5--|--3h5--5--5-----|


e e  e  e     e  q  e  q  e  e       e e  e  e  e  e  e  e   3x  e
-----------|--------------------||---------------------------||---------|
-----------|--------------------||*-------------------------*||---------|
-----------|--------------------||*-------------------------*||---------|
3h5--5--5--|--3--2--3--5--3--3--||---3h5--5--5--5--5--5--5---||--3------|


q  e  q  q       e e  e  e  e  e  e  e   3x  e  q  e  q  q       e
------------||---------------------------||-----------------||----------|
------------||*-------------------------*||-----------------||*---------|
------------||*--3h5--5--5--5--5--5--5--*||--3--5--3--5--3--||*---------|
5--3--5--3--||---------------------------||-----------------||---3------|


e  e  e  e  e  e  e   3x  e  q  e  q  q     e e  e  e  e  e  e  e
-----------------------||-----------------|-----------------------------|
----------------------*||-----------------|-----------------------------|
----------------------*||-----------------|--5h7--7--7--7--7--7--7------|
h5--5--5--5--5--5--5---||--3--5--3--5--3--|-----------------------------|


   e  e  e  e  e  e  e  e     q  H     w     e e  e  e  e  e  e  e
|--------------------------|-----r--|--r--|-----------------------------|
|--------------------------|-----e--|--e--|-----------------------------|
|--7-----7-----7-----7--6--|--5--s--|--s--|-----------------------------|
|-----7-----7-----7--------|-----t--|--t--|--3h5--5--5--5--5--5--5------|


   e  e  e  e  e  e  e  e     e e  e  e  e  e  e  e     e  e  e  e
|--------------------------|-------------------------|------------------|
|--------------------------|-------------------------|------------------|
|--------------------------|-------------------------|------------------|
|--5--5--5--3--2--2--1--0--|--3h5--5--5--5--5--5--5--|--2--0--3--0------|


e  e  e  e
------------||----------------------------------------------------------|
------------||----------------------------------------------------------|
------------||----------------------------------------------------------|
0--0--2--3--||----------------------------------------------------------|


   Outro   e  e  e  e  e  e  e   2x  e  e  e  e  e  e  e  e     e  e
---||----------------------------||--------------------------|----------|
---||*--------------------------*||--------------------------|----------|
---||*--------------------------*||--------4--4--5--5--6--6--|--7--7----|
---||---5--5--5--5--5--5--5--5---||--5--5--------------------|----------|


e  e  e  e  e  e       e e  e  e  e  e  e  e   6x  e e  e  e  e  e
------------------||---------------------------||-----------------------|
------5--5--6--7--||*-------------------------*||-----------------------|
8--8--------------||*-------------------------*||-----------------------|
------------------||---3h5--5--5--5--5--5--5---||--3h5--5--5--5--5------|


e  e     e  e  e  e  e  e  e  e       e e  e  e  e  e  e  e   3x  e
------|--------------------------||---------------------------||--------|
------|--------------------------||*-------------------------*||--------|
------|--------------------4--4--||*--3h5--5--5--5--5--5--5--*||--5-----|
6--6--|--7--7--7--8--8--8--------||---------------------------||--------|


e  e  e  e  e  e  e     e  e  e  e  e  e  e  e     ee  e  e  e  e  e
---------------------|--------------------------|-----------------------|
---------------------|--------------------------|-----------------------|
5--5--5--5--5--------|--------------------------|-----------------------|
---------------0--0--|--5--5--5--3--2--2--3--4--|--h5--5--5--5--5--5----|


e     e e  e  e  e  e  e  e     e e  e  e  e  e  e  e     e e  e  e
---|-------------------------|-------------------------|----------------|
---|-------------------------|-------------------------|----------------|
---|-------------------------|-------------------------|----------------|
0--|--3h5--5--5--5--5--5--0--|--3h5--5--5--5--5--5--5--|--3h5--5--5-----|


e  e  e  e     e  e  e  e  e  e  e  e  e  e  e  e  e  e  e  e     q
------------|--------------------------------------------------|--------|
------------|--------------------6--6--------------------------|--------|
------------|--------------7--7--------7-----------------------|--5-----|
5--5--5--5--|--0--0--4--4-----------------4--0--0--0--0--0--0--|--------|


H     GO BONZO GO!         Opt. Fill
r--|--------------------|-----------------||----------------------------|
e--|--------------------|-----------------||----------------------------|
s--|--------------------|-----------------||----------------------------|
t--|--------------------|--5--------------||----------------------------|
****************************************************************************

3.Stairway To Heaven

No bass until:

 C      G/B     Am         C   G/B Fmaj7  Am
g--------------|----------|------------|-----------------|
d--------------|----------|------------|-----------------|
a-3------2-----|--------2-|-3----2-----|---------------2-|
e--------------|-5--------|----------1-|---5-------------|
 If there's a bustle in your hedgerow...

g--------------|---------------------------|-------------|
d--------------|-----7--7-------5--5-------|-------------|
a-3------2-----|-----------5h7-----------2-|-3------2----|
e--------------|-5--------------------5----|-----------1-|

g--------------|-----------|-----------------|---------------------|
d--------------|-----------|-----7-7-7-------|---7-----------------|
a------------2-|-3----2----|------------7--5-|------5--------------|
e-5------5-----|-----------|-5---------------|--------2-2---3--x-5-|

g------------------|-7-----7------------|----------------|
d--------7-------7-|---------7------7---|----------------|
a-----7-----7--5---|-----------5------7-|-----------7--5-|
e-5----------------|--------------------|-5-----5--------|

g-----------------7-----|-------------------|-7----7------------||
d------------4--7---7-7-|-----------------7-|--------7----------||
a------5----------------|-----------7---5---|----------5----7-5-||
e---5-------------------|-5----5------------|-------------------||


Next Verse
g---------------|------------------|-------------|---------2----|
d---------------|----------2-------|-------------|------------2-|
a-3----x-x-2----|----------------2-|-3----2------|--------------|
e---------------|-5-----5-----5----|-----------1-|---5----------|
 Your head is humming...

g---------------|-------------------|------------|---------------|
d---------------|-------5\2---------|------------|---------------|
a-3--------2----|-----------------2-|-3---2------|-------------2-|
e---------------|-5-----------5-----|----------1-|---5---x-3-5---|

g---------------|
d---------------|
a-3--------2----|
e---------------|

Interlude
g--------------|---------------------|
d--------------|---------------------|
a-5--------5-5-|-5-----5-5-5-----5-5-|
e--------------|---------------------|
Time Signature Changes During Interlude
  g---------|   g-------|   g---------------|   g---------------------|   g----------|
3 d---------| 4 d-------| 5 d---------------| 4 d---------------------| 7 d----------|
4 a-5--5--5-| 4 a-3-----| 4 a-----------5-5-| 4 a-5-----5-5-5-----5-5-| 8 a-5--5--5--|
  e---------|   e-------|   e---------------|   e---------------------|   e----------|

  g-----------|-------------|
4 d-----------|-------------|
4 a-----------|-2-----------|
  e-----------|-------------|

Bass During Solo
g----------------|----------------------------|
d----------------|----------------------------|
a----------------|----------------------------|
e-5----3--3----1-|-1--1----1-0-1-0-1----1-3-0-|

g-----------------|-----------------------------|-------------------|
d-----------------|-----------------------------|-------------------|
a-----------------|-----------------------------|-------------------|
e-5--5----x--3--3-|-1--1-1-1--1-1--0-1-0--1-3-0-|-5--5----3--3----1-|

g------------------------------|-------------------|
d-------3--3p0-----------------|-------------------|
a------------------------------|-------------------|
e-1--1----------1-1-1--1-1-3-0-|-5--5----3--3----1-|

g------------------------------|---------------------|
d--------3-----------3---------|---------------5-----|
a------------------------0-1-1-|-----------------5---|
e-1--1-1---1-1-1-0-1---1-------|-5--5----3-3-------0-|

g---------------------------|----------------------------|
d---------------------------|-------------7--------------|
a---------------------------|---------7-7----------------|
e-1--1--1--1-1-1--1-1-0-3-1-|-5--5----------3--3----3--3-|

g----------------------------|----------------------------|
d----------------------------|---------------------5------|
a----------------------------|---------7---7---------5----|
e-1--1-1----1-1--1-3-1-1-1-3-|-5--5------5---3--3------3--|

g------------------------------|----------------------------|
d---------3------3-3---3-------|----------------------------|
a------------1/3-----3---3-----|---------7-----------5------|
e-1--1---------------------1-3-|-5--5------0-5-3--3-----3-1-|

g--------------------------------|---------------------------|
d--------------------------------|---------------------------|
a--------------------------------|---------7-----------5-----|
e-1-1--1--1-x-x-1---1-1--1-x-3-4-|-5--5------5-3--3------3-0-|

g----------------------------|-----------------------------|
d---------------3----3-------|-----------------------5-----|
a-----------0-3----3---3-----|-------------------------5---|
e-1--1-------------------1-3-|-5-0--5----5-x-3--3--------3-|

                                  Chorus
                                   Repeat 7 times
g-------------------------------| |--------------------------|
d-----------------0-2-3---3-3-3-| |*-------------------------|
a---------------3---------------| |*-------------------------|
e-1--1-1-1-1-1------------------| |--5--5-----5-3--3-----0-1-|
                                   And as we  . .


g--------------------------------| |-------------------------|
d-------------------------------*| |-------------------------|
a-------------------------------*| |-------------------------|
e-1---1---1---1---(1--0--3--4-)--| |-5--5-------3--3-------1-|


g-----------------------------|-------------------------|
d-----------------------------|-------------------------|
a-----------------------------|-------------------------|
e---1--1---0-1-1--1---1-0-3-4-|-5--5-------3--3-------1-|

g-----------------------------|-----------------------|
d---------------3-3-----------|------7----------------|
a----------0--3-----3-0-0-----|------------------5----|
e---1--1------------------1-3-|-5-------0--3--3-----1-|

g----------------------------|-------------------------|
d--------------3-------------|-------7-----------------|
a----------------------------|----7--------------5-----|
e---1--1---1-1----1--1-1-3p0-|-5----------3-3-3----0h1-|

g----------------------------|-------------------------|
d---------------3----3-------|-------------------------|
a-----------0-3----3---3-----|------------------5------|
e-1--1--1----------------1-3-|-5--0--5----3--3----3-1--|

                               ritard
g-----------------------------|----------------------|
d-----------------3-----3-----|----------------------|
a-----------0-0-3---0-3---3---|----------------------|
e-1--1--1-------------------0-|-5--5--5----3----3----|

g-------------|---------------|---------|
d-------------|---------------|---------|
a-------------|---------------|---------|
e-1-----------|-(1)-----------|-(1)-----|
****************************************************************************

4. The Battle For Evermore (No Bass)
****************************************************************************

5.Misty Mountain Hop

Intro                                Verse
                               3x                            3x
G||-----------------------------||----------------------------||
D||*-----------------2---------*||*--------------------------*||
A||*---------------------------*||*--------------------------*||
E||---5----3----0---------0-----||---5--5--5--5--5--5--5--5---||

Intro x4

Verse x4

Intro x4

Bridge 1:
-----------------------|-----------------------|-------------------------|
-----------------4-----|--5--------------------|------------------4h-5---|
--5--5----0--5---------|-----5--2------------4-|--5--5--0--2--5----------|
-----------------------|-----------3--5--------|-------------------------|

------------------------|
--5--2------------------|
--------2---------------|
-----------3----x--5----|
Intro x4

Verse x4

Intro x4

Verse x4

Intro x4

Bridge 2:

-|-------------------------|--------------------------|
-|-------------------------|--------------------------|
-|--5--5----------5--------|--------2----3-----4--5---|
-|----------5/-7-----7--5--|--3--5----------5--------5|

-|--------------7----------|--------------------------|
-|--------4--7-------7-----|--------5----3---2--------|
-|--5--5----------5-----5--|-------------------5------|
-|-------------------------|--3--3---------------5--5-|

Intro x4

Verse x4

Intro x4

Verse x4

Intro x4

Bridge 3

|-------------------------|-----------------------|
|-------------------4h-5--|-----------------------|
|--5--5----0--5-----------|--0h-2--5--------------|
|-------------------------|-----------3-------5---|


-------------------------|--------------------------|
-------------------------|--------5--3--2-----------|
--5--5--0--2--5----2--0--|-----5-----------5--------|
-------------------------|--3-----------------x--0--|

Guitar Solo

                          3x                          3x
|---2---------------------||--------------------------||
|*-------5---------2-----*||*------------------2-----*||
|*-----------------------*||*------------------------*||
|-------------0-------0---||---5--5--3----0-------0---||


Bridge 4
-------------------------|-------------------------|
-------------------4--5--|--3--2-------------------|
--5--5--0--2--5----------|--------5----2-----------|
-------------------------|----------------3--4--5--|

-------5--4--------------|----------------------|-------------------|
---------------7--0------|--5----3----2---------|-------------------|
4h-5--5------------------|-----------------5----|-------------------|
-------------------------|----------------------|--5----------------|

Intro x5

Verse x4

Intro x4

Verse x4

Intro x4

Bridge 5

|-------------------------|------------------------|
|-------------------------|--------------5/-7------|
|--5--5--0--2--5----------|-----2--5--5------------|
|------------------2h-3---|--5---------------------|

|------------------------|--------------------------|
|------------------------|--5--5--2--0--5-----------|
|--5--0--2--5--2--0------|--------------------------|
|------------------------|-----------------3--3--5--|

Outro

-----------|--------------------------||
-----------|*------------------2-----*||
-----------|*------------------------*||
-----0--0--|---5--5--3----0-------0---||
****************************************************************************

6.Four Sticks

/8 time                                               12/8 time
G|----------|----------|----------|----------|----------|------------------------|
D|----------|---5------|---5------|---5------|---5------|------------------------|
A|------4-5-|7-----4-5-|7-----4-5-|7-----4-5-|7-----4-5-|7-----------5-------4-5-|
E|----------|0---------|0---------|0---------|0---------|5-----------3-----------|

  5/8 time              12/8 time
G|----------|----------|------------------------|
D|---5------|---5------|------------------------|
A|7-----4-5-|7-----4-5-|7-----------5-------4-5-|
E|0---------|0---------|5-----------3-----------|

  5/8 time           12/8 time
G|----------|       |------------------------|
D|---5------|       |------------------------|
A|7-----4-5-|       |7-----------5-------4-5-|
E|0---------| 10X   |5-----------3-----------|

  5/8 time              12/8 time
G|----------|----------|------------------------|
D|---5------|---5------|------------------------|
A|7-----4-5-|7-----4-5-|7-----------5-------4-5-|
E|0---------|0---------|5-----------3-----------|

  5/8 time           12/8 time
G|----------|       |------------------------|
D|---5------|       |------------------------|
A|7-----4-5-|       |7-----------5-------4-5-|
E|0---------| 10X   |5-----------3-----------|

  5/8 time              12/8 time
G|----------|----------|------------------------|
D|---5------|---5------|------------------------|
A|7-----4-5-|7-----4-5-|7-----------5-------4-5-|
E|0---------|0---------|5-----------3-----------|

G|------------------------|------------------------|
D|7-----5---5-7---7-----7-|7-------7-----7---7-7--7|
A|--0-----7------0----7---|-70------70----70----7--|
E|------------------------|------------------------|
                           And when the owls...

G|--------------------9---|------------------------|
D|--------7------7--7-----|7---7-7---7-7---7-7-7-7-|
A|0--------70---7-7-----7-|---7-----7-7---7-7---7-7|
E|------------------------|------------------------|

G|--------------99--------|------------99----------|
D|------5---7-7---7-9---9-|7--7--7-------7-7---7---|
A|0-------7-----------7---|---------------------97-|
E|------------------------|-----------------------9|

G|------------------------|------------------------||
D|---------5--7---7-------|------7--7---77-7--7----||
A|00-0-07-7--7------9-7---|0--7-7-7---7---7--7-4455||
E|----------------------9-|------------------------||

  5/8 time           12/8 time
G|----------|      |------------------------|
D|---5------|      |------------------------|
A|7-----4-5-|      |7-----------5-------4-5-|
E|0---------| 8X   |5-----------3-----------|

  5/8 time              12/8 time
G|----------|----------|------------------------|
D|---5------|---5------|------------------------|
A|7-----4-5-|7-----4-5-|7-----------5-------4-5-|
E|0---------|0---------|5-----------3-----------|

  5/8 time           12/8 time
G|----------|      |------------------------|
D|---5------|      |------------------------|
A|7-----4-5-|      |7-----------5-------4-5-|
E|0---------| 8X   |5-----------3-----------|

  5/8 time              12/8 time
G|----------|----------|------------------------|
D|---5------|---5------|------------------------|
A|7-----4-5-|7-----4-5-|7-----------5-------4-5-|
E|0---------|0---------|5-----------3-----------|

G|------------------------|------------------------|------------------------|
D|7-----7---7-797-----77--|------------7-7---7--7--|-----------57---7-9---9-|
A|--0-0----7-7-------7--7-|0--0-0--------------7-7-|0-770---777----7----77--|
E|------------------------|------------------------|------------------------|

G|------------------------|------------------9---9-|-9-----9-9--------------|
D|7-----7-7---7-----7-7---|------5----57-7--7-7---7|---7----7--7---7-----7--|
A|---7-7---7-7---777---7-7|0-000---7-7--7-7----7---|7---7-------7-7-7-7-7-74|
E|------------------------|------------------------|------------------------|

G|------------------------|--9-------9-------------|------------------------|
D|---5-5-5--5-7-7-----7---|77--7---77-7----7---7---|7-7---5---5-7-7---5-----|
A|0-----7-7-------7-----7-|------7------7--------7-|---7-7--7-------7---75-3|
E|------------------------|------------------------|------------------------|

G|------------9-----------|------------------------|----9-------------------|
D|----7---7-------7---5---|---7-5------------5-7--5|---7-7---7--5-579----7-5|
A|0-07--77--77--77--77--7-|0-----7-7-4-0--4-7----7-|077----77--7-7---7-0----|
E|------------------------|------------------------|------------------------|

G|----------9---------9---|---9-9---9--------------|------------------------|
D|------9-7---7---7----7--|7-----7-----7-77--------|---7-7--5-9-7-777---7---|
A|0000-0-7-----0-7-77---7-|-----------7----7-0--74-|0-----7-----------9---7-|
E|------------------------|------------------------|------------------------|

G|---9----------9---------||------------------------|------------------------|
D|7-7--7--7---7---77------||----7---------7-----9-7-|------7-----------7-----|
A|------07--7-------7-----||0-------70--0-----------|0--00--0-00-00-00--0-000|
E|------------------------||------------------------|------------------------|

G|------------------------|------------------------|------------------------|
D|----7---------7-----9-7-|------7-----------7-----|----7---------7-----9-7-|
A|0-------70--0-----------|0--00--0-00-00-00--0-000|0-------70--0-----------|
E|------------------------|------------------------|------------------------|

G|------------------------|------------------------|------------------------|
D|------7-----------7-----|----7---------7-----9-7-|7-------77--7-----------|
A|0--00--0-00-00-00--0-000|0-------70--0-----------|--0-------7---0-2-3-445-|
E|------------------------|------------------------|------------------------|

  5/8 time           12/8 time
G|----------|      |------------------------|
D|---5------|      |------------------------|
A|7-----4-5-|      |7-----------5-------4-5-|
E|0---------| 8X   |5-----------3-----------|

  5/8 time              12/8 time
G|----------|----------|------------------------|
D|---5------|---5------|------------------------|
A|7-----4-5-|7-----4-5-|7-----------5-------4-5-|
E|0---------|0---------|5-----------3-----------|

  5/8 time
G|----------|
D|---5------|
A|7-----4-5-|
E|0---------| 35X
****************************************************************************

7. Going To California

Gtr I (D A D G B D) - 'Mandolin'
Gtr II (G D A D) - 'Untitled'

 Intro
  H=78
 2/2
  Gtr II
  Wx6          Q  E E E E E E   E E E E E E E E
|------------|----------------|------------------||
|------------|------0---0---0-|---0---0---0------||
|------------|----4---5---4---|-2---0---2---4-4--||
|------------|----------------|------------------||


   Verses
    Q.   H    E   +E  Q  E +H       Q  E E +Q.   E   +E  Q  Q  E E E
||--------------|-----------------|----------------|------------------|
||o-------------|-----------------|-2--2-0-(0)---0-|-(0)-0--0--0-0-0--|
||o-5----4----2-|-(2)-2--0-(0)----|-0--0-0-(0)---4-|-(4)-5--4--0-2-0--|
||--------------|-----------------|----------------|------------------|


  E E E E +E  E E E   +E  E E E E E E E
|-------------------|-------------------|
|-0-0-0-0-(0)-0-0-0-|-(0)-0-0---------0-|
|-2-4-4-2-(2)-4-4-7-|-(7)-0-4-0-----0-0-|
|-------------------|-----------2h4-----|


  E  E  E E +E  E  E  E   +E  E  E  E +E  E  E  +E   3x
|-----------------------|----------------------------||
|-0-(0)---0-(0)-0-(0)-0-|-(0)-0-(0)-0-(0)-0-(0)-(0)-o||
|-2h=4--4-4-(4)-2h=4--0-|-(0)-2h=4--0-(0)-2h=4--(4)-o||
|-----------------------|----------------------------||


 Bridge
  Q  E E E E Q    E E E E E E +E  E
|---------------|-------------------|
|---------------|-------------------|
|----3-2-0---0--|-3-2-0---0-0-(0)-0-|
|----------5----|-------5-----------|


  +H     E E E E   H.      E E   Q  E E E E Q
|----------------|-------------|---------------|
|----------------|-------------|---------------|
|-(0)----------0-|-------------|----3-2-0---0--|
|----------2-4---|-2-------4-2-|----------5----|


  E E E E E E E E   H    Q  E E   E E E E +H
|-----------------|-------------|----------------|
|-----------------|-------------|----------------|
|-3-2-0-5-3-2-0---|-0---------0-|-------0-(0)----|
|---------------5-|---------5---|-2-2-4----------|


  E E E E +E  E E E   +E  E E E +E  E E E
|-----0h2-(2)---0h2-|-(2)---0h2-(2)---0h2-||
|---0---------0-----|-----0---------0-----||
|-------------------|---------------------||
|-------------------|---------------------||


   Verses
    Q.   H    E   +E  Q  E +H       Q  E E +Q.   E   +E  Q  Q  E E E
||--------------|-----------------|----------------|------------------|
||o-------------|-----------------|-2--2-0-(0)---0-|-(0)-0--0--0-0-0--|
||o-5----4----2-|-(2)-2--0-(0)----|-0--0-0-(0)---4-|-(4)-5--4--0-2-0--|
||--------------|-----------------|----------------|------------------|


  E E E E +E  E E E   +E  E E E E E E E
|-------------------|-------------------|
|-0-0-0-0-(0)-0-0-0-|-(0)-0-0---------0-|
|-2-4-4-2-(2)-4-4-7-|-(7)-0-4-0-----0-0-|
|-------------------|-----------2h4-----|


  E  E  E E +E  E  E  E   +E  E  E  E +E  E  E  +E   3x
|-----------------------|----------------------------||
|-0-(0)---0-(0)-0-(0)-0-|-(0)-0-(0)-0-(0)-0-(0)-(0)-o||
|-2h=4--4-4-(4)-2h=4--0-|-(0)-2h=4--0-(0)-2h=4--(4)-o||
|-----------------------|----------------------------||


 Bridge - Verse
  Q  E E  E  E E E    Q   E E  Q   E E    Q   E E  Q   E E    Q   E E  Q   E E
|------------------|-------------------|-------------------|-------------------|
|------0-(0)-0---0-|-(0)----0-(0)----0-|-(0)----0-(0)----0-|-(0)----0-(0)----0-|
|-3--0-2--2--2-0-3-|--3---0-2--2---0-3-|--3---0-2--2---0-3-|--3---0-2--2---0-3-|
|------------------|-------------------|-------------------|-------------------|


  H    E E E E   E E E E +E  E q    E E Q  E Q  E   Q  Q  E E E E
|--------------|------------------|---------------|---------------|
|--------0---0-|---0---0-(0)-0----|-----0--0-0--0-|-------------0-|
|--------7-7-7-|-7-7-7-7-(7)-7-7--|-5-7-7--7-7--7-|-5--3--0---0-7-|
|--------------|------------------|---------------|---------5-----|


  Q  E E  Q   E E    Q   E E  Q   E E    Q   E E  Q   E E    Q   E E  Q   E E
|-----------------|-------------------|-------------------|-------------------|
|-0----0-(0)----0-|-(0)----0-(0)----0-|-(0)----0-(0)----0-|-(0)----0-(0)----0-|
|-3--0-2--2---0-3-|--3---0-2--2---0-3-|--3---0-2--2---0-3-|--3---0-2--2---0-3-|
|-----------------|-------------------|-------------------|-------------------|


  Q.   E +H       Q.   E  E  E E E   Q.   E  E  E E E   E E  E  E E E E E
|---------------|------------------|------------------|-------------------||
|------0-(0)----|------0-(0)-0---0-|-0----0-(0)-0-0---|---0-(0)-0-0-0-0-0-||
|------2-(2)----|------2--2--2-5---|-5----2--2--2-2-4-|---3--3--3-3-3-5-2-||
|---------------|------------------|------------------|-------------------||


 Intro
  E E E E  E  E E E   E E E E E E E E   E E E E E E E E   E E E E E E Q
|-------------------|-----------------|-----------------|----------------||
|-------0-(0)-0---0-|---0---0---0---0-|---0---0---0---0-|---0---0---0----||
|-2-4-4-4--4--4-5-7-|-4---2---0-------|---------0---2---|-4---0---2---4--||
|-------------------|-------------2---|-4---6-----------|----------------||


    Q.   H    E   +E  Q  E +H       Q  E E +Q.   E   +E  Q  Q  E E E
||--------------|-----------------|----------------|------------------|
||o-------------|-----------------|-2--2-0-(0)---0-|-(0)-0--0--0-0-0--|
||o-5----4----2-|-(2)-2--0-(0)----|-0--0-0-(0)---4-|-(4)-5--4--0-2-0--|
||--------------|-----------------|----------------|------------------|


  E E E E +E  E E E   +E  E E E E E E E
|-------------------|-------------------|
|-0-0-0-0-(0)-0-0-0-|-(0)-0-0---------0-|
|-2-4-4-2-(2)-4-4-7-|-(7)-0-4-0-----0-0-|
|-------------------|-----------2h4-----|


  E  E  E E +E  E  E  E   +E  E  E  E +E  E  E  +E   3x
|-----------------------|----------------------------||
|-0-(0)---0-(0)-0-(0)-0-|-(0)-0-(0)-0-(0)-0-(0)-(0)-o||
|-2h=4--4-4-(4)-2h=4--0-|-(0)-2h=4--0-(0)-2h=4--(4)-o||
|-----------------------|----------------------------||


  Q  E E E E E E   E E E E E E E E
|----------------|-----------------|
|----------------|-----------------|
|----3-2-0-----0-|-3-2-0-5-3-2-0---|
|----------5-5---|---------------5-|


  Q  a E E +E  E E E   H    Q  E E   E E E E E E E E
|--------------------|-------------|-----7-5-3---------|
|--------0-(0)-0-----|---------0-7-|-8-7-------7-5-3---|
|-0--2S4-------------|-0-----------|-------------------|
|----------------2h4-|-------------|-------------------|


                                        Outro
  E E E E E E E S S   Q  E E  E  Q.      W
|-----7-5-----------|-----------------||----------|
|-5-7-----7-5-0-----|-0--0-0-(0)-0----||----------|
|---------------4-4-|----0-0--0--0----||----------|
|-------------------|-----------------||----------|


  E E E E +E  E E E   +E  E E E +E  E E E
|-----0h2-(2)---0h2-|-(2)---0h2-(2)---0h2---|
|---0---------0-----|-----0---------0-------|
|-------------------|-----------------------|
|-------------------|-----------------------|


  E E E E +E  E E E   E E E E E E E E   +E  E E E +E  E E E
|-4-2-0-7-(7)---0-7-|-0---2-------0-7-|-(7)-----2-(2)-----2-|
|-------------0-----|---0---0-0-0-----|-----0-0-------0-0---|
|-------------------|-----------------|---------------------|
|-------------------|-----------------|---------------------|


  +E  E E E +E  E E E   +E  E E E +E  E E E
|-(2)---0-2-(2)---0-2-|-(2)-----7-(7)-----7-|
|-----0---------0-----|-----0-0-------7-9---|
|---------------------|---------------------|
|---------------------|---------------------|


  +E  E E E +E  E E +E    Q   E E E E E E
|-(7)-----7-(7)---------|-----------------|
|-----7-9-------7-9-(9)-|-------0-0-0-----|
|-----------------------|----/4-7-7-7---0-|
|-----------------------|-----------------|


  E E  E E E E E E   E E  E E E E E E   E E  E E E E E E
|------------------|------------------|------------------|
|-0-0----0---0-----|---0----0---0-----|---0----0---0-----|
|-7-7-/4---2p0-0-0-|-0---/4---2-0-----|-0---/4---2-0-----|
|------------------|--------------2-4-|--------------2-4-|


  E E  E E E E E E   E E  E E E E E E   E E  E E E E E E
|------------------|------------------|------------------|
|---0----0---0-----|---0----0---0-----|---0----0---0-----|
|-0---/4---2-0-----|-0---/4---2-0-----|-0---/4---2-0-----|
|--------------2-4-|--------------2-4-|--------------2-4-|


  E E E E E E E E   E E Q  E E E E   Q  S S E E E E E   H    H
|-----------------|----------------|------------------|-----------*|
|-----------------|----------------|------------------|-----------*|
|-0-5-4-2-0-------|-0-4--------0-0-|-0--2-0-0---0-0-2-|-0---------*|
|-----------4-2-4-|--------2-4-----|----------4-------|-----------*|
****************************************************************************

8.When The Levee Breaks

G|----------------|----------------|----------------|----------------|
D|----------------|----------------|----------------|----------------|
A|----------------|----------------|----------------|----------------|
E|----------------|----------------|----------------|----------------|

G|----------------|----------------|----------------|----------------|
D|6---------------|6-----------8---|6---------------|6-----6-----8---|
A|--8-8---8---8-8-|--8-8---8-------|--8-8---8---8-8-|--8-8---8-8-----|
E|----------------|----------------|----------------|----------------|

G|----------------|----------------|----------------|----------------||
D|6---------------|6-----6-----8---|6---------------|6-----6-----8---||
A|--8-8---8---8-8-|--8-8---8-8-----|--8-8---8---8-8-|--8-8---8-8-----||
E|----------------|----------------|----------------|----------------||

  D.S.
G|----------------|----------------|----------------|----------------|
D|6---------------|----------------|----------------|6-----6-----8---|
A|--8-8---8---6-7-|8---8---8---6-7-|8---8---8---8-8-|--8-8---8-8-----|
E|----------------|----------------|----------------|----------------|

G|----------------|----------------|----------------|----------------|
D|6---------------|----------------|----------------|6-----6-----8---|
A|--8-8---8---6-7-|8---8---8---6-7-|8---8---8---8---|--8-8---8-8-----|
E|----------------|----------------|----------------|----------------|

G|----------------|----------------|----------------|----------------|
D|6---------------|----------------|----------------|6-----6-----8---|
A|--8-8---8---6-7-|8---8---8---6-7-|8---8---8---8---|--8-8---8-8-----|
E|----------------|----------------|----------------|----------------|

G|----------------|----------------|----------------|----------------|
D|6---------------|6-----6-----8---|6---------------|----------------|
A|--8-8---8---8---|--8-8---8-8-----|--8-8---8---6-7-|8---8-8-8---6-7-|
E|----------------|----------------|----------------|----------------|

G|----------------|----------------|----------------|----------------|
D|----------------|6-----6-----8---|6---------------|----------------|
A|8-8-8---8---8---|--8-8---8-8-----|--8-8---8---6-7-|8---8-8-8---6-7-|
E|----------------|----------------|----------------|----------------|

G|----------------|----------------|----------------|----------------|
D|6---------------|----------------|----------------|6-----6-----8---|
A|--8-8---8---6-7-|8---8-8-8---6-7-|8---8---8---8-8-|--8-8---8-8-----|
E|----------------|----------------|----------------|----------------|

G|----------------|----------------|----------------|----------------|
D|6---------------|----------------|----------------|6-----6-----8---|
A|--8-8---8---6-7-|8---8---8---6-7-|8---8---8---8-8-|--8-8---8-8-----|
E|----------------|----------------|----------------|----------------|

G|----------------|----------------|----------------|----------------|
D|6---------------|6-----6-----8-8-|6---6-6---------|----------------|
A|--8-8---8---8---|--8-8---8-8-----|----------------|--------------6-|
E|----------------|----------------|--------------4-|6-6-6-6-8-8-----|

G|----------------|----------------|----------------|----------------|
D|--6-------------|--6-------------|----------------|----------------|
A|6-------6-8-----|6-------6-8-----|----------------|------------3-6-|
E|----------------|------------6-8-|4---4-----1-4-5-|6-6-6-6---4-----|

G|----------------|----------------|----------------|----------------||
D|--6-------------|--6-------------|----------------|----------------||
A|6-------6-8-----|6-------6-8-----|----------------|----------------||
E|----------------|----------------|----------------|----------------||

G| ----------------|----------------|----------------|----------------|
D|o6---------------|----------------|6---------------|6-----6-----8---|
A|o--8-8-8-8---8-8-|6-8-8-8-8---8-8-|--8-8---8---8-8-|--8-8---8-8-----|
E| ----------------|----------------|----------------|----------------|
   If it keeps on rainin'....

G|----------------|----------------|----------------|----------------|
D|6---------------|----------------|----------------|6-----6-----8---|
A|--8-8---8---6-7-|8---8---8---6-7-|8---8---8---8---|--8-----8-8-----|
E|----------------|----------------|----------------|----------------|

                                                              to Coda
G|----------------|----------------|----------------|----------------|
D|6---------------|----------------|----------------|6-----6-----8---|
A|--8-8-8-8---6-7-|8---8-8-8---6-7-|8-8-8---8---8-8-|--8-8---8-8-----|
E|----------------|----------------|----------------|----------------|
  __________________________________  _________________________________
  1.                                | 2.
G|----------------|---------------- ||----------------|----------------|
D|6---------------|6-----6-----8---o||6---------------|6-----6-----8-8-|
A|--8-8---8---8-8-|--8-8---8-8-----o||--8-8---8---8-8-|--8-8---8-8-----|
E|----------------|---------------- ||----------------|----------------|

G|----------------|----------------|----------------|----------------|
D|6---6---------6-|8---------------|--6-------------|--6-------------|
A|----------------|--8-----------6-|6-------6-8-----|6-------6-8-----|
E|----------------|----6-6-6-7-8---|----------------|------------6-8-|

G|----------------|----------------|----------------|----------------|
D|----------------|----------------|--6-------------|--6-------------|
A|----------------|--------------6-|6-------6-8-----|6-------6-8-----|
E|4-4-4-4-4-6-8-7-|6-6-6-6-8-6-8---|----------------|----------------|

G|----------------|----------------|----------------|----------------|
D|----------------|----------------|----------------|----------------|
A|(8)-------------|(8)-------------|(8)-------------|(8)-------------|
E|----------------|----------------|----------------|----------------|

G|----------------|----------------|----------------|----------------|
D|----------------|----------------|----------------|----------------|
A|8-----8-8-------|----------------|----------------|6---8-8-8-8-8-6-|
E|----------------|8---------------|6-----6-6---8---|----------------|

G|----------------|----------------|----------------|----------------|
D|----------------|----------------|----------------|8---10--101010--|
A|8-8-8---8---8-10|101010101010106-|8---8-8-8---10--|6---8---8-8-8-6-|
E|----------------|8-8-8-8-8-8-8---|6---6-6-6---8---|----------------|

G|----------------|----------------|----------------|----------------|
D|101010--10------|----------------|----------------|8---10--101010--|
A|8-8-8---8---8---|1010101010----6-|8-8-8---8---10--|6---8---8-8-8---|
E|----------------|8-8-8-8-8-------|6-6-6---6---8---|----------------|

G|----------------|----------------|----------------|----------------|
D|1010101010------|----------------|----------------|8---10----------|
A|8-8-8-8-8---8---|1010101010----6-|8-8-8-8-8---10--|6---8---8-------|
E|--------------6-|8-8-8-8-8-------|6-6-6-6-6---8---|----------6-7-8-|

                                                         D.S. al Coda
G|----------------|----------------|----------------|----------------||
D|1010101010------|----------------|----------------|8---10--10----0-||
A|8-8-8-8-8-----8-|1010101010----6-|8-8-8-8-8---10--|6---8---8-------||
E|----------------|8-8-8-8-8-------|6-6-6-6-6---8---|----------------||

  CODA
G|----------------|----------------|----------------|----------------|
D|6---------------|6-----6-----8---|6---------------|----------------|
A|--8-8---8---8-8-|--8-8---8-8-----|--8-8---8---6-7-|8---8---8---6-7-|
E|----------------|----------------|----------------|----------------|

G|----------------|----------------|----------------|----------------|
D|----------------|6-----6-----8---|6---------------|----------------|
A|8---8---8---8-8-|--8-8---8-8-----|--8-8---8---6-7-|8---8-8-8---6-7-|
E|----------------|----------------|----------------|----------------|
  All last night....

G|----------------|----------------|----------------|----------------|
D|----------------|6-----6-----8---|6---------------|----------------|
A|8---8---8---8-8-|--8-8---8-8-----|--8-8---8---6-7-|8-8-8-8-8---6-7-|
E|----------------|----------------|----------------|----------------|

G|----------------|----------------|----------------|----------------|
D|----------------|6-----6-----8---|6---------------|6-----6-----8-8-|
A|8---8---8---8-8-|--8-8---8-8-----|--8-8---8---8-8-|--8-8---8-8-----|
E|----------------|----------------|----------------|----------------|

G| ----------------|----------------|----------------|---------------- |
D|o6---6---6---6-7-|8---------------|--6-------------|--6-------------o|
A|o----------------|--8-----------6-|6-------6-8-----|6-------6-8-----o|
E| ----------------|----6-6-6-7-8---|----------------|------------6-8- |

G|----------------|----------------|----------------|----------------|
D|6---------------|----------------|----------------|----------------|
A|--8-8-8-8-----8-|8-8-8-8-8-----8-|8---8-8-8-----8-|8---8-----------|
E|----------------|----------------|----------------|------------8---|

G|----------------|----------------|----------------|----------------|
D|----------------|----------------|----------------|----------------|
A|8---8---8---8-6-|----------------|----------------|6---8---8-6---6-|
E|----------------|8-8-8-8-8-----8-|6---6-6-6---8---|------------8---|

G|----------------|----------------|----------------|----------------|
D|--10101010------|----------------|----------------|8---10--10------|
A|8-8-8-8-8---8-10|1010101010----8-|8-8-8-8-8---10--|6---8---8-------|
E|----------------|8-8-8-8-8-----6-|6-6-6-6-6---8---|--------------8-|

G|----------------|----------------|----------------|----------------|
D|1010101010------|----------------|----------------|8---10----------|
A|8-8-8-8-8-------|1010101010------|8-8-8-8-8---10--|6---8-----------|
E|--------------8-|8-8-8-8-8-----6-|6-6-6-6-6---8---|--------8-5-6-7-|

G|----------------|----------------|----------------|----------------|
D|1010101010------|----------------|----------------|8---10--101010--|
A|8-8-8-8-8-----8-|1010101010------|8-8-8-8-8---10--|6---8---8-8-8-10|
E|----------------|8-8-8-8-8-----6-|6-6-6-6-----8---|----------------|

G|----------------|----------------|----------------|----------------|
D|1010101010------|----------------|----------------|8---10--------6-|
A|8-8-8-8-8-----8-|1010--1010------|8-8---8-8---10--|6---8---8-8-8---|
E|--------------6-|8-8-8-8-8-----6-|6-6---6-6---8---|----------------|

G|----------------|----------------|----------------|----------------|
D|6---------------|6---------------|6---------------|6-----6-----8---|
A|--8-8-8-8---8-8-|--8-8-8-8---8-8-|--8-8-8-8---8-8-|--8-8---8-8-----|
E|----------------|----8-8---------|----------------|----------------|
                               Goin'                     I'm goin' to

G|----------------|----------------|----------------|----------------|
D|6---------------|6---------------|6---------------|6-----6-----8---|
A|--8-8-8-8---8-8-|--8-8-8-8---8-8-|--8-8-8-8---8-8-|--8-8---8-8-----|
E|----------------|----------------|----------------|----------------|
  Chicago....

G|----------------|----------------|----------------| ----------------|
D|----------------|----------------|----------------|o----------------|
A|----------------|----------------|----------------|o------------1---|
E|4-1-1-1-1---1-1-|4-1-1-1-1---1-1-|4-1-1-1-1---1-1-| 4-1-1-1-1-1-----|

G|----------------|----------------|----------------|----------------|
D|----------------|----------------|----------------|----------------|
A|----------------|----------------|----------------|------------1---|
E|4-1-1-1-1---1-1-|4-1-1-1-1---1-1-|4-1-1-1-1---1-1-|4-1-1-1-1-1-----|
                                    _________________________________
                                   |1.
G|----------------|----------------|----------------|----------------|
D|----------------|----------------|----------------|----------------|
A|----------------|----------------|----------------|------------1---|
E|4-1-1-1-1---1-1-|4-1-1-1-1---1-1-|4-1-1-1-1---1-1-|4-1-1-1-1-1-----|
  ___________________________________________________________________

G|----------------|----------------|----------------|----------------|
D|----------------|----------------|----------------|----------------|
A|----------------|------------1---|----------------|------------1---|
E|4-1-1-1-1---1-1-|4-1-1-1-1-1-----|4-1-1-1-1---1-1-|4-1-1-4-1-1-----|
  ____________________________________________________________________
                                                                      |
G|----------------|----------------|----------------|---------------- |
D|----------------|----------------|----------------|----------------o|
A|----------------|--------6-------|----------------|------------1---o|
E|4-1-1-1-1---1-1-|4-1-1-4---4-6---|1-1-1-1-1---1-1-|4-1-1-4-1-1----- |
  ________________
 |2.
G|----------------|----------------|----------------|----------------|
D|----------------|----------------|----------------|----------------|
A|----------1-2-3-|----------------|------------1---|----------------|
E|4-1---4-4-------|4-1-1-1-1---1-1-|4-1-1-4-1-1-----|4-1-1-1-1---1-1-|

G|----------------|----------------|----------------|
D|----------------|----------------|----------------|
A|----------1-2-3-|------------1-1-|------------1---|
E|1-1-1-1-4-------|4-1-1-1-1-------|4-1-1-4-1-1-----|

G|----------------|---------10-----|
D|----------------|----------------|
A|----------------|--------8-------|
E|4-1-1---1---1---|----------------|
comments
We did not receive enough feedback on this tab! Please rate:
print report bad tab
1 2 3 4 5
I want to post or [tab]
guest
You may want to rate the tab now too:
select rating
Please do not post tabs as comments. Select "correction" instead!