Oops, an error
Loading. Please wait.

Physical Graffiti Tab

25,955 views 37 this week
3 commentsread comments
1 2 3 4 5
accurate
x 3
add to favorites launch autoscroll
font size
0
reset
Autoscroll
+/-
esc
set tempo
stop
Contributor
Difficulty
advanced
WARNING: You are trying to view
                                    content from Ultimate-Guitar.com
                                    in an unauthorized application,
                                    which is prohibited.

                                    Please use an official Ultimate
                                    Guitar Tabs application for iPhone,
                                    iPad or Android to access legitimate
                                    chords, guitar, bass, and drum tabs
                                    from Ultimate-Guitar.com database.

                                    Type "ultimate guitar tabs" in Apple
                                    App Store's or Android Market's
                                    search to find the application.
THIS IS NOT MY WORK! I GATHERED IT FROM PREVIOUSLY WRITTEN TABS FOR THE CONVENIENCE OF EVERYONE!


DISC 1

-----------
Custard Pie
-----------
Riff 1
======
1:---------------------------------|
2:-2-------------------2-----2-----|
3:-2-------------------2-----2-----|
4:-2-2-2-4-2-4-5-------2-----2-----|
5:-0-0-0-0-0-0-0-------0-----0-----|
6:-------------------------3-------|

1:---------------------------------|
2:-2-------------------2-----2-----|
3:-2-------------------2-----2-----|
4:-2-2-2-4-2-4-5-------2-----2-----|
5:-0-0-0-0-0-0-0-------0-----0-----|
6:-------------------------3-------|


Riff 2
======
1:---------------------------------|
2:---------------------------------|
3:-7-------------------------------|
4:-7-------------------------------|
5:-5-------------------------------|
6:---------------------------------|

1:---------------------------------|
2:---------------------------------|
3:---7-6-5-----------5-4-3---------|
4:---7-6-5-----------5-4-3---------|
5:---5-4-3-----------3-2-1---------|
6:---------------------------------|


Riff 3
======

1:---------------------------------|
2:-5---------------------------6---|
3:-4---------------------------7---|
4:-2---------------------------5---|
5:-0---------------------------0---|
6:---------------------------------|

1:---------------------------------|
2:---------------------------------|
3:---------------------------------|
4:---------------------3-------5---|
5:---------------------3-------5---|
6:---------------------1-------3---|


SONG STRUCTURE
==============
Intro
	Riff 1	x2
Verse 1
	Riff 1 x2
	Riff 2
	Riff 1
	Riff 3
	Riff 1
Verse 2
	Riff 1 x2
	Riff 2
	Riff 1
	Riff 3
	Riff 1
Verse 3
	Riff 1 x2
	Riff 2
	Riff 1
	Riff 3
Guitar Solo
	Riff 1 x3
	Riff 2
	Riff 1
	Riff 3
	Riff 1
Verse 4
	Riff 1 x2
	Riff 2
	Riff 1
	Riff 3
	Riff 1
Ending
	Riff 1 until end

---------
The Rover
----------------------------------------------------------------------|
|----------------|----------------|----------------|------------------|
|----------------|----------------|----------------|------------------|
|----------------|----------------|----------------|------------------|
|----------------|----------------|----------------|-------------2-2--|
|----------------|----------------|----------------|-------------2-2--|
|----------------|----------------|----------------|-------------0-0--|

|----------------|----------------|----------------|---2p0--0h2p0--0|
|----------------|----------------|----------------|-------5------5-|
|----------------|----------------|----------------|----------------|
|----------------|----------------|----------------|----------------|
|-2--------------|---------------5|-/7-------------|----------------|
|-0--------------|-3-3-5-5-3-5-3--|----------------|----------------|

|----------------|----------------|----------------|-----0----------|
|----------------|----------------|----------------|-----7p5--------|
|----------------|----------------|----------------|---------0------|
|-2--------------|----------------|----------------|---------7\5-2p0|
|-2--------------|---------------5|-/7-----------p0|----------------|
|-0--------------|-3-3-5-5-3-5-3--|----------------|----------------|

|----------------|----------------|----------------|----------------|
|----------------|----------------|----------------|----------------|
|---------3b-0---|----------------|---------3b-0---|----------------|
|----4b-2------2-|-2-0---0-2------|----4b-2------2-|-2-0---0-2------|
|----------------|----------------|----------------|----------------|
|-0--------------|-----------2b-0-|-0--------------|-----------2b-0-|

|----------------|----------------|----------------|----------------|
|----------------|----------------|----------------|----------------|
|---------3b-0---|----------------|---------3b-0---|----------------|
|----4b-2------2-|-2-0---0-2------|----4b-2------2-|-2-0---0-2------|
|----------------|----------------|----------------|----------------|
|-0--------------|-----------2b-0-|-0--------------|-----------2b-0-|

|----------------|----------------|----------------|----------------|
|----------------|----------------|----------------|----------------|
|--11--11\9-9--9-|-7----------7/12|\11-11-11-14-14-|-9----------9/12|
|--11--11\9-9--9-|-7----------7/12|\11-11-11-14-14-|-9----------9/12|
|---9---9\7-7--7-|-5----------5/10|\-9--9--9-12-12-|-7----------7/10|
|----------------|----------------|----------------|----------------|

|----------------|----------------|----------------|----------------|
|----------------|----------------|----------------|----------------|
|-\11--11\9-9--9-|-7----------7/12|\11-11-11-14-14-|-9----------9/12|
|-\11--11\9-9--9-|-7----------7/12|\11-11-11-14-14-|-9----------9/12|
|-\-9---9\7-7--7-|-5----------5/10|\-9--9--9-12-12-|-7----------7/10|
|----------------|----------------|----------------|----------------|

|----------------|----------------|----------------|----------------|
|----------------|----------------|----------------|----------------|
|\11-11-11--9--9-|-7--7-7-7\--6-6-|-4--4--4-4------|--------0-------|
|\11-11-11--9--9-|-7--7-7-7\--6-6-|-4--4--4-4------|----------------|
|\-9--9--9--7--7-|-5--5-5-5\--4-4-|-2--2--2-2------|--2-1-0---------|
|----------------|----------------|----------------|----------3-2-0-|

|----------------|----------------|----------------|----------------|
|----------------|----------------|----------------|---2b---0-------|
|---------3b-0---|----------------|---------3b-0---|----------0-----|
|----4b-2------2-|--2-0---0-2-----|----4b-2------2~|------------2---|
|----------------|----------------|----------------|----------------|
|-0--------------|-----------2b-0-|-0--------------|--------------0-|

|----------------|----------------|----------------|----------------|
|----------------|----------------|----------------|----------------|
|---------3b-0---|----------------|---------3b-0---|----------------|
|----4b-2------2-|--2-0---0-2-----|----4b-2------2-|--2-0---0-2-----|
|----------------|----------------|----------------|----------------|
|-0--------------|-----------2b-0-|-0--------------|-----------2b-0-|

|----------------|----------------|--------------9-|-7--------------|
|------10------9-|--7-------------|------10--------|----------------|
|----11------9---|----------------|----11-----11---|----------------|
|4-11------9-----|----------------|--11-----11-----|----------------|
|4---------------|----------------|----------------|----------------|
|2---------------|----------------|----------------|----------------|
|		 |		  |		   |		    |
|----------------|----------------|----------------|----------------|
|----------------|----------------|----------------|----------------|
|--11--11\9-9--9-|-7----------7/12|\11-11-11-14-14-|-9----------9/12|
|--11--11\9-9--9-|-7----------7/12|\11-11-11-14-14-|-9----------9/12|
|---9---9\7-7--7-|-5----------5/10|\-9--9--9-12-12-|-7-(10)r9---7/10|
|----------------|----------------|----------------|----------------|

|----------------|----------------|--------------9-|-7--------------|
|------10------9-|--7-------------|------10--------|----------------|
|----11------9---|----------------|----11-----11---|----------------|
|--11------9-----|----------------|--11-----11-----|----------------|
|----------------|----------------|----------------|----------------|
|----------------|----------------|----------------|----------------|
|		 |		  |		   |		    |
|----------------|----------------|----------------|----------------|
|----------------|----------------|----------------|----------------|
|-\11--11\9-9--9-|-7----------7/12|\11-11-11-14-14-|-9----------9/12|
|-\11--11\9-9--9-|-7----------7/12|\11-11-11-14-14-|-9----------9/12|
|-\-9---9\7-7--7-|-5----------5/10|\-9--9--9-12-12-|-7----------7/10|
|----------------|----------------|----------------|----------------|

|----------------|----------------|----------------|----------------|
|------10------9-|------7-------5-|------3---------|----------------|
|----11------9---|----7-------6---|----4-----------|----------------|
|--11------9-----|--7-------6-----|--4-------------|----------------|
|----------------|----------------|----------------|----------------|
|----------------|----------------|----------------|----------------|
|		 |		  |		   |		    |
|----------------|----------------|----------------|----------------|
|----------------|----------------|----------------|----------------|
|\11-11-11--9--9-|-7--7-7-7\--6-6-|-4--4--4-4------|----------------|
|\11-11-11--9--9-|-7--7-7-7\--6-6-|-4--4--4-4------|--------2b------|
|\-9--9--9--7--7-|-5--5-5-5\--4-4-|-2--2--2-2------|--2-1-0---------|
|----------------|----------------|----------------|----------3-2-0-|

|----------------|----------------|----------------|----------------|
|----------------|----------------|----------------|---2b---0-------|
|---------3b-0---|----------------|---------3b-0---|----------0-----|
|----4b-2------2-|--2-0---0-2-----|----4b-2------2~|------------2---|
|----------------|----------------|----------------|----------------|
|-0--------------|-----------2b-0-|-0--------------|--------------0-|

|----------------|----------------|----------------|----------------|
|----------------|----------------|----------------|----------------|
|---------3b-0---|----------------|---------3b-0---|----------------|
|----4b-2------2-|--2-0---0-2-----|----4b-2------2-|--2-0---0-2-----|
|----------------|----------------|----------------|----------------|
|-0--------------|-----------2b-0-|-0--------------|-----------2b-0-|

|----------------|----------------|--------------9-|-7--------------|
|------10------9-|--7-------------|------10--------|----------------|
|----11------9---|----------------|----11-----11---|----------------|
|4-11------9-----|----------------|--11-----11-----|----------------|
|4---------------|----------------|----------------|----------------|
|2---------------|----------------|----------------|----------------|
|		 |		  |		   |		    |
|----------------|----------------|----------------|----------------|
|----------------|----------------|----------------|----------------|
|--11--11\9-9--9-|-7----------7/12|\11-11-11-14-14-|-9----------9/12|
|--11--11\9-9--9-|-7----------7/12|\11-11-11-14-14-|-9----------9/12|
|---9---9\7-7--7-|-5----------5/10|\-9--9--9-12-12-|-7-(10)r9---7/10|
|----------------|----------------|----------------|----------------|

|----------------|----------------|--------------9-|-7--------------|
|------10------9-|--7-------------|------10--------|----------------|
|----11------9---|----------------|----11-----11---|----------------|
|--11------9-----|----------------|--11-----11-----|----------------|
|----------------|----------------|----------------|----------------|
|----------------|----------------|----------------|----------------|
|		 |		  |		   |		    |
|----------------|----------------|----------------|----------------|
|----------------|----------------|----------------|----------------|
|-\11--11\9-9--9-|-7----------7/12|\11-11-11-14-14-|-9-----9-11-9/12|
|-\11--11\9-9--9-|-7----------7/12|\11-11-11-14-14-|-9--9h11-11-9/12|
|-\-9---9\7-7--7-|-5----------5/10|\-9--9--9-12-12-|-79h11----9-7/10|
|----------------|----------------|----------------|----------------|

|----------------|----------------|----------------|----------------|
|------10------9-|------7-------5-|------3---------|----------------|
|----11------9---|----7-------6---|----4-----------|----------------|
|--11------9-----|--7-------6-----|--4-------------|----------------|
|----------------|----------------|----------------|----------------|
|----------------|----------------|----------------|----------------|
|		 |		  |		   |		    |
|----------------|----------------|----------------|----------------|
|----------------|----------------|----------------|----------------|
|\11-11-11--9--9-|-7--7-7-7\--6-6-|-4--4--4-4------|----------------|
|\11-11-11--9--9-|-7--7-7-7\--6-6-|-4--4--4-4------|--------2b------|
|\-9--9--9--7--7-|-5--5-5-5\--4-4-|-2--2--2-2------|--2-1-0---------|
|----------------|----------------|----------------|----------3-2-0-|

|----------------|----------------|----------------|----------------|
|-7-7-7--7--9-9\-|----------------|-7-7-7--7--9-9\-|----------------|
|-7-7-7--7--9-9\-|----------------|-7-7-7--7--9-9\-|----------------|
|-7-7-7--7--9-9\-|----------------|-7-7-7--7--9-9\-|----------------|
|-5-5-5--5--7-7\-|----------------|-5-5-5--5--7-7\-|----------------|
|----------------|-----------0----|----------------|-----------0----|

|----------------|----------------|----------------|----------------|
|-7-7-7--7--9-9\-|----------------|-7-7-7--7--9-9\-|----------------|
|-7-7-7--7--9-9\-|----------------|-7-7-7--7--9-9\-|----------------|
|-7-7-7--7--9-9\-|----------------|-7-7-7--7--9-9\-|----------------|
|-5-5-5--5--7-7\-|----------------|-5-5-5--5--7-7\-|----------------|
|----------------|-----------0----|----------------|-----------0----|

|----------------|----------------|----------------|----------------|
|----------------|----------------|----------------|----------------|
|----------------|----------------|----------------|--------------9-|
|----------------|----------------|----------------|--------9h11----|
|----------------|----------------|----------------|--9h11----------|
|----------------|----------------|----------------|----------------|
|		 |		  |		   |		    |
|----------------|----------------|----------------|----------------|
|-7-7-7--7--9-9\-|----------------|-7-7-7--7--9-9\-|----------------|
|-7-7-7--7--9-9\-|----------------|-7-7-7--7--9-9\-|----------------|
|-7-7-7--7--9-9\-|----------------|-7-7-7--7--9-9\-|----------------|
|-5-5-5--5--7-7\-|----------------|-5-5-5--5--7-7\-|----------------|
|----------------|-----------0----|----------------|-----------0----|

|----------------|----------------|----------------|----------------|
|----------------|----------------|----------------|----------------|
|----------------|----------------|----------------|-----------9-11\|
|----------------|----------------|----------------|------9h11------|
|----------------|----------------|----------------|-9h11-----------|
|----------------|----------------|----------------|----------------|
|		 |		  |		   |		    |
|----------------|----------------|----------------|----------------|
|-7-7-7--7--9-9\-|----------------|-7-7-7--7--9-9\-|----------------|
|-7-7-7--7--9-9\-|----------------|-7-7-7--7--9-9\-|----------------|
|-7-7-7--7--9-9\-|----------------|-7-7-7--7--9-9\-|----------------|
|-5-5-5--5--7-7\-|----------------|-5-5-5--5--7-7\-|----------------|
|----------------|-----------0----|----------------|-----------0----|

|----------------|----------------|----------------|----------------|
|----------------|----------------|----------------|9h10p9--9-10-12-|
|----------------|----------------|---------9--11--|------11--------|
|--------------7-|-9//11-9h11p9-7-|----9/11--------|----------------|
|----------7-9---|----------------|----------------|----------------|
|----5/7h9-------|----------------|----------------|----------------|

|-9--------------|----------------|----------------|-----------9----|
|---12-10b-9-----|----------------|---------9h10p9-|---9-10-12---12-|
|------------11-9|--------9-11-11-|-----9-11-------|-11-------------|
|----------------|---9h11---------|-9h11-----------|----------------|
|----------------|----------------|----------------|----------------|
|----------------|----------------|----------------|----------------|

|----------------|----------------|----------------|----------------|
|-9h10p9----9----|----------------|----------------|----------------|
|--------11--11p9|-11p9----9----9-|----------------|----------------|
|----------------|------11---11---|-11\9-x-7--11p9-|-7------7-9//11-|
|----------------|----------------|----------------|------9---------|
|----------------|----------------|----------------|----------------|

|----------------|----------------|----------------|---------14-----|
|----------------|----------------|----------------|------14----17--|
|-9-9-9-9--------|-9-9-9-9--------|-9-9-9-9--------|---16b----------|
|-----------9/11-|----------9//11-|----------------|----------------|
|----------------|----------------|----------------|----------------|
|----------------|----------------|----------------|----------------|

|-----17---------|-17----------17-|--------17------|----------------|
|-17b----r17-14--|----r17-14------|-r17-14----r17--|14-14-----------|
|----------------|----------------|----------------|-----16-14------|
|----------------|----------------|----------------|----------16-14-|
|----------------|----------------|----------------|----------------|
|----------------|----------------|----------------|----------------|

|----------------|----------------|----------------|----------------|
|----------------|----------------|----------------|----------------|
|---------3b-0---|----------------|---------3b-0---|-3b--3b--0------|
|----4b-2------2-|--2-0---0-2-----|----4b-2------2-|------------2---|
|----------------|----------------|----------------|----------------|
|-0--------------|-----------2b-0-|-0--------------|--------------0-|

|----------------|----------------|----------------|--------------0-|
|----------------|----------------|----------------|-------------0--|
|---------3b-0---|----------------|---------3b-0---|---------3b-0---|
|----4b-2------2-|--2-0---0-2-----|----4b-2------2-|-4b-4b-2--------|
|----------------|----------------|----------------|----------------|
|-0--------------|-----------2b-0-|-0--------------|----------------|

|----------------|----------------|--------------9-|-7--------------|
|------10------9-|--7-------------|------10--------|----------------|
|----11------9---|----------------|----11-----11---|----------------|
|--11------9-----|----------------|--11-----11-----|----------------|
|----------------|----------------|----------------|----------------|
|----------------|----------------|----------------|----------------|
|		 |		  |		   |		    |
|----------------|----------------|----------------|----------------|
|----------------|----------------|----------------|----------------|
|-\11--11\9-9--9-|-7----------7/12|\11-11-11-14-14-|-9-----9-11-9/12|
|-\11--11\9-9--9-|-7----------7/12|\11-11-11-14-14-|-9--9h11-11-9/12|
|-\-9---9\7-7--7-|-5----------5/10|\-9--9--9-12-12-|-79h11----9-7/10|
|----------------|----------------|----------------|----------------|

|----------------|----------------|--------------9-|-7--------------|
|------10------9-|--7-------------|------10--------|----------------|
|----11------9---|----------------|----11-----11---|----------------|
|4-11------9-----|----------------|--11-----11-----|----------------|
|4---------------|----------------|----------------|----------------|
|2---------------|----------------|----------------|----------------|
|		 |		  |		   |		    |
|----------------|----------------|----------------|----------------|
|----------------|----------------|----------------|----------------|
|--11--11\9-9--9-|-7----------7/12|\11-11-11-14-14-|-9----------9/12|
|--11--11\9-9--9-|-7----------7/12|\11-11-11-14-14-|-9----------9/12|
|---9---9\7-7--7-|-5----------5/10|\-9--9--9-12-12-|-7----------7/10|
|----------------|----------------|----------------|----------------|

|----------------|----------------|----------------|----------------|
|------10------9-|------7-------5-|------3---------|----------------|
|----11------9---|----7-------6---|----4-----------|----------------|
|--11------9-----|--7-------6-----|--4-------------|----------------|
|----------------|----------------|----------------|----------------|
|----------------|----------------|----------------|----------------|
|		 |		  |		   |		    |
|----------------|----------------|----------------|----------------|
|----------------|----------------|----------------|----------------|
|\11-11-11--9--9-|-7--7-7-7\--6-6-|-4--4--4-4------|----------------|
|\11-11-11--9--9-|-7--7-7-7\--6-6-|-4--4--4-4------|--------2b------|
|\-9--9--9--7--7-|-5--5-5-5\--4-4-|-2--2--2-2------|--2-1-0---------|
|----------------|----------------|----------------|----------3-2-0-|

|----------------|----------------|----------------|----------------|
|----------------|----------------|----------------|----------------|
|---------3b-0---|----------------|---------3b-0---|----------------|
|----4b-2------2-|-2-0---0-2------|----4b-2------2-|-2-0---0-2------|
|----------------|----------------|----------------|----------------|
|-0--------------|-----------2b-0-|-0--------------|-----------2b-0-|

|----------------|----------------|----------------|--------------0-|
|----------------|----------------|----------------|---------2----5-|
|---------3b-0---|----------------|---------3b-0---|-------3b--2h3--|
|----4b-2------2-|-2-0---0-2------|----4b-2------2-|-4b-4b----------|
|----------------|----------------|----------------|----------------|
|-0--------------|-----------2b-0-|-0--------------|----------------|

|----------------|----------------|--------------9-|-7--------------|
|------10------9-|--7-------------|------10--------|----------------|
|----11------9---|----------------|----11-----11---|----------------|
|--11------9-----|----------------|--11-----11-----|----------------|
|----------------|----------------|----------------|----------------|
|----------------|----------------|----------------|----------------|
|		 |		  |		   |		    |
|----------------|----------------|----------------|----------------|
|----------------|----------------|----------------|----------------|
|-\11--11\9-9--9-|-7----------7/12|\11-11-11-14-14-|-9-----9-11-9/12|
|-\11--11\9-9--9-|-7----------7/12|\11-11-11-14-14-|-9--9h11-11-9/12|
|-\-9---9\7-7--7-|-5----------5/10|\-9--9--9-12-12-|-79h11----9-7/10|
|----------------|----------------|----------------|----------------|

|----------------|----------------|--------------9-|-7--------------|
|------10------9-|--7-------------|------10--------|----------------|
|----11------9---|----------------|----11-----11---|----------------|
|4-11------9-----|----------------|--11-----11-----|----------------|
|4---------------|----------------|----------------|----------------|
|2---------------|----------------|----------------|----------------|
|		 |		  |		   |		    |
|----------------|----------------|----------------|----------------|
|----------------|----------------|----------------|----------------|
|--11--11\9-9--9-|-7----------7/12|\11-11-11-14-14-|-9----------9/12|
|--11--11\9-9--9-|-7----------7/12|\11-11-11-14-14-|-9----------9/12|
|---9---9\7-7--7-|-5----------5/10|\-9--9--9-12-12-|-7----------7/10|
|----------------|----------------|----------------|----------------|

|----------------|----------------|----------------|----------------|
|------10------9-|------7-------5-|------3---------|----------------|
|----11------9---|----7-------6---|----4-----------|----------------|
|--11------9-----|--7-------6-----|--4-------------|----------------|
|----------------|----------------|----------------|----------------|
|----------------|----------------|----------------|----------------|
|		 |		  |		   |		    |
|----------------|----------------|----------------|----------------|
|----------------|----------------|----------------|----------------|
|\11-11-11--9--9-|-7--7-7-7\--6-6-|-4--4--4-4------|----------------|
|\11-11-11--9--9-|-7--7-7-7\--6-6-|-4--4--4-4------|--------2b------|
|\-9--9--9--7--7-|-5--5-5-5\--4-4-|-2--2--2-2------|--2-1-0---------|
|----------------|----------------|----------------|----------3-2-0-|

|----------------|----------------|----------------|----------------|
|----------------|----------------|----------------|---2b---0-------|
|---------3b-0---|----------------|---------3b-0---|----------0-----|
|----4b-2------2-|--2-0---0-2-----|----4b-2------2~|------------2---|
|----------------|----------------|----------------|----------------|
|-0--------------|-----------2b-0-|-0--------------|--------------0-|

|----------------|----------------|----------------|----------------|
|----------------|----------------|------------0---|----------------|
|---------3b-0---|----------------|---------3b-3b--|-0-0------------|
|----4b-2------2-|--2-0---0-2-----|----4b-2--------|-----2-0--------|
|----------------|----------------|----------------|----------------|
|-0--------------|-----------2b-0-|-0--------------|----------------|

|----------------|----------------|----------------|----------0---0-|
|----------------|----------------|----------------|---------0---0-0|
|-------3b----2--|-------3b----2--|-------3b----2--|------3b--(4)---|
|-4b-4b----6b----|-4b-4b----6b----|-4b-4b----6b----|-4b-4b----------|
|----------------|----------------|----------------|----------------|
|----------------|----------------|----------------|----------------|

|----------------|----------------|----------------|----------------|
|----------------|----------------|----------------|----------------|
|----------------|----------------|-------------0--|-----0h2-2p0----|
|-----2-2-2-4-2--|-2-0-----0h2----|-0---0-0---0----|-0h2---------2--|
|-0h2------------|----------------|----------------|----------------|
|--------------0-|-----0----------|----------------|--------------0-|

|----------------|----------------|----------------|----------------|
|----------------|----------------|----------------|----------------|
|-----0h2-2-0----|-----0h2-2x0----|----0-0-----0-0-|-0-0h2p0--------|
|-0h2---------0h2|-0h2---------0h2|-0h2----0h2-----|---------2------|
|----------------|----------------|----------------|----------------|
|----------------|----------------|----------------|------------0---|

|----------------|----------------|----------------|----------------|
|----------------|----------------|----------------|---x------------|
|----0-0-----0-0-|-0-0h2p0--------|-0---5-5-----5-5|-5-7-5----------|
|-0h2----0h2-----|---------2------|-5h7-----5h7----|-------2--------|
|----------------|----------------|----------------|----------------|
|----------------|------------0---|----------------|------------0---|

Repeat final 2 measures until fade out
_____________________________________________________________________

Tablature Legend:

h	Hammer-on
p	Pull-off
b	Bend note
r	Return from bend
x	Dampened note
/	Slide up
\	Slide down
//	Gliss up
~	Vibrato
_____________________________________________________________________

Lyrics:
I've been to London, seen seven wonders
I know to trip is just to fall
I used to rock it, sometimes I'd roll it
I always knew what it was for

There can be no denying
That the wind will shake 'em down
And the flat world's flying
There's a new plague on the land

If we could just join hands
If we could just join hands
If we could just join...

Traversed the planet
When heaven sent me
I saw the kings who rule them all
Still by the firelight
And purple moonlight
I hear the rested rivers call
And the wind is crying
From a love that won't grow cold
My lover, she is lying,
On the dark side of the globe

If we could just join hands
If we could just join hands
If we could just join hands

Yeah yeah, yeah yeah, yeah yeah, yeah yeah,
Yeah yeah, yeah yeah, yeah yeah,

You got me rockin' when I ought to be a-rollin'
Darlin', tell me, darlin', which way to go
You keep me rockin', baby, then you keep me stolen
Won't you tell me, darlin', which way to go

That's right

Oh how I wonder
Oh how I worry
And I would dearly like to know
I've all this wonder
Of earthly plunder
Will it leave us anything to show

And our time is flying
See the candle burning low
Is the new world rising,
From the shambles of the old

If we could just join hands
If we could just join hands
If we could just, if we could just,
If we could just, if we could just,
If we could just join hands

Hey, that's all it takes, that's all it takes
That's all it takes, that's all it takes

Yeah yeah, yeah yeah, yeah yeah, yeah yeah,
Yeah yeah, yeah yeah, yeah yeah, yeah yeah,
Yeah yeah, yeah yeah, yeah yeah, yeah yeah,
Yeah yeah, ooh yeah

Aah! Aah!
That's right! That's right!
That's right! That's right!

-------------------
In My Time of Dying
-------------------
*Standard Tuning*

Intro
         (A)
 4/4
  Gtr I
|----------|---------------|---------------------|
|----------|---------------|-------3s12-(12)-----|
|--------3s|=2-0-2s3s5---0-|-3s2-0-3s12-(12)---3s|
|----------|-----2s3s5---0-|-3s2-0-3s12-(12)---3s|
|----------|---------------|---------------------|
|----------|---------------|---------------------|


|---------------|-----------------|
|---------------|-----------------|
|-2-0-2s3s5---0-|-3---0-(0)---3s==|
|-2-0-2s3s5---0-|-3---0-(0)---3s==|
|---------------|-----------------|
|---------------|-----------------|


|---------------|---------------------|---------------|--------------|--------|
|---------------|-------3s12-(12)-----|---------------|--------------|--------|
|-2-0-2s3s5---0-|-3s2-0-3s12-(12)---3s|=2-0-2s3s5---0-|-3s==0-(0)----|-(0)----|
|-2-0-2s3s5---0-|-3s2-0-3s12-(12)---3s|=2-0-2s3s5---0-|-3s==0-(0)----|-(0)----|
|---------------|---------------------|---------------|--------------|--------|
|---------------|---------------------|---------------|--------------|--------|


  A5C5 D5      (A)                       A5C5 D5      (A)
|----------------|---------------------|----------------|---------------------|
|----------------|---------------------|----------------|---------------------|
|-0-3--5-(5)---0-|-3s7-0-3s5-3-(3)--0--|-0-3--5-(5)---0-|-3s7-0-3s5-3-(3)---0-|
|-0-3--5-(5)-----|---------------------|-0-3--5-(5)-----|---------------------|
|-0-3--5-(5)-----|---------------------|-0-3--5-(5)-----|---------------------|
|----------------|---------------------|----------------|---------------------|


  A5C5 D5      (A)
|----------------|----------------------|
|----------------|----------------------|
|-0-3--5-(5)---0-|-3s7-0-3s5-3-(3)--0-0s|
|-0-3--5-(5)-----|--------------------0s|
|-0-3--5-(5)-----|----------------------|
|----------------|----------------------|


|-----------------------|--------------------------|
|-----------------------|--------------------------|
|-7-0-3s5-0-2s3-0-0-5s7-|-(7)-0-3s5-0-2s3-0-0-5s7--|
|-7---3s5---2s3-----5s7-|-(7)---3s5---2s3-----5s7--|
|-----------------------|--------------------------|
|-----------------------|--------------------------|


|-------------------------|------------------------|
|-------------------------|------------------------|
|-(7)-0-3s5-0-2s3-0-0-5s7-|-(7)-0-3s5-0-2s3-0-0s12-|
|-(7)---3s5---2s3-----5s7-|-(7)---3s5---2s3---0s12-|
|-------------------------|------------------------|
|-------------------------|------------------------|


|---------------------------|---------------------------|
|----------------------3s12-|-(12)----------------------|
|-(12)-0-3s5-0-2s3-0-0-3s12-|-(12)-0-3s5-0-2s3-0-0-5s7--|
|-(12)---3s5---2s3-----3s12-|-(12)---3s5---2s3----------|
|---------------------------|---------------------------|
|---------------------------|---------------------------|


                                             D5                         (A)
|-----------------------|----------------------|------------|--------------|
|-----------------------|----------------------|------------|--------------|
|-(7)-0-3s5-0-2s3-0-0-7s|=12-0-3s5-0-2s3-0-0-5-|-(5)--------|-(5)-------3s=|
|-------3s5---2s3-------|------3s5---2s3-----5-|-(5)--------|-(5)-------3s=|
|-----------------------|--------------------5-|-(5)--------|-(5)----------|
|-----------------------|----------------------|------------|--------------|


   Verses 1 & 2
||----------------|---------------------|---------------|-------------|
||o---------------|-------3s12-(12)-----|---------------|-------------|
||--2-0-2s3s5---0-|-3s2-0-3s12-(12)---3s|=2-0-2s3s5---0-|-3s===0---3s=|
||--2-0-2s3s5---0-|-3s2-0-3s12-(12)---3s|=2-0-2s3s5---0-|-3s===0---3s=|
||o---------------|---------------------|---------------|-------------|
||----------------|---------------------|---------------|-------------|


|---------------|---------------------|---------------|-----------|--------|
|---------------|-------3s12-(12)-----|---------------|-----------|--------|
|-2-0-2s3s5---0-|-3s2-0-3s12-(12)---3s|=2-0-2s3s5---0-|-3s===0----|-(0)----|
|-2-0-2s3s5---0-|-3s2-0-3s12-(12)---3s|=2-0-2s3s5---0-|-3s===0----|-(0)----|
|---------------|---------------------|---------------|-----------|--------|
|---------------|---------------------|---------------|-----------|--------|


  A5C5 D5               (A)         A5C5 D5      (A)
|---------------|-----------------|----------------|-----------------------|
|---------------|-----------------|----------------|-----------------------|
|-0-3--5-(5)----|-(5)---3-(3)s=0--|-0-3--5-(5)---0-|-3s7-0-3s5-3-(3)s===2--|
|-0-3--5-(5)----|-(5)---3-(3)s=0--|-0-3--5-(5)-----|-----------------------|
|-0-3--5-(5)----|-(5)-------------|-0-3--5-(5)-----|-----------------------|
|---------------|-----------------|----------------|-----------------------|


  A5C5 D5      (A)
|----------------|----------------------|
|----------------|----------------------|
|-0-3--5-(5)---0-|-3s7-0-3s5-3-(3)--0-0s|
|-0-3--5-(5)-----|--------------------0s|
|-0-3--5-(5)-----|----------------------|
|----------------|----------------------|


|-----------------------|--------------------------|
|-----------------------|--------------------------|
|-7-0-3s5-0-2s3-0-0-5s7-|-(7)-0-3s5-0-2s3-0-0-5s7--|
|-7---3s5---2s3-----5s7-|-(7)---3s5---2s3-----5s7--|
|-----------------------|--------------------------|
|-----------------------|--------------------------|


|-------------------------|------------------------|
|-------------------------|------------------------|
|-(7)-0-3s5-0-2s3-0-0-5s7-|-(7)-0-3s5-0-2s3-0-0s12-|
|-(7)---3s5---2s3-----5s7-|-(7)---3s5---2s3---0s12-|
|-------------------------|------------------------|
|-------------------------|------------------------|


|---------------------------|---------------------------|
|----------------------3s12-|-(12)----------------------|
|-(12)-0-3s5-0-2s3-0-0-3s12-|-(12)-0-3s5-0-2s3-0-0-5s7--|
|-(12)---3s5---2s3-----3s12-|-(12)---3s5---2s3----------|
|---------------------------|---------------------------|
|---------------------------|---------------------------|


                                             D5
|-----------------------|----------------------|------------|--------------||
|-----------------------|----------------------|------------|--------------||
|-(7)-0-3s5-0-2s3-0-0-7s|=12-0-3s5-0-2s3-0-0-5-|-(5)--------|-(5)-------3s=||
|-------3s5---2s3-------|------3s5---2s3-----5-|-(5)--------|-(5)-------3s=||
|-----------------------|--------------------5-|-(5)--------|-(5)----------||
|-----------------------|----------------------|------------|--------------||


  1.
|---------------|-----------------12----|---------------|-----------------|
|---------------|-------3s12-(12)-------|---------------|-----------------|
|-2-0-2s3s5---0-|-3s2-0-3s12-(12)-----3s|=2-0-2s3s5---0-|-3s==0-(0)---3s==|
|-2-0-2s3s5---0-|-3s2-0-3s12-(12)-----3s|=2-0-2s3s5---0-|-3s==0-(0)---3s==|
|---------------|-----------------------|---------------|-----------------|
|---------------|-----------------------|---------------|-----------------|


|---------------|---------------------|---------------|--------------||
|---------------|-------3s12-(12)-----|---------------|-------------o||
|-2-0-2s3s5---0-|-3s2-0-3s12-(12)---3s|=2-0-2s3s5---0-|-3-------3\---||
|-2-0-2s3s5---0-|-3s2-0-3s12-(12)---3s|=2-0-2s3s5---0-|-3-------3\---||
|---------------|---------------------|---------------|-------------o||
|---------------|---------------------|---------------|--------------||


  2.100
  D7  D13D7  D13  D7  D13D7  D13
|-8-8-7--8-8-7--|-8-8-7--8-8-7--|
|-8-8-7--8-8-7--|-8-8-7--8-8-7--|
|-5-5-5--5-5-5--|-5-5-5--5-5-5--|
|-5-5-5--5-5-5--|-5-5-5--5-5-5--|
|-5-5-5--5-5-5--|-5-5-5--5-5-5--|
|---------------|---------------|


   (A)
|---------------------------|---------------------------|
|---------------------------|---------------------------|
|--3-2-0-3-2-0-0-5-3-0-(0)--|--3-2-0-3-2-0-0-5-3-0-(0)--|
|--3-2-0-3-2-0-0-5-3-0-(0)--|--3-2-0-3-2-0-0-5-3-0-(0)--|
|---------------------------|---------------------------|
|---------------------------|---------------------------|


                             9/8
|---------------------------|-----------------------------|
|---------------------------|-----------------------------|
|--3-2-0-3-2-0-0-5-3-0-(0)--|--3-2-0-3-2-0-0-5-3-0-(0)----|
|--3-2-0-3-2-0-0-5-3-0-(0)--|--3-2-0-3-2-0-0-5-3-0-(0)----|
|---------------------------|-----------------------------|
|---------------------------|-----------------------------|


   Verse 3
    D7  D13D7  D13  D7  D13D7  D13  D7  D13D7  D13  D7  D13D7  D13
   4/4
||--8-8-7--8-8-7--|-8-8-7--8-8-7--|-8-8-7--8-8-7--|-8-8-7--8-8-7-------|
||o-8-8-7--8-8-7--|-8-8-7--8-8-7--|-8-8-7--8-8-7--|-8-8-7--8-8-7-0-0-0-|
||--5-5-5--5-5-5--|-5-5-5--5-5-5--|-5-5-5--5-5-5--|-5-5-5--5-5-5-0-0-0-|
||--5-5-5--5-5-5--|-5-5-5--5-5-5--|-5-5-5--5-5-5--|-5-5-5--5-5-5-0-0-0-|
||o-5-5-5--5-5-5--|-5-5-5--5-5-5--|-5-5-5--5-5-5--|-5-5-5--5-5-5-0-0-0-|
||----------------|---------------|---------------|--------------------|


   (A)
|---------------------------|---------------------------|
|---------------------------|---------------------------|
|--3-2-0-3-2-0-0-5-3-0-(0)--|--3-2-0-3-2-0-0-5-3-0-(0)--|
|--3-2-0-3-2-0-0-5-3-0-(0)--|--3-2-0-3-2-0-0-5-3-0-(0)--|
|---------------------------|---------------------------|
|---------------------------|---------------------------|


                             9/8
|---------------------------|------------------------------||
|---------------------------|-----------------------------o||
|--3-2-0-3-2-0-0-5-3-0-(0)--|--3-2-0-3-2-0-0-5-3-0-(0)-----||
|--3-2-0-3-2-0-0-5-3-0-(0)--|--3-2-0-3-2-0-0-5-3-0-(0)-----||
|---------------------------|-----------------------------o||
|---------------------------|------------------------------||


  D7  D13D7  D13  D7  D13D7  D13  C7  C13C7  C13  C7  C13C7  C13
 4/4
|-8-8-7--8-8-7--|-8-8-7--8-8-7--|-6-6-5--6-6-5--|-6-6-5--6-6-5---|
|-8-8-7--8-8-7--|-8-8-7--8-8-7--|-6-6-5--6-6-5--|-6-6-5--6-6-5---|
|-5-5-5--5-5-5--|-5-5-5--5-5-5--|-3-3-3--3-3-3--|-3-3-3--3-3-3---|
|-5-5-5--5-5-5--|-5-5-5--5-5-5--|-3-3-3--3-3-3--|-3-3-3--3-3-3---|
|-5-5-5--5-5-5--|-5-5-5--5-5-5--|-3-3-3--3-3-3--|-3-3-3--3-3-3---|
|---------------|---------------|---------------|----------------|


   (A)
|---------------------------|---------------------------|
|---------------------------|---------------------------|
|--3-2-0-3-2-0-0-5-3-0-(0)--|--3-2-0-3-2-0-0-5-3-0-(0)--|
|--3-2-0-3-2-0-0-5-3-0-(0)--|--3-2-0-3-2-0-0-5-3-0-(0)--|
|---------------------------|---------------------------|
|---------------------------|---------------------------|


|---------------------------|-----------------------------|
|---------------------------|-----------------------------|
|--3-2-0-3-2-0-0-5-3-0-(0)--|--3-2-0-3-2-0-0-5-3-0-(0)----|
|--3-2-0-3-2-0-0-5-3-0-(0)--|--3-2-0-3-2-0-0-5-3-0-(0)----|
|---------------------------|-----------------------------|
|---------------------------|-----------------------------|


 First Guitar Solo
|------------------------------------|---------------------------------------|
|------------------------------------|---------------------------------------|
|--3-0-2s3-0-0-0-3s0-----0-(0)-0-0-0-|-0-0-3s0-----0-0-0-3s0-----0-0-7s12s3--|
|--3-0-2s3-------3s0-2s3-0-(0)-------|-----3s0-2s3-------3s0-2s3-0-0-7s12s3--|
|------------------------------------|---------------------------------------|
|------------------------------------|---------------------------------------|


|----------------------------------|--------------------------------------|
|----------------------------------|--------------------------------------|
|--0-3-0-3-0-0-0-3-2s3-0-(0)-12s10-|-(10)-0-3-0---0-0-0-2s3-0-2s3-0-(0)-0-|
|----3-0-3-------------------------|--------3-0-3-----------------0-(0)-0-|
|----------------------------------|--------------------------------------|
|----------------------------------|--------------------------------------|


|---------------------------|---------------------------|
|---------------------------|---------------------------|
|-3s2-0s5-(5)-3s2-0s7-3s2-0-|-3s2-0s5-(5)-3s2-0s7-3s2-0-|
|---------------------------|---------------------------|
|---------------------------|---------------------------|
|---------------------------|---------------------------|


|----------------------------------------|
|---------------------------12-12---12s5-|
|-6-7-0-6-7-0-9-10-0-9-10-0-12-12-0-12s5-|
|----------------------------------------|
|----------------------------------------|
|----------------------------------------|


|---------------------------------------|
|--------------10s12-(12)---------------|
|--0-0-0-3s2-0-10s12-(12)-0-0-0-3s2-0-0-|
|-------------------------------3s2-0-0-|
|---------------------------------------|
|---------------------------------------|


|----------------12------------12-11-------------15-|

|----------11s12----11s12-(12)-------12-15-15-15----|
|-0-7S12-0-11s12----11s12-(12)-------------15-------|
|-0-7S12-0------------------------------------------|
|---------------------------------------------------|
|---------------------------------------------------|


|-------15-------15-------12-------12-------12----|
|----15----15-15----11-12----11-12----11-12----3--|
|-15-------15-------------------------------------|
|-------------------------------------------------|
|-------------------------------------------------|
|-------------------------------------------------|


|---5-----8-----8-----8-----8-----|-5-5-3-3-------------------------|
|-5---4-5-8-7-8-8-7-8---7-8---4-5-|---5-3-3-------------------------|
|---------------------------------|---------3-3-0-3s2-0-3-2-0-0-0-0-|
|---------------------------------|---------------3s2-0-3-2-0-0-0-0-|
|---------------------------------|---------------------------------|
|---------------------------------|---------------------------------|


|---------------------------------------|------------------------------------|
|---------------------------------------|------------------------------------|
|-0-0-2s3-0-0-0-0-0-2s3-0-2s3-0-(0)-0-0-|-0-2s3-0-(0)-0-0-0-3s2-0-5-(5)-5-0--|
|-0-0-2s3-0-0-----------------0-(0)-----|-0-2s3-0-(0)-------3s2-0-5-(5)-5-0--|
|---------------------------------------|------------------------------------|
|---------------------------------------|------------------------------------|


|-----------------------------2-|-3---2-3-------2-3---2-3----------|
|-----------------------------2-|-3---2-3--------------------------|
|-0-2s3-0-0-0-3-0-0-0-(0)-0-0---|---0-----0-0-0-----0-----0-0-0-0--|
|-0-2s3-0-0-0-3-0-0-0-(0)-------|----------------------------------|
|-------------------------------|----------------------------------|
|-------------------------------|----------------------------------|


|------------12----12----12----12----12----12----12-|
|-7s12-12-12----12----12----12----12----12----12-12-|
|-7s12----------12----12----12----12----12----12----|
|---------------------------------------------------|
|---------------------------------------------------|
|---------------------------------------------------|


 9/8
|-12-15-15-15----15-15-15----15-15-------15-15s10---|
|-------------15----------15-------15-15----15s10---|
|---------------------------------------------------|
|---------------------------------------------------|
|---------------------------------------------------|
|---------------------------------------------------|


   Verse 4
    D7  D13D7  D13  D7  D13D7  D13  D7  D13D7  D13  D7  D13D7  D13
   4/4
||--8-8-7--8-8-7--|-8-8-7--8-8-7--|-8-8-7--8-8-7--|-8-8-7--8-8-7-------|
||o-8-8-7--8-8-7--|-8-8-7--8-8-7--|-8-8-7--8-8-7--|-8-8-7--8-8-7-0-0-0-|
||--5-5-5--5-5-5--|-5-5-5--5-5-5--|-5-5-5--5-5-5--|-5-5-5--5-5-5-0-0-0-|
||--5-5-5--5-5-5--|-5-5-5--5-5-5--|-5-5-5--5-5-5--|-5-5-5--5-5-5-0-0-0-|
||o-5-5-5--5-5-5--|-5-5-5--5-5-5--|-5-5-5--5-5-5--|-5-5-5--5-5-5-0-0-0-|
||----------------|---------------|---------------|--------------------|


   (A)
|---------------------------|---------------------------|
|---------------------------|---------------------------|
|--3-2-0-3-2-0-0-5-3-0-(0)--|--3-2-0-3-2-0-0-5-3-0-(0)--|
|--3-2-0-3-2-0-0-5-3-0-(0)--|--3-2-0-3-2-0-0-5-3-0-(0)--|
|---------------------------|---------------------------|
|---------------------------|---------------------------|


                             9/8
|---------------------------|------------------------------||
|---------------------------|-----------------------------o||
|--3-2-0-3-2-0-0-5-3-0-(0)--|--3-2-0-3-2-0-0-5-3-0-(0)-----||
|--3-2-0-3-2-0-0-5-3-0-(0)--|--3-2-0-3-2-0-0-5-3-0-(0)-----||
|---------------------------|-----------------------------o||
|---------------------------|------------------------------||


  D7  D13D7  D13  D7  D13D7  D13  C7  C13C7  C13  C7  C13C7  C13
 4/4
|-8-8-7--8-8-7--|-8-8-7--8-8-7--|-6-6-5--6-6-5--|-6-6-5--6-6-5---|
|-8-8-7--8-8-7--|-8-8-7--8-8-7--|-6-6-5--6-6-5--|-6-6-5--6-6-5---|
|-5-5-5--5-5-5--|-5-5-5--5-5-5--|-3-3-3--3-3-3--|-3-3-3--3-3-3---|
|-5-5-5--5-5-5--|-5-5-5--5-5-5--|-3-3-3--3-3-3--|-3-3-3--3-3-3---|
|-5-5-5--5-5-5--|-5-5-5--5-5-5--|-3-3-3--3-3-3--|-3-3-3--3-3-3---|
|---------------|---------------|---------------|----------------|


   (A)
|---------------------------|---------------------------|
|---------------------------|---------------------------|
|--3-2-0-3-2-0-0-5-3-0-(0)--|--3-2-0-3-2-0-0-5-3-0-(0)--|
|--3-2-0-3-2-0-0-5-3-0-(0)--|--3-2-0-3-2-0-0-5-3-0-(0)--|
|---------------------------|---------------------------|
|---------------------------|---------------------------|


|---------------------------|-----------------------------|
|---------------------------|-----------------------------|
|--3-2-0-3-2-0-0-5-3-0-(0)--|--3-2-0-3-2-0-0-5-3-0-(0)----|
|--3-2-0-3-2-0-0-5-3-0-(0)--|--3-2-0-3-2-0-0-5-3-0-(0)----|
|---------------------------|-----------------------------|
|---------------------------|-----------------------------|


 Second Guitar Solo
|-------------------------------------------|
|-------------------------------------------|
|-0-0-2s3-0-2s3-0-0-0-2s3-0-----0-(0)-0-0-0-|
|-0-0-2s3-0-2s3-0-0-0-2s3-0-2s3-0-(0)-0-0-0-|
|-------------------------------------------|
|-------------------------------------------|


|---------------------------------------|
|---------------------------------------|
|-0-0-2s3-0-----0-0-0-2s3-0-----0-0-12s=|
|-0-0-2s3-0-2s3-0-0-0-2s3-0-2s3-0-0-12s=|
|---------------------------------------|
|---------------------------------------|


|----------------------------------------|
|----------------------------------------|
|-3-0-2s3-0-2s3-0-0-0-----------0-(0)-12s|
|-3-0-2s3-0-2s3-0-0-0-2s3-0-2s3-0-(0)-12s|
|----------------------------------------|
|----------------------------------------|


|---------------------------------------|
|---------------------------------------|
|-3-0-2s3-0-2s3-0-0-0-----------0-(0)-0-|
|-3-0-2s3-0-2s3-0-0-0-2s3-0-2s3-0-(0)-0-|
|---------------------------------------|
|---------------------------------------|


|-----------5s3-----5s3-----5s3-----|-5s3-----------------------------|
|-----------------------------------|---------------------------------|
|-2-3-2-3s2-------------------------|--------------------3-0-0-0-0-0--|
|-2-3-2-3s2-----5s3-----5s3-----5s3-|-----5s3------0-3-0--------------|
|-----------------------------------|----------0-3--------------------|
|-----------------------------------|---------------------------------|


|---------------------------------|
|---------------------------------|
|-2s3-2-0-3s5-(5)-0-3s5-0-2s3-2-0-|
|-----------------------0-2s3-2-0-|
|---------------------------------|
|---------------------------------|


|----------------12-------15-------12---------|
|-8-8-8-10s12-12----14-15----11-12------------|
|-------------------------------------12s10-0-|
|---------------------------------------------|
|---------------------------------------------|
|---------------------------------------------|


|-----------------------------|-----------------------------------------------|
|-----------------------------|-----------------------------------------------|
|-6-7-0-5-(5)-5-0-3s2-0-------|-6-7-0-3s5-(5)-5-0-3s2-0-7s12-(12)-12-12-12s10-|
|-----------------3s2-0-------|-------------------------7s12-(12)-12-12-------|
|-----------------------3s2-0-|-----------------------------------------------|
|-----------------------------|-----------------------------------------------|


|--------------------------------------------|
|--------------------------------------------|
|--12s10--10s12s7--0-2s3-2-0-3s5-0-0-2s3-2-0-|
|--------------------------------------------|
|--------------------------------------------|
|--------------------------------------------|


|----------------------------------|
|----------------------------------|
|---------0-2s3-0-0-0-6-7-3-2-0-0--|
|----------------------------------|
|-2s3-0-3--------------------------|
|----------------------------------|


|--------------------------------------------------------|
|-----------------------------------------------------11-|
|-0-10s12-10s12-(12)-10s12-12s10-(10)-10-0-10s12-10-0-11-|
|--------------------------------------------------------|
|--------------------------------------------------------|
|--------------------------------------------------------|


|----12-------12-------------------------|
|-12----11-12----11-12-3-3-2-0-0---------|
|-12-----------------------------3-2-0-0-|
|----------------------------------------|
|----------------------------------------|
|----------------------------------------|


|-------12----12----12----12----12----12----12----|
|-10s12-12-12-12-12-12-12-12-12-12-12-12-12-12-12-|
|-10s12----12----12----12----12----12----12----12-|
|-10s12-------------------------------------------|
|-------------------------------------------------|
|-------------------------------------------------|


|----15-15-15-15-15-15-15----------15-15-15-15s10----|
|-12-15-15----15-15-15-15-15-15-15----15-15-15s10-0--|
|-12-15-15----15-15-15-15-15-15-15----15-15-15s10----|
|----------------------------------------------------|
|----------------------------------------------------|
|----------------------------------------------------|


|--------------------------|--------------------------|
|--------------------------|--------------------------|
|--3-2-0-3-2-0-3-2-0-3-0---|--3-2-0-3-2-0-3-2-0-3-0---|
|--3-2-0-3-2-0-3-2-0-3-0---|--3-2-0-3-2-0-3-2-0-3-0---|
|--------------------------|--------------------------|
|--------------------------|--------------------------|


|--------------------------|--------------------------|
|--------------------------|--------------------------|
|--3-2-0-3-2-0-3-2-0-3-0---|--3-2-0-3-2-0-3-2-0-3-0---|
|--3-2-0-3-2-0-3-2-0-3-0---|--3-2-0-3-2-0-3-2-0-3-0---|
|--------------------------|--------------------------|
|--------------------------|--------------------------|


 Verse 5
  A5C5 D5         (A)               A5C5 D5          (A)
|---------------|-----------------|----------------|---------------------|
|---------------|-------------0---|----------------|---------------------|
|-0-3--5-(5)----|-5-5-3-0-(0)-----|-0-3--5-(5)--5--|-5-3--0-(0)-3s12s=3--|
|-0-3--5-(5)----|-5-5-3-0-(0)-----|-0-3--5-(5)--5--|-5-3--0-(0)-3s12s=3--|
|---------------|-----------------|----------------|---------------------|
|---------------|-----------------|----------------|---------------------|


  A5C5 D5           (A)                  A5C5 D5            (A)
|-----------------|--------------------|------------------|--------------------|
|-----------------|--------------------|------------------|--------------------|
|-0-3--5-(5)-5-5--|-5-3--0-(0)-3s12s=3-|-0-3--5-(5)-5-5-5-|-5-3--0-(0)-3s12s=3-|
|-0-3--5-(5)-5-5--|-5-3--0-(0)-3s12s=3-|-0-3--5-(5)-5-5-5-|-5-3--0-(0)-3s12s=3-|
|-----------------|--------------------|------------------|--------------------|
|-----------------|--------------------|------------------|--------------------|


  A5C5 D5          (A)                  A5C5 D5         (A)
|----------------|--------------------|---------------|--------------------|
|----------------|--------------------|---------------|--------------------|
|-0-3--5-(5)--5--|-5-3--0-(0)-3s12s=3-|-0-3--5-(5)----|-5-3--0-(0)-3s12s=3-|
|-0-3--5-(5)--5--|-5-3--0-(0)-3s12s=3-|-0-3--5-(5)----|-5-3--0-(0)-3s12s=3-|
|----------------|--------------------|---------------|--------------------|
|----------------|--------------------|---------------|--------------------|


  A5C5 D5           (A)                  A5C5 D5          (A)
|-----------------|--------------------|----------------|------------------|
|-----------------|--------------------|----------------|------------------|
|-0-3--5-(5)--5-5-|-5-3--0-(0)-3s12s=3-|-0-3--5-(5)---3-|-5-3-5-3-5-3-0-0--|
|-0-3--5-(5)--5-5-|-5-3--0-(0)-3s12s=3-|-0-3--5-(5)---3-|-5-3-5-3-5-3-0-0--|
|-----------------|--------------------|----------------|------------------|
|-----------------|--------------------|----------------|------------------|


|-----------------------|-----------------------|
|-----------------------|-----------------------|
|-3s7-0-3s5-0-3s0-0-3s7-|-(7)-0-3s5-0-3s0-0-3s7-|
|-------------3s0-------|-------------3s0-------|
|-----------------------|-----------------------|
|-----------------------|-----------------------|


|-----------------------|------------------------|
|-----------------------|------------------------|
|-(7)-0-3s5-0-3s0-0-3s7-|-(7)-0-3s5-0-3s0-0-3s12-|
|-------------3s0-------|-------------3s0--------|
|-----------------------|------------------------|
|-----------------------|------------------------|


|-------------------------|-------------------------|
|-------------------------|-------------------------|
|-(12)-0-3s5-0-3s0-0-3s12-|-(12)-0-3s5-0-3s0-0-3s12-|
|--------------3s0--------|--------------3s0--------|
|-------------------------|-------------------------|
|-------------------------|-------------------------|


                                               D5
|-------------------------|------------------------|
|-------------------------|------------------------|
|-(12)-0-3s5-0-3s0-0-3s12-|-(12)-0-3s5-0-3s0-0-5---|
|--------------3s0--------|--------------3s0---5---|
|-------------------------|--------------------5---|
|-------------------------|------------------------|


 Outro
|------------|------------|------------|------------|------------|--------|
|------------|------------|------------|------------|------------|--------|
|-(5)--------|-(5)--------|-(5)--------|-(5)--------|-(5)--------|-(5)----|
|-(5)--------|-(5)--------|-(5)--------|-(5)--------|-(5)--------|-(5)----|
|-(5)--------|-(5)--------|-(5)--------|-(5)--------|-(5)--------|-(5)----|
|------------|------------|------------|------------|------------|--------|


         (A)
|----------|---------------|---------------------|
|----------|---------------|-------3s12-(12)-----|
|--------3s|=2-0-2s3s5---0-|-3s2-0-3s12-(12)---3s|
|--------3s|=2-0-2s3s5---0-|-3s2-0-3s12-(12)---3s|
|----------|---------------|---------------------|
|----------|---------------|---------------------|


|---------------|------------------|
|---------------|------------------|
|-2-0-2s3s5---0-|-3s==0-(0)---3s===|
|-2-0-2s3s5---0-|-3s==0-(0)---3s===|
|---------------|------------------|
|---------------|------------------|


|---------------|---------------------|---------------|-----------------|
|---------------|-------3s12-(12)-----|---------------|-----------------|
|-2-0-2s3s5---0-|-3s2-0-3s12-(12)---3s|=2-0-2s3s5---0-|-3s==0-(0)---3s==|
|-2-0-2s3s5---0-|-3s2-0-3s12-(12)---3s|=2-0-2s3s5---0-|-3s==0-(0)---3s==|
|---------------|---------------------|---------------|-----------------|
|---------------|---------------------|---------------|-----------------|


|---------------|---------------------|---------------|----------------------|
|---------------|-------3s12-(12)-----|---------------|-------3s12-(12)------|
|-2-0-2s3s5---0-|-3s2-0-3s12-(12)---3s|=2-0-2s3s5---0-|-3s2-0-3s12-(12)---3s=|
|-2-0-2s3s5---0-|-3s2-0-3s12-(12)---3s|=2-0-2s3s5---0-|-3s2-0-3s12-(12)---3s=|
|---------------|---------------------|---------------|----------------------|
|---------------|---------------------|---------------|----------------------|


|---------------|---------------------|---------------|--------------|--------|
|---------------|-------3s12-(12)-----|---------------|--------------|--------|
|-2-0-2s3s5---0-|-3s2-0-3s12-(12)---3s|=2-0-2s3s5---0-|-3s==0-(0)----|-(0)----|
|-2-0-2s3s5---0-|-3s2-0-3s12-(12)---3s|=2-0-2s3s5---0-|-3s==0-(0)----|-(0)----|
|---------------|---------------------|---------------|--------------|--------|
|---------------|---------------------|---------------|--------------|--------|


|-----------------------|-----------------------|
|-----------------------|-----------------------|
|-3s7-0-3s5-0-3s0-0-3s7-|-(7)-0-3s5-0-3s0-0-3s7-|
|-------------3s0-------|-------------3s0-------|
|-----------------------|-----------------------|
|-----------------------|-----------------------|


|------------------------|-------------------------|
|------------------------|-------------------------|
|-(7)-0-3s5-0-3s0-0-3s12-|-(12)-0-3s5-0-3s0-0-3s12-|
|-------------3s0--------|--------------3s0---3s12-|
|------------------------|-------------------------|
|------------------------|-------------------------|


|-------------------------|------------------------|
|-------------------------|------------------------|
|-(12)-0-3s5-0-3s0-0-3s12-|-(12)-0-3s5-0-3s0-0-3s7-|
|-(12)---------3s0---3s12-|-(12)---------3s0-------|
|-------------------------|------------------------|
|-------------------------|------------------------|


|----------------------|------------------------|
|-------------3-0------|-------------3-0--------|
|-(7)-0-3s5-0-3-0--3s7-|-(7)-0-3s5-0-3-0--3s12--|
|----------------------|------------------------|
|----------------------|------------------------|
|----------------------|------------------------|


|------------------------|-----------------------|
|--------------3-0-------|--------------3-0------|
|-(12)-0-3s5-0-3-0--3s12-|-(12)-0-3s5-0-3-0--3s7-|
|------------------------|-----------------------|
|------------------------|-----------------------|
|------------------------|-----------------------|


|-----------------------|-------------------------|
|-----------------------|-------------------------|
|-(7)-0-3s5-0-3-0--3s12-|-(12)-0-3s5-0-3-0--3s12--|
|-------------3-0-------|--------------3-0--------|
|-----------------------|-------------------------|
|-----------------------|-------------------------|


|------------------------|-----------------------|
|------------------------|-----------------------|
|-(12)-0-3s5-0-3-0--3s12-|-(12)-0-3s5-0-3-0--3s7-|
|------0-------3-0-------|------0-------3-0------|
|------------------------|-----------------------|
|------------------------|-----------------------|


|------------------------------|--------------------------------|
|------------------------------|--------------------------------|
|-(7)-0-3s5-0---0-3-0---0-3s12-|-(12)-0-3s5-0---0-3-0---0-3s12--|
|-------------3-------3--------|--------------3-------3---------|
|------------------------------|--------------------------------|
|------------------------------|--------------------------------|


|-------------------------------|-------------------------------|
|-------------------------------|-------------------------------|
|-(12)-0-3s5-0---0-3-0---0-3s12-|-(12)-0-3s5-0---0-3-0---0-3s12-|
|--------------3-------3--------|--------------3-------3--------|
|-------------------------------|-------------------------------|
|-------------------------------|-------------------------------|


|-------------------------------|----------------------------------|
|-------------------------------|----------------------------------|
|-(12)-0-3s5-0---0-3-0---0-3s12-|-(12)-0-3s5-0---0-3-0---0-3s12----|
|--------------3-------3--------|--------------3-------3-----------|
|-------------------------------|----------------------------------|
|-------------------------------|----------------------------------|


|-------------------------------|-------------------------------|
|-------------------------------|-------------------------------|
|-(12)-0-3s5-0---0-3-0---0-3s12-|-(12)-0-3s5-0---0-3-0---0-3s12-|
|--------------3-------3--------|--------------3-------3--------|
|-------------------------------|-------------------------------|
|-------------------------------|-------------------------------|


|------------------------------|--------------------------------|
|------------------------------|--------------------------------|
|-(12)-0-3s5-0---0-3-0---0-3s7-|-(7)-0-3s5-0---0-3-0---0-3s7----|
|--------------3-------3-------|-------------3-------3----------|
|------------------------------|--------------------------------|
|------------------------------|--------------------------------|


|-------------------------------|---------------------------------------|
|-------------------------------|-12-10s12-12-10-12---------------------|
|-(7)-0-3s5-0---0-3-0---0-10s12-|-12-10s12-12-10-12-0---0-3-0---0-10s12-|
|-------------3-------3---------|---------------------3-------3---------|
|-------------------------------|---------------------------------------|
|-------------------------------|---------------------------------------|


|---------------------------------------|
|-12-10s12-12-10-12---------------------|
|-12-10s12-12-10-12-0---0-3-0---0-10s12-|
|---------------------3-------3---------|
|---------------------------------------|
|---------------------------------------|


|---------------------------------12s15--|
|-12-10s12-12-10-12---------------12s15--|
|-12-10s12-12-10-12-0---0-3-0---0-12s15--|
|---------------------3-------3----------|
|----------------------------------------|
|----------------------------------------|


                                                                             3x
||--15-15-15-15-15---------------12s15-|-15-15-15-15-15---------------12s15--||
||o-15-15-15-15-15---------------12s15-|-15-15-15-15-15---------------12s15-o||
||--15-15-15-15-15-0---0-3-0---0-12s15-|-15-15-15-15-15-0---0-3-0---0-12s15--||
||-------------------3-------3---------|------------------3-------3----------||
||o------------------------------------|------------------------------------o||
||-------------------------------------|-------------------------------------||


|-15-15-15-15-15--------------------|
|-15-15-15-15-15--------------------|
|-15-15-15-15-15-0---0-3-0---0-7s12-|
|------------------3-------3--------|
|-----------------------------------|
|-----------------------------------|


|-------------------------|--------------------------|
|-------------------------|--------------------------|
|-(12)-0-3s5-0-3-0-0-7s12-|-(12)-0-3s5-0-3-0-0-7s12--|
|--------------3-0--------|--------------3-0---------|
|-------------------------|--------------------------|
|-------------------------|--------------------------|


|------------------------|---------------------|--------*|
|------------------------|---------------------|--------*|
|-(12)-0-3s5-0-3-0-0-3s7-|-(7)-0-3s5-0-3-0-0-5-|-(5)----*|
|--------------3-0-------|-------------3-0---5-|-(5)----*|
|------------------------|-------------------5-|-(5)----*|
|------------------------|---------------------|--------*|

------------------
Houses of the Holy
------------------
Houses Of The Holy

notation    h = hammer on
            p = pull-off
            b = bend

Intro
Repeat these first 2 bars twice
e---------------------------------------------------------------------------|
e-----------------------|--------------2--2---------------------------------|
B-----------------------|--------------2--2---------------------------------|
G-------------2--2------|--------2--2--2--2---------------------------------|
D----2--2-----2--2----2-|--2-----2--2--2--2---------------------------------|
A----3--4--0--0--0----3-|--4--0--0--0---------------------------------------|
E-----------------------|---------------------------------------------------|


e-----------------------|--------------2--2-2-|-2---------------------------|
B-----------------------|--------------2--2-2-|-2---------------------------|
G-------------2--2------|--------2--2--2--2-2-|-2-------2-2-----------------|
D----2--2-----2--2----2-|--2-----2--2--2--2-2-|-2-2-----2-2--2--------------|
A----3--4--0--0--0----3-|--4--0--0--0---------|---3-4-0-0-0--3--------------|
E-----------------------|---------------------|-----------------------------|

e-------------2--2----------------------------------------------------------|
B-------------2--0----------------------------------------------------------|
G-------2-2---2--1----------------------------------------------------------|
D--2----2-2---2--2----------------------------------------------------------|
A--4--0-0-0-----------------------------------------------------------------|
E---------------------------------------------------------------------------|


Note that the chords on the verses sustain a little, but notation wasn't easy
so listen to the record to get the timing and feel.

Verses     D        G  D  A    E

e----------2--|--2--3--2--0-|-----------------------------------------------|
B----------3--|--3--3--3--2-|-0-0-------------------------------------------|
G----------2--|--2--4--2--2-|-1-1-------------------------------------------|
D-------2--0--|--0--0--0--2-|-2-2-------------------------------------------|
A---2h4-------|-------------|-----------------------------------------------|
E-------------|-------------|-----------------------------------------------|


                          bend from b to c# and then back to b
e---------------|------------------------------|----------------------------|
B--------2-2----|-----2------------------------|----------------------------|
G--------2-2----|-----2--4b-6b-4-2-4p2-4p2-----|----------------------------|
D--2-----2-2--2-|-2---2--------------------4p2-|----------------------------|
A--3-4-0------3-|-4-0--------------------------|-0--------------------------|
E---------------|------------------------------|----------------------------|
                          riff fill

                         variation something like this
e---------------|--------------2-------------------------------------------|
B--------2-2----|-----2----------5p2---------------------------------------|
G--------2-2----|-----2--4b-6b-------4p2---4p2---2-------------------------|
D--2-----2-2--2-|-2---2------------------4-----4---------------------------|
A--3-4-0------3-|-4-0------------------------------------------------------|
E---------------|----------------------------------------------------------|


Words :

Let me take you to the movies, can I take you to the show?
Let me be yours ever truly, can I make your garden grow?

>From the houses of the holy, we can watch the white doves go.
>From the door comes Satans daughter, and it only goes to show.  and you know.

There's an angel on my shoulder, in my hand a sword of gold.
Let me wander in your garden, and the seeds of love I'll sow.  You know.

So the world is spinning faster, are you dizzy when you stall
Let the music be your master will you heed the master's call    Ohhh

Said there aint no use in crying, cause it will only, only drive you mad
Does it hurt to hear them lying?  Was this the only world you had?

So let me take you take you to the movies, can I take you baby to the show
Why don't you let me be yours ever truly, Can I make your garden grow?

-------------------
Trampled Under Foot
-------------------
Heres the main riff:

e---------------------------------------------------------------------------|
b-2-3-----------------------------------------------------------------------|
g-2-3--2-3-0-------0--------------------------------------------------------|
d------------3-0-3----------------------------------------------------------|
a---------------------------------------------------------------------------|
E---------------------------------------------------------------------------|

And this ascending part:

e------5-5-5-------7-7-7---------10-10-10----------12-12-12-----------------|
b---------------------------------------------------------------------------|
g--4/6---------6/8---------9/11--------------11/13--------------------------|
d---------------------------------------------------------------------------|
a---------------------------------------------------------------------------|
E---------------------------------------------------------------------------|

And after that this is played:

e--11--11-------------------------11-11-------------------------------------|
b--11--12--11-12------------------11-12-11-12-------------------------------|
g-----------------12-10----10-12--------------12-10----10-12\---------------|
d-----------------------12--------------------------12----------------------|
a---------------------------------------------------------------------------|
E---------------------------------------------------------------------------|

And the chord before the keyboard solo and at the end of the song:

e---------------------------------------------------------------------------|
b---------------------------------------------------------------------------|
g---7-----------------------------------------------------------------------|
d---5-----------------------------------------------------------------------|
a---------------------------------------------------------------------------|
E---------------------------------------------------------------------------|

-------
Kashmir
-------
DADGAD (low to high) Tuning


Main Riff 1

D|----------------------------------------------------------------------------|
A|----------------------------------------------------------------------------|
G|--2---2---2------2---2---2-------3---3---3------3---3---3-------------------|
D|--0---0---0------0---0---0-------0---0---0------0---0---0-------------------|
A|--5---5---5------5---5---5-------5---5---5------5---5---5-------------------|
D|-----------------------------0------------------------------0---------------|

D|---------------------------------------------------------------------------|
A|---------------------------------------------------------------------------|
G|--4---4---4------4---4---4-------5---5---5------5---5---5------------------|
D|--0---0---0------0---0---0-------0---0---0------0---0---0------------------|
A|--5---5---5------5---5---5-------5---5---5------5---5---5------------------|
D|-----------------------------0------------------------------0--------------|

D|---------------------------------------------------------------------------|
A|---------------------------------------------------------------------------|
G|--7---7---7------2---2---2-------3---3---3---------------------------------|
D|--0---0---0------0---0---0-------0---0---0---repeat------------------------|
A|--5---5---5------5---5---5-------5---5---5---------------------------------|
D|-----------------------------0---------------------------------------------|

Riff 2

D|--12---12---10---10----7----7----5----5----3----3-------------------------|
A|---0----0----0----0----0----0----0----0----0----0-------------------------|
G|--12---11---10----9----7----6----5----4----3---2--------------------------|
D|---0----0----0----0----0----0----0----0----0----0----3-2-0----------------|
A|--------------------------------------------------------------------------|
D|--------------------------------------------------------------------------|

D|--12---12---10---10----7----7----5----5----3---3--------------------------|
A|---0----0----0----0----0----0----0----0----0---0--------------------------|
G|--12---11---10----9----7----6----5----4----3---2--------------------------|
D|---0----0----0----0----0----0----0----0----0---0----3-2-0-----------------|
A|--------------------------------------------------------------------------|
D|--------------------------------------------------------------------------|

When you go back to the Main Riff start here and then proceed as usual.
D|--------------------------------------------------------------------------|
A|--------------------------------------------------------------------------|
G|--3---3---3------3---3---3------4---4---4------4---4---4------------------|
D|--0---0---0------0---0---0------0---0---0------0---0---0------------------|
A|--5---5---5------5---5---5------5---5---5------5---5---5------------------|
D|--------------------------------------------------------------------------|

D|--------------------------------------------------------------------------|
A|--------------------------------------------------------------------------|
G|--5---5---5------5---5---5------7---7---7------2---2---2------------------|
D|--0---0---0------0---0---0------0---0---0------0---0---0----etc.----------|
A|--5---5---5------5---5---5------5---5---5------5---5---5------------------|
D|--------------------------------------------------------------------------|

Interlude 1-After Riff 2

D|--12---12---10---10----7----7----5----5----3----3-------------------------|
A|---0----0----0----0----0----0----0----0----0----0-------------------------|
G|--12---11---10----9----7----6----5----4----3----2-------------------------|
D|---0----0----0----0----0----0----0----0----0----0----3-2-0------0---------|
A|-------------------------------------------------------------0-2----------|
D|--------------------------------------------------------------------------|

D|--------------------------------------------------------------------------|
A|--------------------------------------------------------------------------|
G|--------------------------------------------------------------------------|
D|--2------2---2---11\-2-----------2------2---2---11\-2-----3-2-0-----0-----|
A|--0------0---0---12\-0-----------0------0---0---12\-0-----------0-2-------|
D|--------------------------------------------------------------------------|

D|--------------------------------------------------------------------------|
A|--------------------------------------------------------------------------|
G|--------------------------------------------------------------------------|
D|--2------2---2---11\-2-----------2------2---2---11\-2----3-2-0-----0------|
A|--0------0---0---12\-0-----------0------0---0---12\-0-----------0-2-------|
D|--------------------------------------------------------------------------|

Repeat
Back to Riff 2

Interlude 2-After Riff 2
Interlude 2 is two chords that are alternated in this section of the song.

D|--12---12---10---10----7----7----5----5----3---3--------------------------|
A|---0----0----0----0----0----0----0----0----0---0--------------------------|
G|--12---11---10----9----7----6----5----4----3---2--------------------------|
D|---0----0----0----0----0----0----0----0----0---0-----3-2-0----------------|
A|--------------------------------------------------------------------------|
D|--------------------------------------------------------------------------|

D|--5---------------------------7-------------------------------------------|
A|--5---------------------------7-------------------------------------------|
G|--7---------------------------9-------------------------------------------|
D|--5---------------------------7-------------------------------------------|
A|--5---------------------------7-------------------------------------------|
D|--5---------------------------7-------------------------------------------|

The rest of the song alternates between the Main Riff and Riff 2.
End on Interlude 2.

DISC 2

------------
In The Light
------------
In the light,
You will find the road..
You will find the road..

Riff.1  (4 times)
E-|---------------------------------------------------------------------------|
B-|---------------------------------------------------------------------------|
G-|---------------------------------------------------------------------------|
D-|--7--6----5-------------------(14)-----------------------------------------|
A-|-------------7----6--5-------7(12)-----------------------------------------|
E-|--------------------------7--5---------------------------------------------|
                                ^--^--both chords played at the same
time

Riff.2
E-|---------------------------------------------------------------------------|
B-|---------------------------------------------------------------------------|
G-|------------------------7----------------------------------7---------------|
D-|--------7----5--7--4-3-----7--5--7---------7----5--7--4-3-----7--5--7------|
A-|--0--0-------------------------------0--0----------------------------------|
E-|---------------------------------------------------------------------------|
     Hey   ooh       did you ever believe that I would leave you ...

At the end of

    Hey  yeah  baby
    I know how it feels to kinda slip through
    To the bitter depths of my soul -- yeah

they jump back to the first four notes of Riff.1, then directly back
to
Riff.2.  Nothing really difficult to pick up;  I just thought I would
mention it.


Riff.3
E-|---------------------------------------------------------------------------|
B-|--------------------------------5---7--9--10-------------------------------|
G-|--------------------------6--7---------------------------------------------|
D-|----------------4--6--7----------------------------------------------------|
A-|--0---4--5--7--------------------------------------------------------------|
E-|---------------------------------------------------------------------------|


Riff.3 starts


I will share your love
Let me share your love
Oooooo, let me share
Share your love

(keyboard) then Riff.3

>From there, you should be able to pick up the whole song.  I have
also
transcribed the first 5 licks at the end of the song.  There is some
serious
overdubbing to get a neat delay effect on these licks.  I, somewhat,
try to
simulate a little of that in the tab.


E-|-17----------17----------17----------17------------------------------------|
B-|----b(19)17-----b(19)17-----b(19)17----------------------------------------|
G-|----------------------------------------b16(18)-16--14----b16(18)-14-------|
D-|---------------------------------------------------------------------------|
A-|---------------------------------------------------------------------------|
E-|---------------------------------------------------------------------------|


E-|---------------------------------------------------------------------------|
B-|---------------------------------------------------------------------------|
G-|--b(18)16--14---b(18)16--14---b(18)16--14---b(18)16--14-----b16(18)--------|
D-|---------------------------------------------------------------------------|
A-|---------------------------------------------------------------------------|
E-|---------------------------------------------------------------------------|


E-|---------------------------------------------------------------------------|
B-|---------------------------------------------------------------------------|
G-|--b9(11)-9--7---b9(11)-9--7---7-6------------------------------------------|
D-|----------------------------------7----------------------------------------|
A-|------------------------------------b7(9)(7)-------------------------------|
E-|---------------------------------------------------------------------------|


E-|---------------------------------------------------------------------------|
B-|-----------------------------------------------b8(10)--8--7---b12(14)------|
G-|--------------------------------b9(11)--9--7-------------------------------|
D-|--b9(11)--9--7---b9(11)--9--7----------------------------------------------|
A-|---------------------------------------------------------------------------|
E-|---------------------------------------------------------------------------|


E-|-------------------17------------------------------------------------------|
B-|--b17(19)--17--15--------b17(18)--17--15\14------14------------------------|
G-|---------------------------------------------16----------------------------|
D-|---------------------------------------------------------------------------|
A-|---------------------------------------------------------------------------|
E-|---------------------------------------------------------------------------|


b17(19) means play 17th and bend 17th to 19th
b(19)17 means bend 17th to 19th play the note and come back to 17th


b7(9)(7) means play 7th and bend to 9th then come back down to 7th

-----------
Bron-Yr-Aur
-----------
This tab is missing. I will tab it eventually.

-------------------
Down By The Seaside
-------------------
(Begin Rhythm Figure 1)
E|-5--4/5--3--|-3--5--5/7--5-------|--4/5--3--1---------|
B|-5----------|--------------------|--------------------|
G|-5--4/5--4--|-4--5--5/7--5-------|--4/5--4--2---------|
D|------------|--------------------|--------------------|
A|------------|--------------------|--------------------|
E|------------|--------------------|--------------------|

E|--1--3--1--0--------|
B|--------------------|
G|--2--3--2--0--------|  Repeat first four bars..."Down by the
D|--------------------|
A|--------------------|
E|--------------------|
(End Rhythm Figure 1)

  [F]seaside, [C]See the boats go [F]sailing, [C]can the people

  [F]hear [C]what the little fish are saying[F]

(Begin Rhythm Figure 2)
E|-----13-----13-----13--|-----13-----13-----13-----13-------|
B|-----13-----13-----13--|-----13-----13-----13-----13-------|
G|--12b14--12b14--12b14--|--12b14--12b14--12b14--12b14--12b14|
D|-----------------------|-----------------------------------|
A|-----------------------|-----------------------------------|
E|-----------------------|-----------------------------------|

E|--12b14r12--12--12----12----12--12--|----12----12--12----11------10---|
B|------------------------------------|---------------------------------|
G|--------------12----12--12----12----|--12--12----12----11--11--10--10-|
D|------------------------------------|---------------------------------|
A|------------------------------------|---------------------------------|
E|------------------------------------|---------------------------------|

E|----17----17--17----17------16----|----17------16------17----17---------|
B|----------------------------------|-------------------------------------|
G|--17--17----17----17--17--16--16--|--17--17--16--16--17--17----17\12----|
D|----------------------------------|-------------------------------------|
A|----------------------------------|-------------------------------------|
E|----------------------------------|-------------------------------------|

E|----12----12--12----12----12--12--|----12----12--12----11------10----|
B|----------------------------------|----------------------------------|
G|--12--12----12----12--12----12----|--12--12----12----11--11--10--10--|
D|----------------------------------|----------------------------------|
A|----------------------------------|----------------------------------|
E|----------------------------------|----------------------------------|

E|----17----17--17----17------16----|----17----17--17----17----17--|
B|----------------------------------|------------------------------|
G|--17--17----17----17--17--16--16--|--17--17----17----17--17------|
D|----------------------------------|------------------------------|
A|----------------------------------|------------------------------|
E|----------------------------------|------------------------------|
       Peo-   ple    turn    a-    way
E|-----13-----13-----13-----13--|--------------------|
B|-----13-----13-----13-----13--|--------------------|
G|--12b14--12b14--12b14--12b14--|--12----------------|
D|------------------------------|--10----------------|
A|------------------------------|--------------------|
E|------------------------------|--------------------|

     Peo-   ple    turn    a-    way
E|-----13-----13-----13-----13--|--8---------------|
B|-----13-----13-----13-----13--|--8---------------|
G|--12b14--12b14--12b14--12b14--|--9---------------|
D|------------------------------|------------------|
A|------------------------------|------------------|
E|------------------------------|------------------|
(End rhythm figure 2)

  [C]Down in the [F]city streets, [C]see all the folk go
  [F]racing, racing.  [C]No time left, [F] oh no
  [C]passing the time of day  (Repeat rhtym figure 2, and
  at end, just a simple jam in A)

  Do you [A]still do the twist, do you find you remember things that
  [D]well?  I wanna tell you some go [A]twistin' everyday,
  though sometimes it's awful hard to tell.  (Repeat Rhyth Fig 1)

  [C]Out in the [F]country, [C]hear the people [F]singing,
  [C]singing 'bout the [F]growing, [C]knowing where' they're
  [F]going.  (Repeat Rhythm Fig 2)

  [C]Sing loud for the [F]sunshine, [C]pray hard for the [F]rain,
  [C]and show your love [F]for lady nature, [C]and she will come
  back again. (Repeat Rhythm Fig 2)

Groove...

--------------
Ten Years Gone
--------------
          lr  (repeat)            *  * *                 lr
|---------------------|-------------------7--7-7--5--5-5-3-|
|-2-0---0-3-----3-----|---2--2-2--7--7-7--9--9-9--7--7-7-5-|
|-2-2-2---2---2---2---|---2--2-2--7--7-7--8--8-8--6--6-6-4-|
|-2-2-----3-3-------2-|---2--2-2--7--7-7--9--9-9--7--7-7-5-|
|-0-0-----0---------0-|-0-0--0-0--5--5-5--7--7-7--5--5-5-3-|
|---------------------|------------------------------------|
* Bass line maks these chords sound different.

                          . .             . .   (repeat)
|-----------------|-----------------------------------|
|-----------------|-2-----------------------------2---|
|-----------------|-2-4-2-4-4-4-6-2---2-4-2-2-2-4-2---|
|---------0-3-2---|-2-----5-5-5---4---4---3-3-3---2---|
|-----0-3-------0-|-0-----0-0-0---0-0-0---0-0-0---0-0-|
|-0-1-------------|-----------------------------------|

solo chords:
| (Dsus2) | D | G | Em7 |  (not necessarily in this order)

"Do you ever remember..."                      lr   ^
|---------------------------------------------------0-|
|---------------------------------------------------3-|
|---------------------------------------------------2-|
|----------------------------------------------0----0-|
|-5-7-7-9-7-7-5-5-5-5-5--5-5-5--5-5-5--5-5-5-5-0------|
|-3-5-5-7-5-5-3-3-3-3-3--3-3-3--3-3-3--3-3-3-3--------|

| Amaj7 | G | D | Cmaj7 |

 Outro:    b                    (2 gtrs.)
|------------------------------------------------|
|-------------------------------17-15-14-15-14~~-|
|-------14-16-16-14-16-14~~-----18-16-14-16-14~~-|
|-14-16----------------------16------------------|

|------------------------------------------------|
|------------------------------------------------|


Page uses Drop D tuning for this song (low E tuned down from E to D)
You don't have to but Ive tabbed everything for this tuning.

First I'll provide the basic parts to the song and then provide instruction
on how to string them together.  Sorry about the unorthodox approach but
this song is a tough one to type in.  I read an article about how this
song was painfully pieced together by the band from a number of ideas
that Page had developed.  With all the changes its evident there are mini
songs within the song.  Check out the great rhythym guitar behind the
solos.

I strongly recommend listening to the recording to get the right timing for
all the parts.  I really didn't double check the tab, so if it
doesn't sound right it probably isn't.  By the way Page sure wrote some
great songs.  I'll try to post more Zeppelin if people are interested.

Part 1: (played 2 times)

                let ring
                >>>>>>>>                                 >>>>>
e------------------|-------------------|----------0--------|-----------------|
B-----2--0---0--3--|---3---------3-----|-------2-------0-3-|-3-3-3-----------|
G-----2----2----2--|---2-------2---2---|-2-----2-----2---2-|-2----2----------|
D-----2---------3--|---3-----3-------3-|-2-----2---------3-|-3-----3---------|
A--0--0---------0--|---0--0------------|-0--0--0---------0-|-0---------------|
E------------------|-------------------|-------------------|-----------------|

Part 2:
         x = mute strings
e----------------------------------|-7-7-7-7-x-x-----------------------------|
B--2--2--x(2)--x(2)--1-1-x(1)-x(1)-|-8-8-8-8-x-x-7-7-7-7-7-5-----------------|
G--2--2--x(2)--x(2)--2-2-x(2)-x(1)-|-9-9-9-9-x-x-6-6-6-6-6-4-----------------|
D--2--2--x(2)--x(2)--1-1-x(2)-x(1)-|-9-9-9-9-x-x-7-7-7-7-7-5-----------------|
A--0--0----------------------------|-----------------------------------------|
E----------------------------------|-----------------------------------------|

Part 3: heavy guitar sound with distortion (remember drop D tuning)
Page overdubs to get that wall of sound here.  I think a sitar was also
overdubbed.

  lead in riff
e------------------------------|--------------------|-----------------------|
B------------------------------|---0----------------|---------2-------------|
G-----------------------2--4-2-|-4-4-4--6-2---2-4-2-|-2-2-2-4-2--2-4-2------|
D-----------2-3-2-------2--2-2-|-5-5-5--5-4---4-4-4-|-3-3-3-3-2--2-2-2------|
A------0-3----------0----------|------------0-------|-----------0-----------|
E--2-3-------------------------|--------------------|-----------------------|

e--------------------|-----------------------|
B---0----------------|---------2-------------|
G-4-4-4--6-2---2-4-2-|-2-2-2-4-2--2-4-2------|
D-5-5-5--5-4---4-4-4-|-3-3-3-3-2--2-2-2------|
A------------0-------|-----------0-----------|
E--------------------|-----------------------|


e--------------------|-----------------------|
B---0----------------|---------2-------------|
G-4-4-4--6-2---2-4-2-|-2-2-2-4-2--2-4-2------|
D-5-5-5--5-4---4-4-4-|-3-3-3-3-2--2-2-2------|
A------------0-------|-----------0-----------|
E--------------------|-----------------------|

                               * heavy part ends  leads into Part 1
e--------------------|----------------------|-------------------------------|
B---0----------------|-------0-2---0---0-3--|--------3----------------------|
G-4-4-4--6-2---2-4-2-|-2-2-2---2-----2---2--|------2---2--------------------|
D-5-5-5--5-4---4-4-4-|-3-3-3---2---------3--|----3-------3------------------|
A------------0-------|-------------------0--|--0----------------------------|
E--------------------|----------------------|-------------------------------|

Part 4:

   Dmaj7                C/G  G
e----------------------|-----------------------------------------------------|
B--5--7-7-7-7--7-7--5--|--5--3--5--3--3-3--3-3-3-3---------------------------|
G--4--6-6-6-6--6-6--4--|--5--4--5--4--4-4--4-4-4-4---------------------------|
D--5--7-7-7-7--7-7--5--|--5--5--5--5--5-5--5-5-5-5---------------------------|
A----------------------|-----------------------------------------------------|
E----------------------|-----------------------------------------------------|

  Em7              >>>>> Dmaj7
e-0--0-0-0-0-0-0-0-0-|-0-2--2--2--|------------------------------------------|
B-5--5-5-5-5-5-5-5-3-|-3-2--2--2--|--5-7-7-7-7--7-7-7-7----------------------|
G-4--4-4-4-4-4-4-4-4-|-4-2--2--2--|--4-6-6-6-6--6-6-6-6----------------------|
D-5--5-5-5-5-5-5-5-5-|-5-4--0--0--|--5-7-7-7-7--7-7-7-7----------------------|
A--------------------|------------|------------------------------------------|
E--------------------|------------|------------------------------------------|

                                                        >>>>>
   C/G      G           Em9                        Dmaj7
e--------------------|-----------0-0-------------|----2----------------------|
B--5--5--5--3--------|--0-0-3-3--3-3--3-3--3--0--|-0--2----------------------|
G--5--5--5--4--4--4--|--0-0-0-0--0-0--0-0--0--0--|-0--2----------------------|
D--5--5--5--5--5--5--|--4-4-4-4-------4-4--4-----|-------2--2----------------|
A--------------------|---------------------------|-------0--0----------------|
E--------------------|---------------------------|---------------------------|

e-0--2--2--0--|----------------|------------------------0-|0-------------------|
B-0--2--2--0--|-5--5-5-3--3--3-|-0-0--0-0--0-0--0-0-0-0-3-|3---7--7------------|
G-0--2--2--0--|-5--5-5-4--4--4-|-0-0--0-0--0-0--0-0-0-0-4-|4---6--6------------|
D-------------|-5--5-5-5--5--5-|-4-4--4-4--4-4--4-4-4-4-5-|5---7--7------------|
A-------------|----------------|--------------------------|--------------------|
E---------------------------------------------------------|--------------------|


   Dmaj7
e----------------------|
B--5--7-7-7-7--7-7--7--|
G--4--6-6-6-6--6-6--6--|
D--5--7-7-7-7--7-7--7--|
A----------------------|
E----------------------|
                                                             distorted
   C/G      G           Em9                                  (remember drop d)
e--------------------|-----------0-0-------------|---------------------------|
B--5--5--5--3--------|--0-0-3-3--3-3--3-3--3--5--|-5--7--7-7-----------------|
G--5--5--5--4--4--4--|--0-0-0-0--0-0--0-0--0--4--|-4--6--6-6-----------------|
D--5--5--5--5--5--5--|--4-4-4-4-------4-4--4--5--|-5--7--7-7-----------------|
A--------------------|---------------------------|------------5-7-7-9-9-7----|
E--------------------|---------------------------|------------5-7-7-9-9-7----|


Part 5:
e-------------------|-0---------------|
B-------------------|-0---------------|
G-------------------|-2---------------|  Repeat 2 more times and then
D-------------5-5---|-4---------------|
A-7-5-5-5-5-5-5-5-0-|----0-0-5-7-9-9-7|
E-7-5-5-5-5-5-5-5-0-|----0-0-5-7-9-9-7|

e---------------------|
B---------------------|
G---------------------|
D---------------------|
A-7-5-5-5-5-5-5-5-5-7-|
E-7-5-5-5-5-5-5-5-5-7-|

Part 6:

e----------0-|-0--5-5-5-5-5-5-5-0-|-0-0-0-0-0-0-0-0-0-0|-0-------------------|
B-----9-9--7-|-7--7-7-7-7-7-7-7-7-|-7-7-7-7-7-7-7-7-7-0|-0-------------------|
G-----9-9--6-|-6--6-6-6-6-6-6-6-7-|-7-7-7-7-7-7-7-7-7-0|-0--0--0--0----------|
D-----7-7--7-|-7--7-7-7-7-7-7-7-5-|-5-5-5-5-5-5-5-5-5-2|-2-------------------|
A-7----------|------------------5-|-5-5-5-5-5-5-5-5-5-3|-3-------------------|
E-7----------|------------------5-|-5-5-5-5-5-5-5-5-5--|---------------------|


e-4-0-0-0-0-0-0-0--|-0--0--0--0--0--9--7-|-7-7-7-7-7-7-7-0-------------------|
B-5-5-5-5-5-5-5-10-|-10-10-10-10-10-10-7-|-7-7-7-7-7-7-7-0-------------------|
G-6-6-6-6-6-6-6-11-|-11-11-11-11-11-11-7-|-7-7-7-7-7-7-7-0-------------------|
D-6-6-6-6-6-6-6-12-|-12-12-12-12-12-12-5-|-5-5-5-5-5-5-5---------------------|
A------------------|-------------------5-|-5-5-5-5-5-5-5---------------------|
E------------------|-------------------5---5-5-5-5-5-5-5---------------------|


Intro:
[ Guitar : Part 1 ]
[ Guitar : Part 2 ]
[ Guitar : Part 3 ]

Verse:
[ Guitar : Part 1 ]

Think as it was, then again it will be.

Though the course may change sometimes, rivers always reach the sea.

[ Guitar : Part 2  (no vocals) ]

[ Guitar : Part 3 (vocals start in second measure) ]

Blind spies of fortune, each has several ways

on the wings of maybe, downing birds of prey.

Kind of makes me feel sometime I didn't have to grow.

For as a eagle leaves a nest, I got so far to go.


[ Guitar : Part 1 ]

Changes fill my time, baby thats all right with me,

in the midst I think of you and how it used to be.

[ Guitar : Part 2 ]

[ Guitar : Part 4 ] played behind solo 1, leads into Part 5 with vocals

[ Guitar : Part 5 ]

Did you ever really need somebody and really need'em bad

Did You ever really want somebody the best stuff you ever had

Will you ever remember me baby, did it feel so good

Cause it was just the first time and you knew you would

[ Guitar : Part 6] played behind solo 2.

[ Guitar : Part 3]

Do the eyes not sparkle, senses go again

tasting love along the way, see a feather spring

Gonna make you a meal sometime, it'll help you know

We are eagles all one loves, the message in our soul

[ Guitar : Part 1 ]

Fixin in my dreams with great surprise to me

I never thought I'd see your face, the way it used to be

[ Guitar : Part 2 ]

Oh darling, Oh darlin.

[ Guitar : Part 3 ]  Repeat and fade etc.

Note on the outro Page overdubs a riff similar to Part 3 but played
with only single notes (no double stops) in the 10th position.  Listen
to the recording.

Well, here's the solo to Ten Years Gone.  I did not tab it out, I'm
merely posting
it.  Please make any corrections you feel are necessary.


    Ten Years Gone solo by Led Zeppelin
    Posted bt Craig Knowles 


1--------5-/-7---5----------2-\-0----------------------------------------------------2--------5-/-7---5----------2-\-0--|
3----------------------------------------------9(11)-9(11)-----9(11)--9--7-----------------------------------------------|
4------------------------------------------------------------------------------------------------------------------------|
5------------------------------------------------------------------------------------------------------------------------|
6------------------------------------------------------------------------------------------------------------------------|

1-----------------------------------------------|
2-----------------------------------------------|
3------------9(11)--9--7------7~9--7------------|
4-------9--------------------------------9------|
5------------10---------------------------------|
6-----------------------------------------------|

1---7---7~8~7-------------------------7~10~7---5~7~5-------7~10~7---5~7~5-------|
2---7---7~8~7-------------------------7~10~7---5~7~5-------7~10~7---5~7~5-------|
3------------------------------------------------------------------6------------|
4----------------------7-----7--5--4--------------------------------------------|
5-------------------------------------------------------------------------------|
6-------------------------------------------------------------------------------|

1-7~10~7--5-------------5--------------------------------|
2-7~10~7--5----5-/-7-------------------------------------|
3-----------6-------------------------------6------------|
4--------------------------------------------------------|
5--------------------------------------------------------|
6--------------------------------------------------------|

1-----------7-------------------------------------------------------------------|
2--7-/-8--------/-12-----------------15--17(19)--17(19)--17(19)-17-15---17------|
3---------------------------------/-16------------------------------------------|
4-------------------------------------------------------------------------------|
5-------------------------------------------------------------------------------|
6-------------------------------------------------------------------------------|

1------------------------------------------14-15-17-|
2--15--17(19)---------------------------------------|
3------------------16-------------------------------|
4---------------------------------------------------|
5---------------------------------------------------|
6---------------------------------------------------|

1--17(19)(17)----------------------17(19)(17)-15--17--15--17~15-----------------|
2-----------------------15--17(19)----------------------------------------------|
3-------------------------------------------------------------------------------|
4-------------------------------------------------------------------------------|
5-------------------------------------------------------------------------------|
6-------------------------------------------------------------------------------|

1------------------------------------------------------|
2----------15--17--15--17(19)(17)~15-------------------|
3--------16--------------------------------------------|
4------------------------------------------------------|
5------------------------------------------------------|
6------------------------------------------------------|

1---17--17---------------------------8-/-10-\-8----7~10~7--5------7~10~7---------|©©©©©
2--17----------------17(19)(17)-15---8-/-10-\-8----7~10~7--5------7~10~7-©©©©©©--|
3--------------------------------------------------------------------------------|
4--------------------------------------------------------------------------------|
5--------------------------------------------------------------------------------|
6--------------------------------------------------------------------------------|

1-5~7~5------7~10~7--5~7~5-------------------------------------|
2-5~7~5------7~10~7--5~7~5-------------------------------------|
3---------6-----------------------6--------------------------6-|
4--------------------------------------------------------------|
5--------------------------------------------------------------|
6--------------------------------------------------------------|

1--7~10~7--5~7~5-----5--5-5-5-----------------------------------------------15-1---------|
2--7~10~7--5~7~5-----7--7-7-7---/12------------------15-17-17(19)------------------------|
3--------------------7--7-7-7--------------------/16-------------------------------------|©©©©©©©
4------------5-----------------------------------------------------------------------6--|

1-1516-17-17(19)-------17----------------1-|
2-------------15-------17(19)(17)----------|
3------------------------------------------|
4------------------------------------------|
5------------------------------------------|
6------------------------------------------|

1----------17-------------------------------------------------------------------|
2--15----------17(19)(17)-15--17(19)(17)---15-----------------------------------|
3-------------------------------------------------------------------------------|
4-------------------------------------------------------------------------------|
5-------------------------------------------------------------------------------|
6-------------------------------------------------------------------------------|

------------
Night Flight
------------
Tuning
6 5 4 3 2 1
E A D G B E


E|5---------------|5---------------|5---------------|5---------------|
B|3---------------|2---------------|3---------------|2---------------|
G|2---------------|2---------------|2---------------|2---------------|
D|----------------|----------------|----------------|----------------|
A|----------------|----------------|----------------|----------------|
E|----------------|----------------|----------------|----------------|
 |                                                                   |
E|0---------------|----------------|0---------------|----------------|
B|3---------------|2---------------|3---------------|2---------------|
G|2---------------|2---------------|2---------------|2---------------|
D|4---------------|2---------------|4---------------|2---------------|
A|0---------------|0---------------|0---------------|0---------------|
E|----------------|----------------|----------------|----------------|
  I received a message.....


E|5---------55----|5---------5---5-|5---------5---5-|5-------5-------||
B|----------------|----------------|--3-------------|--2---2---------||
G|----2-------2-2-|----2---2---2---|----2-------2---|----2-----------||
D|----------------|----------------|----------------|----------------||
A|----------------|----------------|----------------|----------------||
E|----------------|----------------|----------------|----------------||
 |                                                                   ||
E|----------------|----------------|----------------|----------------||
B|3-------322-322-|2-------322-322-|3-------322-322-|2---------------||
G|2-------2-2-2-2-|2-------2-2-2-2-|2-------2-2-2-2-|2---------------||
D|2-------2-2-2-2-|2-------2-2-2-2-|2-------2-2-2-2-|2---------------||
A|0-------0-0-0-0-|0-------0-0-0-0-|0-------0-0-0-0-|0---------------||
E|----------------|----------------|----------------|----------------||


E|----------------|----------------|----------------|----------------|
B|----------------|----------------|----------------|----------------|
G|--2---2---2-----|----------------|----------------|----------------|
D|--2---2---2---24|----------------|----------------|----------------|
A|------2-----24--|--2---2---2-2-4-|5-5-7-7-5-5-7-5-|12121414121214--|
E|0-----0---------|0-0---0---0-0-2-|3-3-3-3-3-3-3-3-|101010101010100-|


E|----------------|----------------|----------------|----------------||
B|----------------|----------------|----------------|----------------||
G|----------------|----------------|----------------|----------------||
D|----------------|----------------|----------------|----------------||
A|3-3-5-5-3-3-3-3-|101012121010--4-|5-5-7-7-5-5-7-7-|5-5-7-7-5-------||
E|1-1-1-1-1-1-1-1-|8-8-8-8-8-8-0-2-|3-3-3-3-3-3-3-3-|3-3-3-3-3-------||


E|5---------------|5---------------|5---------------|5---------------|
B|3---------------|2---------------|3---------------|2---------------|
G|2---------------|2---------------|2---------------|2---------------|
D|----------------|----------------|----------------|----------------|
A|----------------|----------------|----------------|----------------|
E|----------------|----------------|----------------|----------------|
 |                                                                   |
E|0---------------|----------------|0---------------|----------------|
B|3---------------|2---------------|3---------------|2---------------|
G|2---------------|2---------------|2---------------|2---------------|
D|4---------------|2---------------|4---------------|2---------------|
A|0---------------|0---------------|0---------------|0---------------|
E|----------------|----------------|----------------|----------------|


E|5---------5-----|5---------5-----|5---------5---5-|5-------5-------||
B|------------2---|--2-------------|----------------|----------------||
G|----2---------2-|----2---------2-|----2-----2---2-|----2---2-------||
D|----------------|----------------|----------------|----------------||
A|----------------|----------------|----------------|----------------||
E|----------------|----------------|----------------|----------------||
 |                                                                   ||
E|----------------|----------------|----------------|----------------||
B|2------232-232-2|2------232-232-2|2------232-232-2|3---3--33-------||
G|2-2---2---2---2-|2-2---2---2---2-|2-2---2---2---2-|2---2--22-------||
D|2---------------|2---------------|2---------------|2---2--22-------||
A|0---------------|0---------------|0---------------|0---0--00-------||
E|----------------|----------------|----------------|----------------||


E|5---------------|5---------------|5---------------|5---------------|
B|----------------|----------------|----------------|----------------|
G|----2-----2---2-|----2-----2---2-|----2-----2---2-|----2-----2---2-|
D|--------2---2---|--------2---2---|--------2---2---|--------2---2---|
A|----------------|----------------|----------------|----------------|
E|----------------|----------------|----------------|----------------|
 |                                                                   |
E|0---------------|----------------|0---------------|----------------|
B|3---------------|2------232-232-2|3---------------|2------232-232-2|
G|2---------------|2-2---2---2---2-|2---------------|2-2---2---2---2-|
D|4---------------|2---------------|4---------------|2---------------|
A|0---------------|0---------------|0---------------|0---------------|
E|----------------|----------------|----------------|----------------|
  I just jumped a train that never stops.....


E|5---------------|5---------------|5---------------|5-------5-------||
B|----------------|----------------|----------------|--2---2-2-------||
G|----2-----2---2-|----2-----2---2-|----2-----2---2-|----2-----------||
D|--------2---2---|--------2---2---|--------2---2---|----------------||
A|----------------|----------------|----------------|----------------||
E|----------------|----------------|----------------|----------------||
 |                                                                   ||
E|0---------------|----------------|0---------------|----------------||
B|3---------------|2------232-232-2|3---------------|2---------------||
G|2---------------|2-2---2---2---2-|2---------------|2---------------||
D|4---------------|2---------------|4---------------|2---------------||
A|0---------------|0---------------|0---------------|0---------------||
E|----------------|----------------|----------------|----------------||


E|----------------|----------------|----------------|----------------|
B|----------------|----------------|----------------|----------------|
G|--2---2---2-----|----------------|----------------|----------------|
D|--2---2---2---24|----------------|----------------|----------------|
A|------2-----24--|2-2---2---2-2-4-|5-5-7-7-5-5-7-5-|12121414121214--|
E|0-----0---------|0-0---0---0-0-2-|3-3-3-3-3-3-3-3-|101010101010100-|


E|----------------|----------------|----------------|----------------||
B|----------------|----------------|----------------|----------------||
G|----------------|----------------|----------------|----------------||
D|----------------|----------------|----------------|----------------||
A|3-3-5-5-3-3-3-3-|101012121010--4-|5-5-7-7-5-5-7-7-|5-5-7-7-5-----4-||
E|1-1-1-1-1-1-1-1-|3-3-3-3-3-3-0-2-|3-3-3-3-3-3-3-3-|3-3-3-3-3-----2-||


                                                     2/4 time
E|----------------|----------------|----------------|--------|
B|----------------|----------------|----------------|--------|
G|----------------|----------------|----------------|--------|
D|----------------|----------------|----------------|--------|
A|5-5-7-7-5-5-7-7-|5-5-7-7-5-------|----------------|------4-|
E|3-3-3-3-3-3-3-3-|3-3-3-3-3-------|----------------|------2-|


  4/4 time
E|----------------|----------------|----------------|
B|----------------|----------------|----------------|
G|----------------|----------------|----------------|
D|----------------|----------------|----------------|
A|5-5-7-7-5-5-7-7-|5-5-7-7-5-5-7-7-|5-5-7-7-5-5-7-7-|
E|3-3-3-3-3-3-3-3-|3-3-3-3-3-3-3-3-|3-3-3-3-3-3-3-3-|


E|----------------|----------------|----------------||
B|----------------|----------------|----------------||
G|----------------|----------------|----------------||
D|----------------|----------------|----------------||
A|5-5-7-7-5-5-7-4-|5---------------|--------------9-||
E|3-3-3-3-3-3-3-2-|3---------------|--------------7-||


E|----------------|----------------|----------------|----------------|
B|----------------|----------------|----------------|----------------|
G|----------------|----------------|----------------|----------------|
D|----------------|----------------|----------------|----------------|
A|1010121210101212|101012121010--4-|5-5-7-7-5-5-7-7-|5-5-7-7-5-5-5-5-|
E|8-8-8-8-8-8-8-8-|8-8-8-8-8-8-0-2-|3-3-3-3-3-3-3-3-|3-3-3-3-3-3-3-3-|
  Please mister brakeman won't ya ring your bell.....


E|----------------|----------------|----------------|----------------||
B|----------------|----------------|----------------|----------------||
G|----------------|----------------|----------------|----------------||
D|----------------|----------------|----------------|----------------||
A|1010121210101212|101012121010--4-|5-5-7-7-5-5-7-7-|5-5-7-7-5-5-7-5-||
E|8-8-8-8-8-8-8-8-|8-8-8-8-8-8-0-2-|3-3-3-3-3-3-3-3-|3-3-3-3-3-3-3-3-||


E|5---------------|5---------------|5---------------|5---------------|
B|3---------------|2---------------|3---------------|2---------------|
G|2---------------|2---------------|2---------------|2---------------|
D|----------------|----------------|----------------|----------------|
A|----------------|----------------|----------------|----------------|
E|----------------|----------------|----------------|----------------|
 |                                                                   |
E|0---------------|----------------|0---------------|----------------|
B|3---------------|2---------------|3---------------|2---------------|
G|2---------------|2---------------|2---------------|2---------------|
D|4---------------|2---------------|4---------------|2---------------|
A|0---------------|0---------------|0---------------|0---------------|
E|----------------|----------------|----------------|----------------|


E|5---------5-----|5---------5-----|5---------------|5---------55--55|
B|------------3-2-|--2-------------|--2-------------|2---------22--22|
G|----2-----------|----2---------2-|----2-----2---2-|2---------22--22|
D|----------------|----------------|--------2---2---|--------2---2---|
A|----------------|----------------|----------------|----------------|
E|----------------|----------------|----------------|----------------|
 |                                                                   |
E|0---------------|----------------|0---------------|----------------|
B|3---------------|2------232-232-2|3---------------|2------232-232-2|
G|2---------------|2-2---2---2---2-|2---------------|2-2---2---2---2-|
D|4---------------|2---------------|4---------------|2---------------|
A|0---------------|0---------------|0---------------|0---------------|
E|----------------|----------------|----------------|----------------|


E|5---------5-----|--5-------5-----|5---------------|5-------5-------||
B|3-----------3---|2-----------2---|--2-------------|--2-----2-------||
G|----2---------2-|----2---------2-|----2-----2---2-|----2---2-------||
D|----------------|----------------|--------2---2---|----------------||
A|----------------|----------------|----------------|----------------||
E|----------------|----------------|----------------|----------------||
 |                                                                   ||
E|0---------------|----------------|0---------------|----------------||
B|2---------------|2------232-232-2|2---------------|2---2---2-------||
G|3---------------|2-2---2---2---2-|3---------------|2---2---2-------||
D|4---------------|2---------------|4---------------|2---2---2-------||
A|0---------------|0---------------|0---------------|0---0---0-------||
E|----------------|----------------|----------------|----------------||


E|----------------|----------------|----------------|----------------|
B|----------------|----------------|----------------|----------------|
G|--2---2---2-----|----------------|----------------|----------------|
D|--2---2---2---24|----------------|----------------|----------------|
A|------2-----24--|2-2---2---2-2-4-|5-5-7-7-5-5-7-5-|12121414121214--|
E|0-----0---------|0-0---0---0-0-2-|3-3-3-3-3-3-3-3-|101010101010100-|
  Come on, come on now, meet me in the morning.....


E|----------------|----------------|----------------|----------------||
B|----------------|----------------|----------------|----------------||
G|----------------|----------------|----------------|----------------||
D|----------------|----------------|----------------|----------------||
A|3-3-5-5-3-3-3-3-|101012121010--4-|5-5-7-7-5-5-7-7-|5-5-7-7-5-----4-||
E|1-1-1-1-1-1-1-1-|8-8-8-8-8-8-0-2-|3-3-3-3-3-3-3-3-|3-3-3-3-3-----2-||


E|----------------|----------------|----------------|
B|----------------|----------------|----------------|
G|----------------|----------------|----------------|
D|----------------|----------------|----------------|
A|5-5-7-7-5-5-7-7-|5-5-7-7-5-----4-|5-5-7-7-5-5-7-7-|
E|3-3-3-3-3-3-3-3-|3-3-3-3-3-----2-|3-3-3-3-3-3-3-3-|


E|----------------|----------------|----------------|
B|----------------|----------------|----------------|
G|----------------|----------------|----------------|
D|----------------|----------------|----------------|
A|5-5-7-7-5-----4-|5-5-7-7-5-5-7-7-|5-5-7-7-5-----4-|
E|3-3-3-3-3-----2-|3-3-3-3-3-3-3-3-|3-3-3-3-3-----2-|


E|----------------|----------------|----------------|
B|----------------|----------------|----------------|
G|----------------|----------------|----------------|
D|----------------|----------------|----------------|
A|5-5-7-7-5-5-7-7-|5-5-7-7-5-----4-|5-5-7-7-5-5-7-7-|
E|3-3-3-3-3-3-3-3-|3-3-3-3-3-----2-|3-3-3-3-3-3-3-3-|


E|----------------|----------------|----------------||
B|----------------|----------------|----------------||
G|----------------|----------------|----------------||
D|----------------|----------------|----------------||
A|5-5-7-7-5-----4-|5-5-7-7-5-5-7-7-|5-5-7-7-5-------||
E|3-3-3-3-3-----2-|3-3-3-3-3-3-3-3-|3-3-3-3-3-------||

---------------
The Wanton Song
---------------
Standard Tuning

E|----------------|----------------|----------------|----------------|
B|----------------|----------------|----------------|----------1--2--|
G|----------------|----------------|----------------|----------2--3--|
D|--5---55--------|--5---55--------|--5---55--------|--5---555-3--4--|
A|----------------|----------------|----------------|----------------|
E|33-333----------|33-333----------|33-333----------|33-333----------|

E|----------------|----------------|----------------|----------------|----------------||
B|----------------|----------------|----------------|----------------|----------------||
G|----------------|----------------|----------------|----------------|7--6--5---3-----||
D|--5---55--------|--5---55--------|--5---55--------|--5---55------3-|----------3-----||
A|----------------|----------------|----------------|---------3-4-5-5|-5--4--3--1-----||
E|33-333----------|33-333----------|33-333----------|33-333----------|----------------||

E|----------------|----------------|----------------|----------------|
B|----------------|----------------|----------------|----------1--2--|
G|----------------|----------------|----------------|----------2--3--|
D|--5---55--------|--5---55--------|--5---55--------|--5---555-3--4--|
A|----------------|----------------|----------------|----------------|
E|33-333----------|33-333----------|33-333----------|33-333----------|
  Silent woman in the night you came.....

E|----------------|----------------|----------------|----------------|----------------||
B|----------------|----------------|----------------|----------------|----------------||
G|----------------|----------------|----------------|----------------|7--6--5---3-----||
D|--5---55--------|--5---55--------|--5---55--------|--5---55------3-|----------3-----||
A|----------------|----------------|----------------|---------3-4-5-5|-5--4--3--1-----||
E|33-333----------|33-333----------|33-333----------|33-333----------|----------------||

E|----------------|----------------|----------------|----------------|
B|----------------|----------------|----------------|----------1--2--|
G|----------------|----------------|----------------|----------2--3--|
D|--5---55--------|--5---55--------|--5---55--------|--5---555-3--4--|
A|----------------|----------------|----------------|----------------|
E|33-333----------|33-333----------|33-333----------|33-333----------|
  Silent woman from the flames you come.....

E|----------------|----------------|----------------|----------------|----------------||
B|----------------|----------------|----------------|----------------|----------------||
G|----------------|----------------|----------------|----------------|7--6--5---3-----||
D|--5---55--------|--5---55--------|--5---55--------|--5---55------3-|----------3-----||
A|----------------|----------------|----------------|---------3-4-5-5|-5--4--3--1--111||
E|33-333----------|33-333----------|33-333----------|33-333----------|----------------||

E|3-------3-------|----------------|------------3---|--------------5-|
B|1-------1-1---3-|--------3-4-3-4-|--------4-6---5-|--------5-6-8-3-|
G|1-------1-1---4-|--------4-----3-|--------3-----3-|--------3-----5-|
D|3-------3-3---3-|--------3-----5-|--------------5-|--------5-------|
A|----------------|----------------|----------------|----------------|
E|----------------|----------------|----------------|----------------|

E|----------------|----------------|----------------|---------------5|
B|5-65--5---------|----------------|----------------|---------------5|
G|------5-----5---|3-----3333--3---|5-65--5-------3-|--------3---5--5|
D|------5-75--5---|3-55-----3--3---|------5---75--3-|----------------|
A|----------7-----|----5-----55--5-|----7-5-----7-5-|----5-45-457-67-|
E|----------------|----------------|----------------|----------------|
         \3/

E|----------------|----------------|----------------|----------------||
B|5-65--5---------|----------------|----------------|----------------||
G|------5-----5---|3-----3333--3---|5-65--5-------3-|----------3-----||
D|------5-75--5---|3-55-----3--3---|------5---75--3-|--53------3-----||
A|----------7-----|----5-----55--5-|----7-5-----7-5-|----5---35------||
E|----------------|----------------|----------------|----------------||
         \3/

E|----------------|----------------|----------------|----------------|
B|----------------|----------------|----------------|----------1--2--|
G|----------------|----------------|----------------|----------2--3--|
D|--5---55--------|--5---55--------|--5---55--------|--5---555-3--4--|
A|----------------|----------------|----------------|----------------|
E|33-333----------|33-333----------|33-333----------|33-333----------|
  Silent woman in the night you came.....

E|----------------|----------------|----------------|----------------|----------------||
B|----------------|----------------|----------------|----------------|----------------||
G|----------------|----------------|----------------|----------------|7--6--5---3-----||
D|--5---55--------|--5---55--------|--5---55--------|--5---55------3-|----------3-----||
A|----------------|----------------|----------------|---------3-4-5-5|-5--4--3--1-----||
E|33-333----------|33-333----------|33-333----------|33-333----------|----------------||

E|----------------|----------------|----------------|----------------|
B|----------------|----------------|----------------|----------1--2--|
G|----------------|----------------|----------------|----------2--3--|
D|--5---55--------|--5---55--------|--5---55--------|--5---555-3--4--|
A|----------------|----------------|----------------|----------------|
E|33-333----------|33-333----------|33-333----------|33-333----------|
  Silent woman from the flames you come.....

E|----------------|----------------|----------------|----------------|----------------||
B|----------------|----------------|----------------|----------------|----------------||
G|----------------|----------------|----------------|----------------|7--6--5---3-----||
D|--5---55--------|--5---55--------|--5---55--------|--5---55------3-|----------3-----||
A|----------------|----------------|----------------|---------3-4-5-5|-5--4--3--1--111||
E|33-333----------|33-333----------|33-333----------|33-333----------|----------------||

E|3-------3-------|----------------|------------3---|--------------5-|
B|1-------1-1---3-|--------3-4-3-4-|--------4-6---5-|--------5-6-8-3-|
G|1-------1-1---4-|--------4-----3-|--------3-----3-|--------3-----5-|
D|3-------3-3---3-|--------3-----5-|--------------5-|--------5-------|
A|----------------|----------------|----------------|----------------|
E|----------------|----------------|----------------|----------------|

E|----------------|----------------|----------------|---------------5|
B|5-65--5---------|----------------|----------------|---------------5|
G|------5-----5---|3-----3333--3---|5-65--5-------3-|--------3---5--5|
D|------5-75--5---|3-55-----3--3---|------5---75--3-|----------------|
A|----------7-----|----5-----55--5-|----7-5-----7-5-|----5-45-457-67-|
E|----------------|----------------|----------------|----------------|
         \3/

E|----------------|----------------|----------------|----------------||
B|5-65--5---------|----------------|----------------|----------------||
G|------5-----5---|3-----3333--3---|5-65--5-------3-|----------3--3--||
D|------5-75--5---|3-55-----3--3---|------5---75--3-|--53------------||
A|----------7-----|----5-----55--5-|----7-5-----7-5-|----5-5545-45-45||
E|----------------|----------------|----------------|----------------||


  Guitar Solo
E|----------------|----------------|-------------5--|----------------|
B|8---6-----------|----------------|10868-------5-8-|--------------5-|
G|--------------5-|----------------|--------5-7-----|----------------|
D|--------8-3-5---|----------------|----------------|----------------|
A|----------------|----------------|----------------|----------------|
E|----------------|----------------|----------------|----------------|
 |                                                                   |
E|----------------|----------------|----------------|----------------|
B|----------------|----------------|----------------|----------------|
G|3---3---3-2-3-5-|--5-5-5-5-7-5---|----------------|--------------2-|
D|3---3---3-2-3-5-|--5-5-5-5-7-5-2-|3---3---3-3---5-|--555-----5-5-2-|
A|1---1---1-0-1-3-|--3-3-3-3-5-3-0-|3---3---3-3-2-5-|--555-----5-5-0-|
E|----------------|----------------|1---1---1-1-0-3-|--333-330-3-3---|


E|----------------|------------6-7-|8--10-8---------|----------------|
B|7--7--7--7753-5-|----------10----|---------6--6-68|8---------------|
G|-------------5--|----------------|-----------7-7--|----------------|
D|----------------|----------------|----------------|----------------|
A|----------------|----------------|----------------|----------------|
E|----------------|----------------|----------------|----------------|
 |\--3--/                    \--3-/ \--3--/     \-3/                 |
E|----------------|----------------|----------------|----------------|
B|----------------|----------------|----------------|----------------|
G|3---3---3-2-3-5-|--5-5-5-5-7-5---|----------------|----------------|
D|3---3---3-2-3-5-|--5-5-5-5-7-5-2-|----------------|--5-5----55-55--|
A|1---1---1-0-1-3-|--3-3-3-3-5-3-0-|3---3---3-2-3---|--5-5----55-55--|
E|----------------|----------------|1---1---1-0-1---|3-----333-----11|


E|------6---------|----------------|----------------|----------------|
B|---7------------|----------5-6-8-|---6--8-6-5---5-|3-3-3---------6-|
G|----------75-355|--------5-------|------------5---|-4-4----------5-|
D|----------------|----------------|----------------|----------------|
A|----------------|----------------|----------------|----------------|
E|----------------|----------------|----------------|----------------|
 |\--3--/                           \--3--/   \--3-/                 |
E|----------------|----------------|----------------|----------------|
B|----------------|----------------|----------------|----------------|
G|3---3---3-2-3-5-|--5-5-5-5-7-5---|----------------|--------------2-|
D|3---3---3-2-3-5-|--5-5-5-5-7-5-2-|3-3-3-3-3-2-3-4-|5-5-5-5-5-5-5-2-|
A|1---1---1-0-1-3-|--3-3-3-3-5-3-0-|3-3-3-3-3-2-3-4-|5-5-5-5-5-5-5-0-|
E|----------------|----------------|1-1-1-1-1-0-1-2-|3-3-3-3-3-3-3---|


E|----------------|----------------|----------------|----------------||
B|6-6---6-----6---|6-------------5-|8---8---6-5--5--|----------------||
G|7-5-7-5-7-557-55|7-5-----5-5-5---|------------5-7-|(7)-------------||
D|----------------|----------------|----------------|----------------||
A|----------------|----------------|----------------|----------------||
E|----------------|----------------|----------------|----------------||
 |                                                                   ||
E|----------------|----------------|----------------|----------------||
B|----------------|----------------|----------------|----------------||
G|3---3---3-2-3-5-|--5-5-5-5-7-5---|----------------|--------3-------||
D|3---3---3-2-3-5-|--5-5-5-5-7-5-2-|3---3---3-3-3-5-|--------3-------||
A|1---1---1-0-1-3-|--3-3-3-3-5-3-0-|3---3---3-3-3-5-|--------1-------||
E|----------------|----------------|1---1---1-2-2-3-|----------------||


E|----------------|----------------|----------------|----------------|
B|----------------|----------------|----------------|----------1--2--|
G|----------------|----------------|----------------|----------2--3--|
D|--5---55--------|--5---55--------|--5---55--------|--5---555-3--4--|
A|----------------|----------------|----------------|----------------|
E|33-333----------|33-333----------|33-333----------|33-333----------|
  Silent woman my face has changed.....

E|----------------|----------------|----------------|----------------|
B|----------------|----------------|----------------|----------------|
G|----------------|----------------|----------------|----------------|
D|--5---55--------|--5---55--------|--5---55--------|--5---55------3-|
A|----------------|----------------|----------------|---------3-4-5-5|
E|33-333----------|33-333----------|33-333----------|33-333----------|

E|----------------|----------------|----------------|----------------|
B|----------------|----------------|----------------|----------------|
G|7--6--5---3333--|7--6--5---3333--|7--6--5---3333--|7--6--5---3333--|
D|----------3333--|----------3333--|----------3333--|----------3333--|
A|-5--4--3-11111--|-5--4--3-11111--|-5--4--3-11111--|-5--4--3-11111--|
E|----------------|----------------|----------------|----------------|

E|----------------|----------------|----------------|----------------||
B|----------------|----------------|----------------|----------------||
G|7--6--5---3333--|7--6--5---3333--|7--6--5--3------|(3)-------------||
D|----------3333--|----------3333--|---------3------|(3)-------------||
A|-5--4--3-11111--|-5--4--3-11111--|-5--4--311------|(1)-------------||
E|----------------|----------------|----------------|----------------||

---------------
Boogie With Stu
---------------
First Verse *** First Half Only (12 bars)

Only Play the first A chord on the first time through.
E||---------------------------|--------------------------||
B||---------------------------|--------------------------||
G||*--2--2-----------------2--|----2-----------------2--*||
D||*--2--2--4--2--2--------2--|----2--4--2--2--------2--*||
A||---0--0--0--0--0--3--4--0--|----0--0--0--0--3--4--0---||
E||---------------------------|--------------------------||

----------------------------||--------------------------|
----------------------------||--------------------------|
*--2--2--------2--2--4--2--*||--2--2-----------------2--|
*--0--0--3--4--0--0--0--0--*||--2--2--4--2--2--------2--|
----------------------------||--0--0--0--0--0--3--4--0--|
----------------------------||--------------------------|

--------------------------||----------------------------||
--------------------------||----------------------------||
--2--2--------2--2--------||*--------------------------*||
--2--2--4--2--2--2--4--2--||*--------------------------*||
--0--0--0--0--0--0--0--0--||---2--2--4--2--2--2--4--2---||
--------------------------||---0--0--0--0--0--0--0--0---||

|----------------------------||
|----------------------------||
|*--2--2--------------------*||
|*--2--2--------2--2--4--2--*||
|---0--0--3--4--0--0--0--0---||
|----------------------------||

***For the rest of the song, page pretty much sticks this pattern:
                          4x
|----------------------------||----------------------------||
|----------------------------||----------------------------||
|*--2--2--------------------*||*--2--2--------2--2--4--2--*||
|*--2--2--------2--2--4--2--*||*--0--0--3--4--0--0--0--0--*||
|---0--0--3--4--0--0--0--0---||----------------------------||
|----------------------------||----------------------------||

---------------------------||----------------------------|
---------------------------||----------------------------|
--2--2--------------------*||*--------------------------*|
--2--2--------2--2--4--2--*||*--------------------------*|
--0--0--3--4--0--0--0--0---||---2--2--4--2--2--2--4--2---|
---------------------------||---0--0--0--0--0--0--0--0---|

Verses end on:               Solos End With: (continues the progression)
|-----||                     |----------------------------||
|-----||                     |----------------------------||
|--2--||                     |*--2--2--------------------*||
|--2--||                     |*--2--2--------2--2--4--2--*||
|--0--||                     |---0--0--3--4--0--0--0--0---||
|-----||                     |----------------------------||


Use some variations, such as keeping the first beat silent:
   1   &  2  &  3  &  4  &
|----------------------------||
|----------------------------||
|*-----2--------------------*||
|*-----2--------2--2--4--2--*||
|------0--3--4--0--0--0--0---||
|----------------------------||
 Other than that, this song is all about feel, so just Boogie with Stu.


Mandolin:
First Solo
|------------------0--|--5--5--5--5--5--5--5--5--|--5--3--2--0-------------|
|---------------1-----|--------------------------|--------------1--0-------|
|------------2--------|--------------------------|--------------------2----|
|---------------------|--------------------------|-----------------------4-|
|---------------------|--------------------------|-------------------------|
|---------------------|--------------------------|-------------------------|

--------------5--------3--|--------5--------3--------|
--------1--2--------------|-----2-----------------2--|
--2--2-----------5--6-----|--5--------5--6-----5-----|
--------------------------|--------------------------|
--------------------------|--------------------------|
--------------------------|--------------------------|

--3--2--0-----------------|--------------------------|
-----------1--0--------0--|--------1--0--------------|
-----------------2--------|--2-----------2-----2--2--|
--------------------4-----|-----4-----------3--------|
--------------------------|--------------------------|
--------------------------|--------------------------|

--------------5--------5--|--------5--5----------0--|----------------0-------|
--------1--2--------------|-------------------0-----|--1--0-------0-----2--0-|
--2--2-----------5--6-----|--5--6-------------------|------------------------|
--------------------------|----------------3--------|----------3-------------|
--------------------------|-------------------------|------------------------|
--------------------------|-------------------------|------------------------|

-----------0--------------|-----------0--2-----0--2--|
--0-----0-----1--0-----0--|--------1--------2--------|
--------------------------|--2--2--------------------|
-----4--------------4-----|--------------------------|
--------------------------|--------------------------|
--------------------------|--------------------------|

--5--0-----5--0--0-----5-----|
--------2-----------2-----2--|
-----------------------------|
-----------------------------|
-----------------------------|
-----------------------------|


Outro Solo
|-----------------2--0--0--|--5--5--5--5--5--5--5--5--|
|--2--0--------------------|--------------------------|
|--------2-----2-----------|--------------------------|
|-----------4--------------|--------------------------|
|--------------------------|--------------------------|
|--------------------------|--------------------------|

--5--3--2--0--------------------|--------------2-----0-----|
--------------1--2--0-----------|--------0--2-----2-----0--|
-----------------------2--------|--2--2--------------------|
--------------------------3--4--|--------------------------|
--------------------------------|--------------------------|
--------------------------------|--------------------------|

-----------------------0--|--5--5--5--5--5--5--5--5--|
--2--0--------------2-----|--------------------------|
--------2-----2--2--------|--------------------------|
-----------4--------------|--------------------------|
--------------------------|--------------------------|
--------------------------|--------------------------|

--5--3--2--0--------------|--------------0--------5--|
--------------2--0--------|--------0--2-----1--2-----|
--------------------2-----|--2--2--------------------|
-----------------------4--|--------------------------|
--------------------------|--------------------------|
--------------------------|--------------------------|

--------3--------2--0-----|--------------0-----------|
--------------2--------2--|--0--------0-----1--2--0--|
--5--6-----5--------------|-----2--------------------|
--------------------------|--------4-----------------|
--------------------------|--------------------------|
--------------------------|--------------------------|

-----------0--------------|--------------5--5--5--5--|
--0-----0-----2--0--------|--------1--2--------------|
-----------------------2--|--2--2--------------------|
-----4--------------4-----|--------------------------|
--------------------------|--------------------------|
--------------------------|--------------------------|

--5--2--0-------------------|----------------------|----------5--------5-----|
-----------1--2----0--------|----------------------|----1--2-----------------|
----------------------2-----|--2---------2---------|-------------5--6-----5--|
-------------------------4--|-------4---------4----|-------------------------|
----------------------------|----------------------|-------------------------|
----------------------------|----------------------|-------------------------|

-----5-------------------|-----------5--------5-----|-----5--------------|
-------------------------|--------------------------|--------------------|
--6----------------------|-----5--6-----5--6-----4--|--5-----------------|
--------5--4--2----4--4--|--4-----------------------|--------------------|
-------------------------|--------------------------|--------------------|
-------------------------|--------------------------|--------------------|

----------5--------5-----|-----5--------------------|-----------5--------5---|
-------------------------|--------------------------|-----1--2---------------|
----5--6-----5--6-----5--|--6-----------------------|--------------5--6------|
-------------------------|--------5--4--2--2--4--4--|--2---------------------|
-------------------------|--------------------------|------------------------|
-------------------------|--------------------------|------------------------|

--0--0--0--0--0--0--0--0--|--0--0--0--0--0--0--0--0--|--5--||
--0--0--2--2--0--0--2--2--|--0--0--2--2--0--0--2--2--|-----||
--------------------------|--------------------------|--2--||
--------------------------|--------------------------|-----||
--------------------------|--------------------------|-----||
--------------------------|--------------------------|-----||

Boogie!!!!!!!

-------------------
Black Country Woman
-------------------
DGDGBD Tuning

-3--2--1--0--0--0--3--2--1--0--0------------------------------------------|
-3--2--1--0--0--0--3--2--1--0--0------------------------------------------|
-0--0--0--0--0--0--0--0--0--0--0------------------------------------------|
-0--0--0--0--0--0--0--0--0--0--0------------------------------------------|
----------------------------------3--0------------------------------------|
--------------------------------------------------------------------------|

Middle part (play different rhythms and variations with the following
chords, switching back to the above beginning chords at appropriate times):

-8--7--5-----10--9--7------------------------------|
-8--7--5-----10--9--7------------------------------|
-5--5--5------7--7--7------------------------------|
-5--5--5------7--7--7------------------------------|
-5--5--5------7--7--7------------------------------|
---------------------------------------------------|

Ending:

-0--0--0--0--0--2--0--3--------------|
-0--0--0--0--0--2--0--3--------------|
-0--0--0--0--0--0--0--0--------------|
-0--0--0--0--0--0--0--0--------------|
-3--2--1--0--0-----------------------|
-0--0--0--0--0-----------------------|

----------
Sick Again
----------

I could not find tab for this song and didnt have time to transcribe it. Sorry.
comments
We did not receive enough feedback on this tab! Please rate:
print report bad tab
1 2 3 4 5
3 comments total.
+2 reply
Maitinin wrote on September 11 2006, 09:58 am

there's a lots of parts missing and it's rather inaccurate and simple, but okay

0 reply
Causing_a_prob wrote on November 22 2006, 03:20 pm

yeah you are missing Bron yur aur?

0 reply
Hellboy griffin wrote on March 29 2009, 05:01 am

great tab helped to start me off,then worked the rest out for myself
5 stars great effort

I want to post or [tab]
guest
You may want to rate the tab now too:
select rating
Please do not post tabs as comments. Select "correction" instead!