Oops, an error
Loading. Please wait.

Physical Graffiti Disc 1 Tab

17,779 views 30 this week
5 commentsread comments
1 2 3 4 5
excellent!
x 5
add to favorites launch autoscroll
font size
0
reset
Autoscroll
+/-
esc
set tempo
stop
Contributor
Difficulty
advanced
WARNING: You are trying to view
                                    content from Ultimate-Guitar.com
                                    in an unauthorized application,
                                    which is prohibited.

                                    Please use an official Ultimate
                                    Guitar Tabs application for iPhone,
                                    iPad or Android to access legitimate
                                    chords, guitar, bass, and drum tabs
                                    from Ultimate-Guitar.com database.

                                    Type "ultimate guitar tabs" in Apple
                                    App Store's or Android Market's
                                    search to find the application.
ok here ive tabbed the more well known disc of zep's 6th album


                                   CUSTARD PIE
                           As recorded by Led Zeppelin
                     (From the 1975 Album PHYSICAL GRAFFITI)

Words and Music by Jimmy Page and Robert Plant
Transcribed by rocktabber

Gtr I (E A D G B E) - 'Guitar 1'
Gtr II (E A D G B E) - 'Guitar 2'
Gtr III (E A D G B E) - 'Guitar 3'
Gtr IV (E A D G B E) - 'Harmonica arranged for guitar'

 Intro
  Q=92
  (A7)            A5G5A5    (A7)            A5G5A5
 4/4
  Gtr II
  W                         W
|-------------------------|-------------------------|
|-------------------------|-------------------------|
|-------------------------|-------------------------|
|-------------------------|-------------------------|
|-------------------------|-------------------------|
|-------------------------|-------------------------|
|
| Gtr III
| S S S S S S E E E S E S   S S S S S S E E E S E S
|-------------------------|-------------------------|
|-------------------------|-------------------------|
|-----------------2-0-2---|-----------------2-0-2---|
|-2-2-2-4-4-4-5---2-0-2---|-2-2-2-4-4-4-5---2-0-2---|
|-0-0-0-0-0-0-0---0---0---|-0-0-0-0-0-0-0---0---0---|
|-------------------3-----|-------------------3-----|


  (A7)               A5G5A5
  E.     S +E    E E E S E S
|-----------------------------|
|-8------8-(8)---8------------|
|-6------6-(6)---6------------|
|-7------7-(7)---7---7-5-7----|
|--------------------7-5-7----|
|-----------------------------|
|
| S  S S S  S  S E E E S E S
|-----------------------------|
|-----------------------------|
|--------------------2-0-2----|
|-2--2-2-4--4--4-5---2-0-2----|
|-0--0-0-0--0--0-0---0---0----|
|----------------------3------|


  (A7)               A5G5A5
  E.     S +E    E E E S E S
|----------------------------|
|-8------8-(8)---8-----------|
|-6------6-(6)---6-----------|
|-7------7-(7)---7---7-5-7---|
|--------------------7-5-7---|
|----------------------------|
|
| S  S S S  S  S E E E S E S
|----------------------------|
|----------------------------|
|--------------------2-0-2---|
|-2--2-2-4--4--4-5---2-0-2---|
|-0--0-0-0--0--0-0---0---0---|
|----------------------3-----|


   1st & 2nd Verses
    (A7)               A5G5A5    (A7)               A5G5A5
    E.     S +E    E E E S E S   E.     S +E    E E E S E S
||-----------------------------|----------------------------|
||o-8------8-(8)---8-----------|-8------8-(8)---8-----------|
||--6------6-(6)---6-----------|-6------6-(6)---6-----------|
||--7------7-(7)---7---7-5-7---|-7------7-(7)---7---7-5-7---|
||o--------------------7-5-7---|--------------------7-5-7---|
||-----------------------------|----------------------------|
|
|   S  S S S  S  S E E E S E S   S  S S S  S  S E E E S E S
||-----------------------------|----------------------------|
||o----------------------------|----------------------------|
||---------------------2-0-2---|--------------------2-0-2---|
||--2--2-2-4--4--4-5---2-0-2---|-2--2-2-4--4--4-5---2-0-2---|
||o-0--0-0-0--0--0-0---0---0---|-0--0-0-0--0--0-0---0---0---|
||-----------------------3-----|----------------------3-----|


  (A7)               A5G5A5    (A7)               A5G5A5    D5
  E.     S +E    E E E S E S   E.     S +E    E E E S E S   W
|----------------------------|----------------------------|------|
|-8------8-(8)---8-----------|-8------8-(8)---8-----------|------|
|-6------6-(6)---6-----------|-6------6-(6)---6-----------|-7----|
|-7------7-(7)---7---7-5-7---|-7------7-(7)---7---7-5-7---|-7----|
|--------------------7-5-7---|--------------------7-5-7---|-5----|
|----------------------------|----------------------------|------|
|
| S  S S S  S  S E E E S E S   S  S S S  S  S E E E S E S   W
|----------------------------|----------------------------|------|
|----------------------------|----------------------------|------|
|--------------------2-0-2---|--------------------2-0-2---|-7----|
|-2--2-2-4--4--4-5---2-0-2---|-2--2-2-4--4--4-5---2-0-2---|-7----|
|-0--0-0-0--0--0-0---0---0---|-0--0-0-0--0--0-0---0---0---|-5----|
|----------------------3-----|----------------------3-----|------|


    D5C#C5           B5Bb5
  S S S S +Q   +S  S S S +Q
|-----------------------------|
|-----------------------------|
|---7-6-5-(5)--(5)-5-4-3-(3)--|
|---7-6-5-(5)--(5)-5-4-3-(3)--|
|---5-4-3-(3)--(3)-3-2-1-(1)--|
|-----------------------------|
|
| S S S S +Q   +S  S S S +Q
|-----------------------------|
|-----------------------------|
|---7-6-5-(5)--(5)-5-4-3-(3)--|
|---7-6-5-(5)--(5)-5-4-3-(3)--|
|---5-4-3-(3)--(3)-3-2-1-(1)--|
|-----------------------------|


  (A7)               A5G5A5    (A7)               A5G5A5
  E.     S +E    E E E S E S   E.     S +E    E E E S E S
|----------------------------|----------------------------|
|-8------8-(8)---8-----------|-8------8-(8)---8-----------|
|-6------6-(6)---6-----------|-6------6-(6)---6-----------|
|-7------7-(7)---7---7-5-7---|-7------7-(7)---7---7-5-7---|
|--------------------7-5-7---|--------------------7-5-7---|
|----------------------------|----------------------------|
|
| S  S S S  S  S E E E S E S   S  S S S  S  S E E E S E S
|----------------------------|----------------------------|
|----------------------------|----------------------------|
|--------------------2-0-2---|--------------------2-0-2---|
|-2--2-2-4--4--4-5---2-0-2---|-2--2-2-4--4--4-5---2-0-2---|
|-0--0-0-0--0--0-0---0---0---|-0--0-0-0--0--0-0---0---0---|
|----------------------3-----|----------------------3-----|


  E5          G7sus4/D       F5  G5  (A7)               A5G5A5
  H.      +E   E    +H     E E E E   E.     S +E    E E E S E S
|----------------|-----------------|----------------------------|
|----------------|-----------------|-8------8-(8)---8-----------|
|--------------7-|--(7)------5---7-|-6------6-(6)---6-----------|
|-9-------(9)--5-|--(5)------3---5-|-7------7-(7)---7---7-5-7---|
|-7-------(7)----|-----------------|--------------------7-5-7---|
|----------------|-----------------|----------------------------|
|
| H.      +E   E    +H     E E E E   S  S S S  S  S E E E S E S
|----------------|-----------------|----------------------------|
|----------------|-----------------|----------------------------|
|-------------10-|-(10)------------|--------------------2-0-2---|
|-9-------(9)-10-|-(10)------3---5-|-2--2-2-4--4--4-5---2-0-2---|
|-7-------(7)-10-|-(10)------3---5-|-0--0-0-0--0--0-0---0---0---|
|-------------10-|-(10)------1---3-|----------------------3-----|


  1.
  (A7)               A5G5A5
  E.     S +E    E E E S E S
|-----------------------------||
|-8------8-(8)---8-----------o||
|-6------6-(6)---6------------||
|-7------7-(7)---7---7-5-7----||
|--------------------7-5-7---o||
|-----------------------------||
|
| S  S S S  S  S E E E S E S
|-----------------------------||
|----------------------------o||
|--------------------2-0-2----||
|-2--2-2-4--4--4-5---2-0-2----||
|-0--0-0-0--0--0-0---0---0---o||
|----------------------3------||


                               3rd Verse
 2.
  (A7)               A5G5A5     (A7)               A5G5A5
  E.     S +E    E E E S E S    E.     S +E    E E E S E S
|----------------------------||----------------------------|
|-8------8-(8)---8-----------||-8------8-(8)---8-----------|
|-6------6-(6)---6-----------||-6------6-(6)---6-----------|
|-7------7-(7)---7---7-5-7---||-7------7-(7)---7---7-5-7---|
|--------------------7-5-7---||--------------------7-5-7---|
|----------------------------||----------------------------|
|
| S  S S S  S  S E E E S E S    S  S S S  S  S E E E S E S
|----------------------------||----------------------------|
|----------------------------||----------------------------|
|--------------------2-0-2---||--------------------2-0-2---|
|-2--2-2-4--4--4-5---2-0-2---||-2--2-2-4--4--4-5---2-0-2---|
|-0--0-0-0--0--0-0---0---0---||-0--0-0-0--0--0-0---0---0---|
|----------------------3-----||----------------------3-----|


  (A7)               A5G5A5
  E.     S +E    E E E S E S
|----------------------------|
|-8------8-(8)---8-----------|
|-6------6-(6)---6-----------|
|-7------7-(7)---7---7-5-7---|
|--------------------7-5-7---|
|----------------------------|
|
| S  S S S  S  S E E E S E S
|----------------------------|
|----------------------------|
|--------------------2-0-2---|
|-2--2-2-4--4--4-5---2-0-2---|
|-0--0-0-0--0--0-0---0---0---|
|----------------------3-----|


  (A7)               A5G5A5    (A7)               A5G5A5
  E.     S +E    E E E S E S   E.     S +E    E E E S E S
|----------------------------|----------------------------|
|-8------8-(8)---8-----------|-8------8-(8)---8-----------|
|-6------6-(6)---6-----------|-6------6-(6)---6-----------|
|-7------7-(7)---7---7-5-7---|-7------7-(7)---7---7-5-7---|
|--------------------7-5-7---|--------------------7-5-7---|
|----------------------------|----------------------------|
|
| S  S S S  S  S E E E S E S   S  S S S  S  S E E E S E S
|----------------------------|----------------------------|
|----------------------------|----------------------------|
|--------------------2-0-2---|--------------------2-0-2---|
|-2--2-2-4--4--4-5---2-0-2---|-2--2-2-4--4--4-5---2-0-2---|
|-0--0-0-0--0--0-0---0---0---|-0--0-0-0--0--0-0---0---0---|
|----------------------3-----|----------------------3-----|


  D5           D5C#C5           B5Bb5      (A7)               A5G5A5
  W          S S S S +Q   +S  S S S +Q     E.     S +E    E E E S E S
|----------|-----------------------------|----------------------------|
|----------|-----------------------------|-8------8-(8)---8-----------|
|-7--------|---7-6-5-(5)--(5)-5-4-3-(3)--|-6------6-(6)---6-----------|
|-7--------|---7-6-5-(5)--(5)-5-4-3-(3)--|-7------7-(7)---7---7-5-7---|
|-5--------|---5-4-3-(3)--(3)-3-2-1-(1)--|--------------------7-5-7---|
|----------|-----------------------------|----------------------------|
|
| W          S S S S +Q   +S  S S S +Q     S  S S S  S  S E E E S E S
|----------|-----------------------------|----------------------------|
|----------|-----------------------------|----------------------------|
|-7--------|---7-6-5-(5)--(5)-5-4-3-(3)--|--------------------2-0-2---|
|-7--------|---7-6-5-(5)--(5)-5-4-3-(3)--|-2--2-2-4--4--4-5---2-0-2---|
|-5--------|---5-4-3-(3)--(3)-3-2-1-(1)--|-0--0-0-0--0--0-0---0---0---|
|----------|-----------------------------|----------------------3-----|


  (A7)               A5G5A5    E5          G7sus4/D       F5  G5
  E.     S +E    E E E S E S   H.      +E   E    +H     E E E E
|----------------------------|----------------|-----------------|
|-8------8-(8)---8-----------|----------------|-----------------|
|-6------6-(6)---6-----------|--------------7-|--(7)------5---7-|
|-7------7-(7)---7---7-5-7---|-9-------(9)--5-|--(5)------3---5-|
|--------------------7-5-7---|-7-------(7)----|-----------------|
|----------------------------|----------------|-----------------|
|
| S  S S S  S  S E E E S E S   H.      +E   E    +H     E E E E
|----------------------------|----------------|-----------------|
|----------------------------|----------------|-----------------|
|--------------------2-0-2---|-------------10-|-(10)------------|
|-2--2-2-4--4--4-5---2-0-2---|-9-------(9)-10-|-(10)------3---5-|
|-0--0-0-0--0--0-0---0---0---|-7-------(7)-10-|-(10)------3---5-|
|----------------------3-----|-------------10-|-(10)------1---3-|


 Guitar Solo
  (A7)                        A5G5A5    (A7)                        A5G5A5
  Gtr I
  E.      S    +E    E    +H            E.      S    +E    E    +H
|-------------------------------------|-------------------------------------|
|-7b8-----7b8==(7)---7b8==(7)---------|-7b8-----7b8==(7)---7b8==(7)---------|
|-7b9-----7b9==(7)---7b9==(7)---------|-7b9-----7b9==(7)---7b9==(7)---------|
|-------------------------------------|-------------------------------------|
|-------------------------------------|-------------------------------------|
|-------------------------------------|-------------------------------------|
|
| Gtr II
| E.      S    +E    E     E  E S E S   E.      S    +E    E     E  E S E S
|-------------------------------------|-------------------------------------|
|-8-------8----(8)---8----------------|-8-------8----(8)---8----------------|
|-6-------6----(6)---6----------------|-6-------6----(6)---6----------------|
|-7-------7----(7)---7--------7-5-7---|-7-------7----(7)---7--------7-5-7---|
|-----------------------------7-5-7---|-----------------------------7-5-7---|
|-------------------------------------|-------------------------------------|
|
| Gtr III
| S   S S S     S  S E     E  E S E S   S   S S S     S  S E     E  E S E S
|-------------------------------------|-------------------------------------|
|-------------------------------------|-------------------------------------|
|-----------------------------2-0-2---|-----------------------------2-0-2---|
|-2---2-2-4-----4--4-5--------2-0-2---|-2---2-2-4-----4--4-5--------2-0-2---|
|-0---0-0-0-----0--0-0--------0---0---|-0---0-0-0-----0--0-0--------0---0---|
|-------------------------------3-----|-------------------------------3-----|


  (A7)                        A5        G5A5
  E.      S    +E    E    +E  T   +T  S S S S S
|-----------------------------------------------|
|-7b8-----7b8==(7)---7b8==(7)-7b8r(7)p5-7p5-----|
|-7b9-----7b9==(7)---7b9==(7)-7b9r(7)p5-7p5---5-|
|-------------------------------------------7---|
|-----------------------------------------------|
|-----------------------------------------------|
|
| E.      S    +E    E     E  E         S E   S
|-----------------------------------------------|
|-8-------8----(8)---8--------------------------|
|-6-------6----(6)---6--------------------------|
|-7-------7----(7)---7--------7---------5-7-----|
|-----------------------------7---------5-7-----|
|-----------------------------------------------|
|
| S   S S S     S  S E     E  E         S E   S
|-----------------------------------------------|
|-----------------------------------------------|
|-----------------------------2---------0-2-----|
|-2---2-2-4-----4--4-5--------2---------0-2-----|
|-0---0-0-0-----0--0-0--------0-----------0-----|
|---------------------------------------3-------|


  (A7)                                  A5      G5A5
  E.      S    +E    S    +S  +S    +S  T   T S S S S S
|-------------------------------------------------------|
|-7b8-----7b8==(7)---7b8==(7)r(7)b8-(7)-7b8r7p5-7p5-----|
|-7b9-----7b9==(7)---7b9==(7)r(7)b9-(7)-7b9r7p5-7p5---5-|
|---------------------------------------------------7---|
|-------------------------------------------------------|
|-------------------------------------------------------|
|
| E.      S    +E    E         E        E       S E   S
|-------------------------------------------------------|
|-8-------8----(8)---8----------------------------------|
|-6-------6----(6)---6----------------------------------|
|-7-------7----(7)---7------------------7-------5-7-----|
|---------------------------------------7-------5-7-----|
|-------------------------------------------------------|
|
| S   S S S     S  S E         E        E       S E   S
|-------------------------------------------------------|
|-------------------------------------------------------|
|---------------------------------------2-------0-2-----|
|-2---2-2-4-----4--4-5------------------2-------0-2-----|
|-0---0-0-0-----0--0-0------------------0---------0-----|
|-----------------------------------------------3-------|


  (A7)                                  A5      G5A5
  E.      S    +E    S    +S  +S    +S  T   T S S S S S
|--------------------------------------------------------|
|-7b8-----7b8==(7)---7b8==(7)r(7)b8-(7)-7b8r7p5-7p5------|
|-7b9-----7b9==(7)---7b9==(7)r(7)b9-(7)-7b9r7p5-7p5---5--|
|---------------------------------------------------7----|
|--------------------------------------------------------|
|--------------------------------------------------------|
|
| E.      S    +E    E         E        E       S E   S
|--------------------------------------------------------|
|-8-------8----(8)---8-----------------------------------|
|-6-------6----(6)---6-----------------------------------|
|-7-------7----(7)---7------------------7-------5-7------|
|---------------------------------------7-------5-7------|
|--------------------------------------------------------|
|
| S   S S S     S  S E         E        E       S E   S
|--------------------------------------------------------|
|--------------------------------------------------------|
|---------------------------------------2-------0-2------|
|-2---2-2-4-----4--4-5------------------2-------0-2------|
|-0---0-0-0-----0--0-0------------------0---------0------|
|-----------------------------------------------3--------|


  (A7)                             A5  G5  A5
                  |--3---|
  S   +S  S S    +S  S   S S S S S S S E     S S
|---------5----------------------------------------|
|--------------------------------------------------|
|-7b9-(7)---7b9==(7)r7p==5-7---5-7-5---5b6-----5b6-|
|----------------------------7-------7-------7-----|
|--------------------------------------------------|
|--------------------------------------------------|
|
| E.        S    +E        E   E   E   S   E   S
|--------------------------------------------------|
|-8---------8----(8)-------8-----------------------|
|-6---------6----(6)-------6-----------------------|
|-7---------7----(7)-------7-------7---5---7-------|
|----------------------------------7---5---7-------|
|--------------------------------------------------|
|
| S    S  S S     S    S   E   E   E   S   E   S
|--------------------------------------------------|
|--------------------------------------------------|
|----------------------------------2---0---2-------|
|-2----2--2-4-----4----4---5-------2---0---2-------|
|-0----0--0-0-----0----0---0-------0-------0-------|
|--------------------------------------3-----------|


    D5
  a  S  S  S  S  a S S S S a S S a S S S   S S S
|--------------------------------------------------|
|--------------------------------------------------|
|-9s11-11-11-11-11s9p7---7-7s5---------------------|
|----------------------9-------7-5s3---3b4---3-----|
|------------------------------------5-----5-------|
|--------------------------------------------------|
|
|    W
|--------------------------------------------------|
|--------------------------------------------------|
|----7---------------------------------------------|
|----7---------------------------------------------|
|----5---------------------------------------------|
|--------------------------------------------------|
|
|    W
|--------------------------------------------------|
|--------------------------------------------------|
|----7---------------------------------------------|
|----7---------------------------------------------|
|----5---------------------------------------------|
|--------------------------------------------------|


    D5C#C5       B5Bb5      (A7)                   A5  G5  A5
 15/16                     4/4
  S S S S +Q   S S S +Q     S  S S S  S  S S S S S S S S   +S  S S
|-------------------------|----------------------------------------|
|-------------------------|----------------------------------------|
|-------------------------|-----------5--x-7---5-7-5---5b6-(5)-----|
|---5-4-3-(3)--5-4-3-(3)--|----5-6-7---------7-----------------7---|
|-------------------------|-7------------------------------------x-|
|-------------------------|----------------------------------------|
|
| S S S S +Q   S S S +Q     E.     S +E    E   E   E   S    E    S
|-------------------------|----------------------------------------|
|-------------------------|-8------8-(8)---8-----------------------|
|---7-6-5-(5)--5-4-3-(3)--|-6------6-(6)---6-----------------------|
|---7-6-5-(5)--5-4-3-(3)--|-7------7-(7)---7-------7---5----7------|
|---5-4-3-(3)--3-2-1-(1)--|------------------------7---5----7------|
|-------------------------|----------------------------------------|
|
| S S S S +Q   S S S +Q     S  S S S  S  S E   E   E   S    E    S
|-------------------------|----------------------------------------|
|-------------------------|----------------------------------------|
|---7-6-5-(5)--5-4-3-(3)--|------------------------2---0----2------|
|---7-6-5-(5)--5-4-3-(3)--|-2--2-2-4--4--4-5-------2---0----2------|
|---5-4-3-(3)--3-2-1-(1)--|-0--0-0-0--0--0-0-------0--------0------|
|-------------------------|----------------------------3-----------|


    (A7)                             A5    G5     A5
 4/4
                                                    |---3----|
  a S  S  a  S  S  +E     S  S  E     E     S      +T   +T   T  S S
|-------------------------------------------------------------------|
|------x-10s12-10-(10)------10-12b14-12b14-12b14==(12)r(12)p10-12---|
|-9sx--------------------11---------------------------------------x-|
|-------------------------------------------------------------------|
|-------------------------------------------------------------------|
|-------------------------------------------------------------------|
|
|   E.          S  +E     E     E     E     S       E             S
|-------------------------------------------------------------------|
|---8-----------8--(8)----8-----------------------------------------|
|---6-----------6--(6)----6-----------------------------------------|
|---7-----------7--(7)----7-----------7-----5-------7---------------|
|-------------------------------------7-----5-------7---------------|
|-------------------------------------------------------------------|
|
|   S  S     S  S   S  S  E     E     E     S       E             S
|-------------------------------------------------------------------|
|-------------------------------------------------------------------|
|-------------------------------------2-----0-------2---------------|
|---2--2-----2--4---4--4--5-----------2-----0-------2---------------|
|---0--0-----0--0---0--0--0-----------0-------------0---------------|
|-------------------------------------------3-----------------------|


  E5                                            G7sus4/D
   E    S  S     +S  S  E     E     S  S  S   S  S S
|----------------------------------------------------|
|-12b13---12b13-(12)---12b13-12b13-12-10-----10------|
|----------------------------------------11-----11s9-|
|----------------------------------------------------|
|----------------------------------------------------|
|----------------------------------------------------|
|
|  H.                                    +E      E
|----------------------------------------------------|
|----------------------------------------------------|
|------------------------------------------------7---|
|--9-------------------------------------(9)-----5---|
|--7-------------------------------------(7)---------|
|----------------------------------------------------|
|
|  H.                                    +E      E
|----------------------------------------------------|
|----------------------------------------------------|
|-----------------------------------------------10---|
|--9-------------------------------------(9)----10---|
|--7-------------------------------------(7)----10---|
|-----------------------------------------------10---|


                                       F5          G5
    S   S  S  S     +S   S  S  S  S  S  E     S  S  E
|-----------------------------------------------------|
|-----------------------------------13-15b17-13-15-13-|
|---------10-12b14-(12)-12-10-12S14-------------------|
|-----------------------------------------------------|
|---8S=12---------------------------------------------|
|-----------------------------------------------------|
|
|  +H                             E     E     E     E
|-----------------------------------------------------|
|-----------------------------------------------------|
|--(7)----------------------------------5-----------7-|
|--(5)----------------------------------3-----------5-|
|-----------------------------------------------------|
|-----------------------------------------------------|
|
|  +H                             E     E     E     E
|-----------------------------------------------------|
|-----------------------------------------------------|
|-(10)------------------------------------------------|
|-(10)----------------------------------3-----------5-|
|-(10)----------------------------------3-----------5-|
|-(10)----------------------------------1-----------3-|


  (A7)                                A5     G5 A5
   E     S     +S   S   S  E  S  E       +S   E   E
|-15-------------------------15-----------------------|
|-------15b17r(15)-13--15-13----15b17r==(15)-13-------|
|-----------------------------------------------------|
|-----------------------------------------------------|
|-----------------------------------------------------|
|-----------------------------------------------------|
|
|  E.           S  +E      E  E       E       S E   S
|-----------------------------------------------------|
|--8------------8--(8)-----8--------------------------|
|--6------------6--(6)-----6--------------------------|
|--7------------7--(7)-----7----------7-------5-7-----|
|-------------------------------------7-------5-7-----|
|-----------------------------------------------------|
|
|  S  S  S      S   S   S  E  E       E       S E   S
|-----------------------------------------------------|
|-----------------------------------------------------|
|-------------------------------------2-------0-2-----|
|--2--2--2------4---4---4--5----------2-------0-2-----|
|--0--0--0------0---0---0--0----------0---------0-----|
|---------------------------------------------3-------|


  (A7)                          A5         G5 A5
   E     S     +S   S   S  E  E  S     +S   S  S  E
|-15-------------------------15-----------------------||
|-------15b17r(15)-13--15-13----15b17r(15)-13-15-13---||
|-----------------------------------------------------||
|-----------------------------------------------------||
|-----------------------------------------------------||
|-----------------------------------------------------||
|
|  E.           S  +E      E  E  E          S  E    S
|-----------------------------------------------------||
|--8------------8--(8)-----8--------------------------||
|--6------------6--(6)-----6--------------------------||
|--7------------7--(7)-----7-----7----------5--7------||
|--------------------------------7----------5--7------||
|-----------------------------------------------------||
|
|  S  S  S      S   S   S  E  E  E          S  E    S
|-----------------------------------------------------||
|-----------------------------------------------------||
|--------------------------------2----------0--2------||
|--2--2--2------4---4---4--5-----2----------0--2------||
|--0--0--0------0---0---0--0-----0-------------0------||
|-------------------------------------------3---------||


 4th Verse
  (A7)                A5G5A5    (A7)               A5G5A5
   Q         Q      H           W
|-----------------------------|-----------------------------|
|-----------------------------|-----------------------------|
|-14\-------------------------|-----------------------------|
|-----------------------------|-----------------------------|
|-----------------------------|-----------------------------|
|-----------------------------|-----------------------------|
|
|  E.     S +E    E E E S E S   E.     S +E    E E E S E S
|-----------------------------|-----------------------------|
|--8------8-(8)---8-----------|-8------8-(8)---8------------|
|--6------6-(6)---6-----------|-6------6-(6)---6------------|
|--7------7-(7)---7---7-5-7---|-7------7-(7)---7---7-5-7----|
|---------------------7-5-7---|--------------------7-5-7----|
|-----------------------------|-----------------------------|
|
|  S  S S S  S  S E E E S E S   S  S S S  S  S E E E S E S
|-----------------------------|-----------------------------|
|-----------------------------|-----------------------------|
|---------------------2-0-2---|--------------------2-0-2----|
|--2--2-2-4--4--4-5---2-0-2---|-2--2-2-4--4--4-5---2-0-2----|
|--0--0-0-0--0--0-0---0---0---|-0--0-0-0--0--0-0---0---0----|
|-----------------------3-----|----------------------3------|


  (A7)               A5G5A5    (A7)               A5G5A5    D5
  Gtr II
  E.     S +E    E E E S E S   E.     S +E    E E E S E S   W
|----------------------------|----------------------------|------|
|-8------8-(8)---8-----------|-8------8-(8)---8-----------|------|
|-6------6-(6)---6-----------|-6------6-(6)---6-----------|-7----|
|-7------7-(7)---7---7-5-7---|-7------7-(7)---7---7-5-7---|-7----|
|--------------------7-5-7---|--------------------7-5-7---|-5----|
|----------------------------|----------------------------|------|
|
| Gtr III
| S  S S S  S  S E E E S E S   S  S S S  S  S E E E S E S   W
|----------------------------|----------------------------|------|
|----------------------------|----------------------------|------|
|--------------------2-0-2---|--------------------2-0-2---|-7----|
|-2--2-2-4--4--4-5---2-0-2---|-2--2-2-4--4--4-5---2-0-2---|-7----|
|-0--0-0-0--0--0-0---0---0---|-0--0-0-0--0--0-0---0---0---|-5----|
|----------------------3-----|----------------------3-----|------|


    D5C#C5           B5Bb5
  S S S S +Q   +S  S S S +Q
|-----------------------------|
|-----------------------------|
|---7-6-5-(5)--(5)-5-4-3-(3)--|
|---7-6-5-(5)--(5)-5-4-3-(3)--|
|---5-4-3-(3)--(3)-3-2-1-(1)--|
|-----------------------------|
|
| S S S S +Q   +S  S S S +Q
|-----------------------------|
|-----------------------------|
|---7-6-5-(5)--(5)-5-4-3-(3)--|
|---7-6-5-(5)--(5)-5-4-3-(3)--|
|---5-4-3-(3)--(3)-3-2-1-(1)--|
|-----------------------------|


  (A7)               A5G5A5    (A7)               A5G5A5
  E.     S +E    E E E S E S   E.     S +E    E E E S E S
|----------------------------|----------------------------|
|-8------8-(8)---8-----------|-8------8-(8)---8-----------|
|-6------6-(6)---6-----------|-6------6-(6)---6-----------|
|-7------7-(7)---7---7-5-7---|-7------7-(7)---7---7-5-7---|
|--------------------7-5-7---|--------------------7-5-7---|
|----------------------------|----------------------------|
|
| S  S S S  S  S E E E S E S   S  S S S  S  S E E E S E S
|----------------------------|----------------------------|
|----------------------------|----------------------------|
|--------------------2-0-2---|--------------------2-0-2---|
|-2--2-2-4--4--4-5---2-0-2---|-2--2-2-4--4--4-5---2-0-2---|
|-0--0-0-0--0--0-0---0---0---|-0--0-0-0--0--0-0---0---0---|
|----------------------3-----|----------------------3-----|


  E5          G7sus4/D       F5  G5  (A7)               A5G5A5
  H.      +E   E    +H     E E E E   E.     S +E    E E E S E S
|----------------|-----------------|----------------------------||
|----------------|-----------------|-8------8-(8)---8-----------||
|--------------7-|--(7)------5---7-|-6------6-(6)---6-----------||
|-9-------(9)--5-|--(5)------3---5-|-7------7-(7)---7---7-5-7---||
|-7-------(7)----|-----------------|--------------------7-5-7---||
|----------------|-----------------|----------------------------||
|
| H.      +E   E    +H     E E E E   S  S S S  S  S E E E S E S
|----------------|-----------------|----------------------------||
|----------------|-----------------|----------------------------||
|-------------10-|-(10)------------|--------------------2-0-2---||
|-9-------(9)-10-|-(10)------3---5-|-2--2-2-4--4--4-5---2-0-2---||
|-7-------(7)-10-|-(10)------3---5-|-0--0-0-0--0--0-0---0---0---||
|-------------10-|-(10)------1---3-|----------------------3-----||


 Harmonica Solo
     (A7)                A5G5A5    (A7)                     A5G5A5
  Gtr IV
                                          ~~~~~~~~~~~~~~~~~~~~~~~~~~~~~
   a  W                             E     Q.            +Q.        +S   S
|--------------------------------|----------------------------------------|
|--------------------------------|-17----15------------(15)-------(15)-17-|
|-14s21--------------------------|----------------------------------------|
|--------------------------------|----------------------------------------|
|--------------------------------|----------------------------------------|
|--------------------------------|----------------------------------------|
|
| Gtr II
|     E.     S +E    E E E S E S    E.       S +E    E   E  E S E       S
|--------------------------------|----------------------------------------|
|-----8------8-(8)---8-----------|--8--------8-(8)---8--------------------|
|-----6------6-(6)---6-----------|--6--------6-(6)---6--------------------|
|-----7------7-(7)---7---7-5-7---|--7--------7-(7)---7------7-5-7---------|
|------------------------7-5-7---|--------------------------7-5-7---------|
|--------------------------------|----------------------------------------|
|
| Gtr III
|     S  S S S  S  S E E E S E S    S  S  S  S  S  S E   E  E S E       S
|--------------------------------|----------------------------------------|
|--------------------------------|----------------------------------------|
|------------------------2-0-2---|--------------------------2-0-2---------|
|-----2--2-2-4--4--4-5---2-0-2---|--2--2--2--4--4--4-5------2-0-2---------|
|-----0--0-0-0--0--0-0---0---0---|--0--0--0--0--0--0-0------0---0---------|
|--------------------------3-----|----------------------------3-----------|


  (A7)                       A5G5 A5
       ~~~~~~~~~~~~~~~~~~~~~~
   S   E.      +Q       +Q     E.    S
|---------------------------------------||
|-15--17------(17)-----(17)\------------||
|-----------------------------------14--||
|---------------------------------------||
|---------------------------------------||
|---------------------------------------||
|
|  E.       S  +E    E   E   E S  E  S
|---------------------------------------||
|--8--------8--(8)---8------------------||
|--6--------6--(6)---6------------------||
|--7--------7--(7)---7-------7-5--7-----||
|----------------------------7-5--7-----||
|---------------------------------------||
|
|  S   S  S S   S  S E   E   E S  E  S
|---------------------------------------||
|---------------------------------------||
|----------------------------2-0--2-----||
|--2---2--2-4---4--4-5-------2-0--2-----||
|--0---0--0-0---0--0-0-------0----0-----||
|------------------------------3--------||


   Outro
    (A7)                    A5G5A5    (A7)                        A5 G5 A5
          ~~~~~~~~~~~~~~~~~~
     E    Q.            +Q    Q        E     S  S  +S   S  E S  S  E  E   E
||----------------------------------|-----------------------------------------|
||o-15S==17------------(17)---------|-14----14-14-(14)-14-14---14-14-14-------|
||----------------------------------|-14----14-14-(14)-14-14---14-14-14-------|
||----------------------------------|-----------------------------------------|
||o---------------------------------|-----------------------------------------|
||----------------------------------|-----------------------------------------|
|
|    E.      S +E    E   E  E S E S    E.       S  +E      E E     E  S E   S
||----------------------------------|-----------------------------------------|
||o--8-------8-(8)---8--------------|--8--------8--(8)-----8------------------|
||---6-------6-(6)---6--------------|--6--------6--(6)-----6------------------|
||---7-------7-(7)---7------7-5-7---|--7--------7--(7)-----7-------7--5-7-----|
||o-------------------------7-5-7---|------------------------------7--5-7-----|
||----------------------------------|-----------------------------------------|
|
|    S S  S  S  S  S E   E  E S E S    S  S  S  S   S   S  E E     E  S E   S
||----------------------------------|-----------------------------------------|
||o---------------------------------|-----------------------------------------|
||--------------------------2-0-2---|------------------------------2--0-2-----|
||---2-2--2--4--4--4-5------2-0-2---|--2--2--2--4---4---4--5-------2--0-2-----|
||o--0-0--0--0--0--0-0------0---0---|--0--0--0--0---0---0--0-------0----0-----|
||----------------------------3-----|---------------------------------3-------|


  (A7)                        A5 G5 A5
   E     S  S  +S   S  E S  S  E  E   E
|-----------------------------------------|
|-14----14-14-(14)-14-14---14-14-14-------|
|-14----14-14-(14)-14-14---14-14-14-------|
|-----------------------------------------|
|-----------------------------------------|
|-----------------------------------------|
|
|  E.       S  +E      E E     E  S E   S
|-----------------------------------------|
|--8--------8--(8)-----8------------------|
|--6--------6--(6)-----6------------------|
|--7--------7--(7)-----7-------7--5-7-----|
|------------------------------7--5-7-----|
|-----------------------------------------|
|
|  S  S  S  S   S   S  E E     E  S E   S
|-----------------------------------------|
|-----------------------------------------|
|------------------------------2--0-2-----|
|--2--2--2--4---4---4--5-------2--0-2-----|
|--0--0--0--0---0---0--0-------0----0-----|
|---------------------------------3-------|


  (A7)                        A5 G5 A5      (A7)                        A5 G5 A5
   E     S  S  +S   S  E S  S  E  E   E      E     S  S  +S   S  E S  S  E  E   E
|-----------------------------------------|-----------------------------------------|
|-14----14-14-(14)-14-14---14-14-14-------|-14----14-14-(14)-14-14---14-14-14-------|
|-14----14-14-(14)-14-14---14-14-14-------|-14----14-14-(14)-14-14---14-14-14-------|
|-----------------------------------------|-----------------------------------------|
|-----------------------------------------|-----------------------------------------|
|-----------------------------------------|-----------------------------------------|
|
|  E.       S  +E      E E     E  S E   S    E.       S  +E      E E     E  S E   S
|-----------------------------------------|-----------------------------------------|
|--8--------8--(8)-----8------------------|--8--------8--(8)-----8------------------|
|--6--------6--(6)-----6------------------|--6--------6--(6)-----6------------------|
|--7--------7--(7)-----7-------7--5-7-----|--7--------7--(7)-----7-------7--5-7-----|
|------------------------------7--5-7-----|------------------------------7--5-7-----|
|-----------------------------------------|-----------------------------------------|
|
|  S  S  S  S   S   S  E E     E  S E   S    S  S  S  S   S   S  E E     E  S E   S
|-----------------------------------------|-----------------------------------------|
|-----------------------------------------|-----------------------------------------|
|------------------------------2--0-2-----|------------------------------2--0-2-----|
|--2--2--2--4---4---4--5-------2--0-2-----|--2--2--2--4---4---4--5-------2--0-2-----|
|--0--0--0--0---0---0--0-------0----0-----|--0--0--0--0---0---0--0-------0----0-----|
|---------------------------------3-------|---------------------------------3-------|


  (A7)                        A5 G5 A5
   E     S  S  +S   S  E S  S  E  E   S  S    5x
|---------------------------------------------||
|-14----14-14-(14)-14-14---14-14-14----------o||
|-14----14-14-(14)-14-14---14-14-14-----14----||
|---------------------------------------------||
|--------------------------------------------o||
|---------------------------------------------||
|
|  E.       S  +E      E E     E  S E    S    5x
|---------------------------------------------||
|--8--------8--(8)-----8---------------------o||
|--6--------6--(6)-----6----------------------||
|--7--------7--(7)-----7-------7--5-7---------||
|------------------------------7--5-7--------o||
|---------------------------------------------||
|
|  S  S  S  S   S   S  E E     E  S E    S    5x
|---------------------------------------------||
|--------------------------------------------o||
|------------------------------2--0-2---------||
|--2--2--2--4---4---4--5-------2--0-2---------||
|--0--0--0--0---0---0--0-------0----0--------o||
|---------------------------------3-----------||

                                     

                                     THE ROVER
                           As recorded by Led Zeppelin
                     (From the 1975 Album PHYSICAL GRAFFITI)

Words and Music by Jimmy Page & Robert Plant
Arranged by Jimmy Page & Robert Plant
Transcribed by rocktabber

Gtr I (E A D G B E) - 'Untitled'
Gtr II (E A D G B E) - 'Untitled'
Gtr III (E A D G B E) - 'Untitled'
Gtr IV (E A D G B E) - 'Untitled'

 Intro
  Q=102
                       E
 4/4
             Gtr I
  W          H    Q  E S S   W          E E E E E E E S S
|----------|---------------|----------|-------------------|
|----------|---------------|----------|-------------------|
|----------|---------------|----------|-------------------|
|----------|---------------|----------|-5-5-7-7-5-7-5-----|
|----------|-------------7-|----------|---------------5h7-|
|----------|-----------0---|-0--------|-3-3-5-5-3-5-3-----|


  +W           +H      S S S S  S S S S
|------------|----------------------------|
|------------|--------10p9---9-10p9-9-----|
|------------|--------11p9---9-11p9-9-x---|
|------------|-------------9----------x---|
|-(7)--------|-(7)------------------------|
|------------|----------------------------|


                                                        |--4--|
  W          E E E E E E E S S   +W           +E  Q.    S S S S +S  S S S
|----------|-------------------|------------|-----------------------------|
|----------|-------------------|------------|----------10p9---------------|
|----------|-------------------|------------|----------11p9---0-(0)-------|
|----------|-5-5-7-7-5-7-5-----|------------|-----------------0-(0)-0-2p0-|
|----------|---------------5h7-|-(7)--------|-(7)p0-----------------------|
|-0--------|-3-3-5-5-3-5-3-----|------------|-----------------------------|


  Q  E   E E   Q    E   +E  E E   E E   E E   E
|---------------------|-------------------------|
|---------------------|-------------------------|
|----------3b4--------|-------------------------|
|----4b5-2-----4b6--2-|-(2)-2-----------2-------|
|---------------------|-------4b5---4b5---------|
|-0-------------------|-------------------3b4-0-|


    +E  E E   E E   Q    E   +E  E E   E E   E E   E
||-------------------------|--------------------------||
||o------------------------|-------------------------o||
||--------------3b4--------|--------------------------||
||--------4b5-2-----4b6--2-|-(2)-2-----------2--------||
||o------------------------|-------4b5---4b5---------o||
||--(0)-0------------------|-------------------3b4-0--||


  +E  E E   E E   Q    E   +E  E E   E E   E E   E
|------------------------|-------------------------|
|------------------------|-------------------------|
|-------------3b4--------|-------------------------|
|-------4b5-2-----4b6--2-|-(2)-2-----------2-------|
|------------------------|-------4b5---4b5---------|
|-(0)-0------------------|-------------------3b4-0-|


    F#5       E5    D5             G5   F#5       A5      E5             G5
    Gtr I
     Q   E  E E E E E   +H.      E  E    Q   E  E  E  E E E   +H.      E  E
||--------------------|---------------|---------------------|----------------||
||o-------------------|---------------|---------------------|---------------o||
||--------------------|---------------|---------------------|----------------||
||--11--11-11-9-9---7-|-(7)------7S12-|-11--11-11-14-14---9-|-(9)------9S12--||
||o--9---9--9-7-7---5-|-(5)------5S10-|--9---9--9-12-12---7-|-(7)------7S10-o||
||--------------------|---------------|---------------------|----------------||


  F#5       E5    D5            C#5   B5            (A)
   Q   E  E E E E E   +E  E E E E E E E   +E  E E E S S E   E E
|-------------------|-------------------|-----------0-0-----0-----|
|-------------------|-------------------|-----------0-0-----0-----|
|-------------------|-------------------|-----------4-4-----4-----|
|-11--11-11-9-9---7-|-(7)-7-7-7-6-6---4-|-(4)-4-4-4-2-2-----2-----|
|--9---9--9-7-7---5-|-(5)-5-5-5-4-4---2-|-(2)-2-2-2-0-0-----0-----|
|-------------------|-------------------|---------------3b4---3b4-|


 Verse
  E
  E E E   E E   Q    E   +E  E E   E E   E E   E
|----------------------|-------------------------|
|----------------------|-------------------------|
|-----------3b4--------|-------------------------|
|-----4b5-2-----4b6--2-|-(2)-2-----------2-------|
|----------------------|-------4b5---4b5---------|
|-0-0------------------|-------------------3b4-0-|


  +E  E E   E E   Q    E   +E  E S E. E   E   E E
|------------------------|-------0----------------|
|------------------------|-------0h2--0-----------|
|-------------3b4--------|------------3b4---------|
|-------4b5-2-----4b6--2-|-(2)-2----------4b5-2---|
|------------------------|----------------------2-|
|-(0)-0------------------|----------------------0-|


  E E E   E E   Q    E   +E  E E   E E   E E   E
|----------------------|-------------------------|
|----------------------|-------------------------|
|-----------3b4--------|-------------------------|
|---2-4b5-2-----4b6--2-|-(2)-2-----------2-------|
|----------------------|-------4b5px-4b5---------|
|----------------------|-------------------3b4-0-|


  +E  E E   E E   Q    E   +E  E E   E E   E E   E
|------------------------|-------------------------|
|------------------------|-------------------------|
|-------------3b4--------|-------------------------|
|-------4b5-2-----4b6--2-|-(2)-2-----------2-------|
|------------------------|-------4b5---4b5---------|
|-(0)-0------------------|-------------------3b4-0-|


   Chorus
    F#5         E5       D5                     G5
    Gtr III
     Q     E  E  E  E  E E   +H.              E  E
||-------------------------|-----------------------|
||o------------------------|-----------------------|
||-------------------------|-----------------------|
||--11----11-11--9--9----7-|-(7)--------------7S12-|
||o--9-----9--9--7--7----5-|-(5)--------------5S10-|
||-------------------------|-----------------------|
|
|   Gtr II
|    Q     E  E +E  E  E E   +S  S +E  +H.
||------------5-(5)------4-|-(4)---(2)-(2)---------|
||o--------7-----------5-5-|-(5)---(3)-(3)---------|
||-----6--------(6)-4------|-(4)----2--(2)---------|
||-------------------------|-----------------------|
||o------------------------|-----------------------|
||-------------------------|-----------------------|
     E Q.       +E  Q.       +S  S  E  +H.


  F#5         A5         E5                   G5
   Q     E  E  E   E   E  E    +H.          E  E
|---------------------------|----------------------||
|---------------------------|---------------------o||
|---------------------------|----------------------||
|-11----11-11-14--14------9-|--(9)----------9S12---||
|--9-----9--9-12--12------7-|--(7)----------7S10--o||
|---------------------------|----------------------||
|
|  Q     E  E +E   E   E  E    +E  E +H.
|-----------5-(5)---------9-|--(9)-7-(7)-----------||
|--------7------------10-10-|-(10)-9-(9)----------o||
|----6-------------9--------|------9-(9)-----------||
|---------------------------|------9-(9)-----------||
|---------------------------|---------------------o||
|---------------------------|----------------------||
   E Q.        E   Q.


  F#5         E5     D5            C#5    B5            (A)
   Q     E  E E  E E E   +E  E E E E  E E E   +E  E E E E  E   E E
|----------------------|--------------------|----------------------|
|----------------------|--------------------|----------------------|
|----------------------|--------------------|----------------------|
|-11----11-11-9--9---7-|-(7)-7-7-7-6--6---4-|-(4)-4-4-4-2------2---|
|--9-----9--9-7--7---5-|-(5)-5-5-5-4--4---2-|-(2)-2-2-2-0----------|
|----------------------|--------------------|--------------3b5---0-|
|
|  E  E  Q    Q.     E    E  E E E Q.     E    E  E E E Q.       E
|--------5----4--------|-------2---0--------|----------------------|
|-----7----------5-----|-----3---3----2-----|-------4---2----------|
|--6--------6------4-2-|-(2)------------1---|-----4---4----2-------|
|----------------------|------------------4-|-(4)--------------2---|
|----------------------|--------------------|----------------------|
|----------------------|--------------------|--------------------0-|
   Q.       E E  E E E   +H        E  E E E   +H        E  E   E E


 Verse
  E
      Gtr I
  +E  E E   E E   Q    E   +E  E E   E E   E E   E
|------------------------|-------------------------|
|------------------------|-------------------------|
|-------------3b4--------|-------------------------|
|-------4b5-2-----4b6--2-|-(2)-2-----------2-------|
|------------------------|-------4b5---4b5---------|
|-(0)-0------------------|-------------------3b4-0-|
|
| +H          H             W
|------------------------|-------------------------|
|------------------------|-------------------------|
|------------------------|-------------------------|
|------------------------|-------------------------|
|------------------------|-------------------------|
|-(0)--------------------|-------------------------|


  +E  E E   E E   Q    E   +E  E S E. E   E   E E
|------------------------|-------0----------------|
|------------------------|-------0h2--0-----------|
|-------------3b4--------|------------3b4---------|
|-------4b5-2-----4b6--2-|-(2)-2----------4b5-2---|
|------------------------|----------------------2-|
|-(0)-0------------------|----------------------0-|


  E E E   E E   Q    E   +E  E E   E E   E E   E
|----------------------|-------------------------|
|----------------------|-------------------------|
|-----------3b4--------|-------------------------|
|---2-4b5-2-----4b6--2-|-(2)-2-----------2-------|
|----------------------|-------4b5px-4b5---------|
|----------------------|-------------------3b4-0-|


  +E  E E   E E   Q    E   +E  E E   E E   E E   E
|------------------------|-------------------------|
|------------------------|-------------------------|
|-------------3b4--------|-------------------------|
|-------4b5-2-----4b6--2-|-(2)-2-----------2-------|
|------------------------|-------4b5---4b5---------|
|-(0)-0------------------|-------------------3b4-0-|


 Chorus
  F#5         E5       D5
  Gtr III
   Q     E  E  E  E  E E   +H             S S S  S  E E
|------------------------|------------------------------|
|------------------------|------------------------------|
|------------------------|--------------------7-(7)-7---|
|-11----11-11--9--9----7-|-(7)----------------7h=9--7---|
|--9-----9--9--7--7----5-|-(5)------------7h9---------9-|
|------------------------|------------------------------|
|
| Gtr II
|  Q     E  E +E  E  E E   +S  S +E  +H.
|-----------5-(5)------4-|-(4)---(2)-(2)----------------|
|--------7-----------5-5-|-(5)---(3)-(3)----------------|
|----6--------(6)-4------|-(4)----2--(2)----------------|
|------------------------|------------------------------|
|------------------------|------------------------------|
|------------------------|------------------------------|
   E Q.       +E  Q.       +S  S  E  +H.


  F#5         A5         E5
   Q     E  E  E   E   E  E    +H         +E  S  S S  S  E
|---------------------------|------------------------------|
|---------------------------|------------------------------|
|---------------------------|----------------------9-(9)-9-|
|-11----11-11-14--14------9-|--(9)--------(9)------9h11--9-|
|--9-----9--9-12--12------7-|--(7)--------(7)-9h11---------|
|---------------------------|------------------------------|
|
|  Q     E  E +E   E   E  E    +E  E +H.
|-----------5-(5)---------9-|--(9)-7-(7)-------------------|
|--------7------------10-10-|-(10)-9-(9)-------------------|
|----6-------------9--------|------9-(9)-------------------|
|---------------------------|------9-(9)-------------------|
|---------------------------|------------------------------|
|---------------------------|------------------------------|
   E Q.        E   Q.


  F#5         E5       D5
   Q     E  E  E  E  E E   +H             E E E E
|------------------------|------------------------|
|------------------------|------------------------|
|------------------------|------------------------|
|-11----11-11--9--9----7-|-(7)------------7-7-7-7-|
|--9-----9--9--7--7----5-|-(5)------------5-5-5-5-|
|------------------------|------------------------|
|
|  Q     E  E +E  E  E E   +S  S +E  +H.
|-----------5-(5)------4-|-(4)---(2)-(2)----------|
|--------7-----------5-5-|-(5)---(3)-(3)----------|
|----6--------(6)-4------|-(4)----2--(2)----------|
|------------------------|------------------------|
|------------------------|------------------------|
|------------------------|------------------------|
   E Q.       +E  Q.       +S  S  E  +H.


  F#5         A5         E5
   Q     E  E  E   E   E  E    +H         E E E E
|---------------------------|---------------------|
|---------------------------|---------------------|
|---------------------------|---------------------|
|-11----11-11-14--14------9-|--(9)--------9-9-9-9-|
|--9-----9--9-12--12------7-|--(7)--------7-7-7-7-|
|---------------------------|---------------------|
|
|  Q     E  E +E   E   E  E    +E  E +H.
|-----------5-(5)---------9-|--(9)-7-(7)----------|
|--------7------------10-10-|-(10)-9-(9)----------|
|----6-------------9--------|------9-(9)----------|
|---------------------------|------9-(9)----------|
|---------------------------|---------------------|
|---------------------------|---------------------|
   E Q.        E   Q.


  F#5         E5     D5            C#5    B5            (A)
   Q     E  E E  E E E   +E  E E E E  E E E   +E  E E E E  E   E E
|----------------------|--------------------|----------------------|
|----------------------|--------------------|----------------------|
|----------------------|--------------------|----------------------|
|-11----11-11-9--9---7-|-(7)-7-7-7-6--6---4-|-(4)-4-4-4-2------2---|
|--9-----9--9-7--7---5-|-(5)-5-5-5-4--4---2-|-(2)-2-2-2-0----------|
|----------------------|--------------------|--------------3b5---0-|
|
|  E  E  Q    Q.     E    E  E E E Q.     E    E  E E E Q.       E
|--------5----4--------|-------2---0--------|----------------------|
|-----7----------5-----|-----3---3----2-----|-------4---2----------|
|--6--------6------4-2-|-(2)------------1---|-----4---4----2-------|
|----------------------|------------------4-|-(4)--------------2---|
|----------------------|--------------------|----------------------|
|----------------------|--------------------|--------------------0-|
   Q.       E E  E E E   +H        E  E E E   +H        E  E   E E


 Bridge
        E13             E
      Gtr I
  +Q    E E E E E E   E E Q  +Q     a  E E
|-------9---9-9---9-|----------------------|
|-------7---7-7---7-|---9-9--(9)\--(4)-----|
|-------7---7-7---7-|---9-9--(9)\--(4)-----|
|-------7-x-7-7---7-|---9-9--(9)\--(4)-----|
|-------------------|----------------------|
|-(0)---------------|--------------------0-|
|
| +E  E Q   H         W
|-------------------|----------------------|
|-------------------|----------------------|
|-------------------|----------------------|
|-------------------|----------------------|
|-------------------|----------------------|
|-(0)---------------|----------------------|


       E13             E
    Q  E E E E E E   E E Q  +Q     a  E E  4x
||-----9---9-9---9-|-----------------------||
||o----7---7-7---7-|---9-9--(9)\--(4)-----o||
||-----7---7-7---7-|---9-9--(9)\--(4)------||
||-----7-x-7-7---7-|---9-9--(9)\--(4)------||
||o----------------|----------------------o||
||-----------------|--------------------0--||


     E13             E
  Q  E E E E E E   E E Q    a  E S  S S  S e
|----9---9-9---9-|---------------------------|
|----7---7-7---7-|---9-9\--(4)---------------|
|----7---7-7---7-|---9-9\--(4)--------9----9-|
|----7---7-7---7-|---9-9\--(4)--------9h11---|
|----------------|---------------9h11--------|
|----------------|---------------------------|


     E13             E
  Q  E E E E E E   E E Q  +Q     a  E E
|----9---9-9---9-|----------------------|
|----7---7-7---7-|---9-9--(9)\--(4)-----|
|----7---7-7---7-|---9-9--(9)\--(4)-----|
|----7---7-7---7-|---9-9--(9)\--(4)-----|
|----------------|----------------------|
|----------------|--------------------0-|


     E13             E
                          Gtr I
  Q  E E E E E E   E E Q  S  S S  S E  E
|----9---9-9---9-|-----------------------|
|----7---7-7---7-|---9-9-----------------|
|----7---7-7---7-|---9-9------------9-11-|
|----7---7-7---7-|---9-9-------9h11------|
|----------------|--------9h11-----------|
|----------------|-----------------------|
|
| Gtr IV
| W                H      S  S S  S E  E
|----------------|-----------------------|
|----------------|-----------------------|
|----------------|------------------9-11-|
|----------------|-------------9h11------|
|----------------|--------9h11-----------|
|----------------|-----------------------|


 Guitar Solo
  F#m                   E       D                              G
   +Q           E   E   E E E    E    +H            +E     E E  E
|----------------------------------|------------------------------|
|----------------------------------|------------------------------|
|-(11)---------11---9--------------|------------------------------|
|-----------------------9-9------7-|--(7)-----------(7)----7-7-12-|
|-----------------------7-7------5-|--(5)-----------(5)----5-5-10-|
|----------------------------------|------------------------------|
|
|                                         |-3--|
|  +E   a  S S  S S E a E E E a  E    +E  S  S S Q  +E  a  E E  E
|----------------------------------|------------------------------|
|----------------------------------|------------------------------|
|-(11)S(4)-------------------------|-------------------------9-11-|
|-------------------2-----7-9-9S11-|-(11)-9h11p9-7--(7)-9S11------|
|---------------2h4---7S9----------|------------------------------|
|----------2h4---------------------|------------------------------|


  F#m                    A            E                              G
    Q          E    E     E  E  E     E    +H.                    E   E
|---------------------------------------|----------------------------------|
|---------------------------------------|----------------------------------|
|---------------------------------------|----------------------------------|
|--11---------11---11----14-14--------9-|--(9)--------------------9--12----|
|---9----------9----9----12-12--------7-|--(7)--------------------7--10----|
|---------------------------------------|----------------------------------|
|
|      |-3--|
|  +E  S  S S  S S  S  S  E  E  Q          +E   +E   S  S E +Q   +E   S  S
|-------------------------9-------------|----------------------------------|
|------9h10p9----9-10-12----12-10b12====|=(10)-(10)r-9---------------------|
|-(11)--------11------------------------|--------------11-9-(9)--(9)-------|
|---------------------------------------|-----------------------------9-11-|
|---------------------------------------|----------------------------------|
|---------------------------------------|----------------------------------|


  F#m             E                D
   Q      E  E    E    E       E    E
|----------------------------------------|
|----------------------------------------|
|----------------------------------------|
|-11-----11-11----9----9------------7----|
|--9------9--9----7----7------------5----|
|----------------------------------------|
|
|                      |-3--|
|  S  E.  E  S  S S  S S  S S  S S  S  S
|----------------------------------------|
|----------------------9h10p9----9-10-12-|
|--9-11--11-------9-11--------11---------|
|------------9-11------------------------|
|----------------------------------------|
|----------------------------------------|


                                         G
  +H.                               E     E
|---------------------------------------------|
|---------------------------------------------|
|---------------------------------------------|
|-(7)-------------------------------7S===12---|
|-(5)-------------------------------5S===10---|
|---------------------------------------------|
|
|        |-3--|
|  S   S S  S S  S S  S S S  S S  S S  S  S S
|--9------------------------------------------|
|-----12-9h10p9----9--------------------------|
|---------------11---11p9---11p9----9---------|
|-------------------------x------11---11p=9-7-|
|---------------------------------------------|
|---------------------------------------------|


  F#m            A              E
   Q      E  E    E     E   E   E     +Q        S  S  S  S  E    E S  S  E
|-----------------------------------|--------------------------------------|
|-----------------------------------|--------------------------------------|
|-----------------------------------|-----------------9-(9)-9------9-(9)-9-|
|-11-----11-11---14----14-------9---|-(9)-------------9h11--9------9h11--9-|
|--9------9--9---12----12-------7---|-(7)-------9h11------------11---------|
|-----------------------------------|--------------------------------------|
|
|  S S e  E  S S +S  S  S S S S S S    S  S S S S  S  S  S  S S  E Q
|-----------------------------------|--------------------------------------|
|-----------------------------------|--------------------------------------|
|-------------------------9-9-9-9---|-----9-9-9-9--------9--9-9--9---------|
|--9p7----7----7-(7)-9S11---------9S|=11-----------9S11--------------------|
|------9-----9----------------------|--------------------------------------|
|-----------------------------------|--------------------------------------|


  F#m                E              D                                    C#m        B
   Q        E  E       E    E  E     E             +E   E  E  E            E   E  E  E
|-----------------------------------------------|-----------------------------------------------|
|-----------------------------------------------|-----------------------------------------------|
|-----------------------------------------------|-----------------------------------------------|
|-11-------11-11-------9----9--------7----------|--(7)--7--7--7------------6---6-----4----------|
|--9--------9--9-------7----7--------5----------|--(5)--5--5--5------------4---4-----2----------|
|-----------------------------------------------|-----------------------------------------------|
|
|  E     E  E  E      +E    E  E     S      +S     +E   E  E  S      +S   +E   E  E  S      +S
|----------14--------------17-------------------|---------17---------------------17-------------|
|-------14----17b19==(17)r----17b19-17b19==(17)r|=(17)-14----17b19==(17)r(17)-14----17b19==(17)r|
|-16b18-----------------------------------------|-----------------------------------------------|
|-----------------------------------------------|-----------------------------------------------|
|-----------------------------------------------|-----------------------------------------------|
|-----------------------------------------------|-----------------------------------------------|


                         A
   +E   E  E  E            E   E         E     E
|----------------------------------------------------|
|----------------------------------------------------|
|----------------------------------------------------|
|--(4)--4--4--4------------2-------------2-----------|
|--(2)--2--2--2------------0-------------------------|
|------------------------------3b5-------------0-----|
|
|  +E   E  E  S      +S   +E   S    E       S  S  S
|---------17-----------------------------------------|
|-(17)-14----17b19==(17)r(17)-14---------------------|
|----------------------------------16b18---16-14-----|
|------------------------------------------------16--|
|----------------------------------------------------|
|----------------------------------------------------|


 Verse
  E
   E E E   E E   Q    E    +E  E E   E E   E E   E
|-----------------------|--------------------------|
|-----------------------|--------------------------|
|------------3b4--------|--------------------------|
|------4b5-2-----4b6--2-|--(2)-2-----------2-------|
|-----------------------|--------4b5---4b5---------|
|--0-0------------------|--------------------3b4-0-|
|
|  W                       +W
|-----------------------|--------------------------|
|-----------------------|--------------------------|
|-----------------------|--------------------------|
|-14--------------------|-(14)---------------------|
|-----------------------|--------------------------|
|-----------------------|--------------------------|


  Gtr I
  +E  E E   E E   Q    E   +E  E E   E E   E E   E
|------------------------|-------------------------|
|------------------------|-------------------------|
|-------------3b4--------|-------------------------|
|-------4b5-2-----4b6--2-|-(2)-2-----------2-------|
|------------------------|-------4b5---4b5---------|
|-(0)-0------------------|-------------------3b4-0-|


  E E E   E E   Q    E   +E  E E   E E   E E   E
|----------------------|-------------------------|
|----------------------|-------------------------|
|-----------3b4--------|-------------------------|
|-----4b5-2-----4b6--2-|-(2)-2-----------2-------|
|----------------------|-------4b5---4b5---------|
|---0------------------|-------------------3b4-0-|


  +E  E E   E E   Q    E   +E  E   E   E E S S E E
|------------------------|---------------------0---|
|------------------------|---------------------0---|
|-------------3b4--------|---------------2-0h1-----|
|-------4b5-2-----4b6--2-|-(2)---------2-----------|
|------------------------|-----4b5-4b5-------------|
|-(0)-0------------------|-----------------------0-|


 Chorus
  F#5         E5       D5                     G5
  Gtr III
   Q     E  E  E  E  E E   +H.              E  E
|------------------------|-----------------------|
|------------------------|-----------------------|
|------------------------|-----------------------|
|-11----11-11--9--9----7-|-(7)--------------7S12-|
|--9-----9--9--7--7----5-|-(5)--------------5S10-|
|------------------------|-----------------------|
|
| Gtr II
|  Q     E  E +E  E  E E   +S  S +E  +H.
|-----------5-(5)------4-|-(4)---(2)-(2)---------|
|--------7-----------5-5-|-(5)---(3)-(3)---------|
|----6--------(6)-4------|-(4)----2--(2)---------|
|------------------------|-----------------------|
|------------------------|-----------------------|
|------------------------|-----------------------|
   E Q.       +E  Q.       +S  S  E  +H.


              A5         E5
   Q     E  E  E   E   E  E     H         +E  S  S S  S  E
|---------------------------|------------------------------|
|---------------------------|------------------------------|
|---------------------------|----------------------9-(9)-9-|
|-11----11-11-14--14------9-|---9---------(9)------9h11--9-|
|--9-----9--9-12--12------7-|---7---------(7)-9h11---------|
|---------------------------|------------------------------|
|
|  Q     E  E +E   E   E  E    +E  E +H.
|-----------5-(5)---------9-|--(9)-7-(7)-------------------|
|--------7------------10-10-|-(10)-9-(9)-------------------|
|----6-------------9--------|------9-(9)-------------------|
|---------------------------|------9-(9)-------------------|
|---------------------------|------------------------------|
|---------------------------|------------------------------|
   E Q.        E   Q.


  F#5         E5       D5                     G5
   Q     E  E  E  E  E E   +H.              E  E
|------------------------|-----------------------|
|------------------------|-----------------------|
|------------------------|-----------------------|
|-11----11-11--9--9----7-|-(7)--------------7S12-|
|--9-----9--9--7--7----5-|-(5)--------------5S10-|
|------------------------|-----------------------|
|
|  Q     E  E +E  E  E E   +S  S +E  +H.
|-----------5-(5)------4-|-(4)---(2)-(2)---------|
|--------7-----------5-5-|-(5)---(3)-(3)---------|
|----6--------(6)-4------|-(4)----2--(2)---------|
|------------------------|-----------------------|
|------------------------|-----------------------|
|------------------------|-----------------------|
   E Q.       +E  Q.       +S  S  E  +H.


  F#5         A5         E5                   G5
   Q     E  E  E   E   E  E    +H.          E  E
|---------------------------|--------------------|
|---------------------------|--------------------|
|---------------------------|--------------------|
|-11----11-11-14--14------9-|--(9)----------9S12-|
|--9-----9--9-12--12------7-|--(7)----------7S10-|
|---------------------------|--------------------|
|
|  Q     E  E +E   E   E  E    +E  E +H.
|-----------5-(5)---------9-|--(9)-7-(7)---------|
|--------7------------10-10-|-(10)-9-(9)---------|
|----6-------------9--------|------9-(9)---------|
|---------------------------|------9-(9)---------|
|---------------------------|--------------------|
|---------------------------|--------------------|
   E Q.        E   Q.


  F#5         E5     D5            C#5    B5            (A)
   Q     E  E E  E E E   +E  E E E E  E E E   +E  E E E E  E   E S S
|----------------------|--------------------|------------------------|
|----------------------|--------------------|------------------------|
|----------------------|--------------------|------------------------|
|-11----11-11-9--9---7-|-(7)-7-7-7-6--6---4-|-(4)-4-4-4-2------2-----|
|--9-----9--9-7--7---5-|-(5)-5-5-5-4--4---2-|-(2)-2-2-2-0------------|
|----------------------|--------------------|--------------3b5---0-0-|
|
|  E  E  Q    Q.     E    E  E E E Q.     E    E  E E E Q.       E
|--------5----4--------|-------2---0--------|------------------------|
|-----7----------5-----|-----3---3----2-----|-------4---2------------|
|--6--------6------4-2-|-(2)------------1---|-----4---4----2---------|
|----------------------|------------------4-|-(4)--------------2-----|
|----------------------|--------------------|------------------------|
|----------------------|--------------------|--------------------0---|
   Q.       E E  E E E   +H        E  E E E   +H        E  E   E E


 Outro
  E
  Gtr I
   E  E E   E E   Q    E   +E  E E   E E   E E   E
|------------------------|-------------------------|
|------------------------|-------------------------|
|-------------3b4--------|-------------------------|
|-------4b5-2-----4b6--2-|-(2)-2-----------2-------|
|------------------------|-------4b5---4b5---------|
|--0--0------------------|-------------------3b4-0-|
|
| +E  E Q     H             W
|------------------------|-------------------------|
|------------------------|-------------------------|
|------------------------|-------------------------|
|------------------------|-------------------------|
|------------------------|-------------------------|
|-(0)--------------------|-------------------------|


  +E  E E   E E   Q    E   +E  E E E E   E   E E
|------------------------|-----0-----------------|
|------------------------|-----0h2---0-----------|
|-------------3b4--------|-----------3b4---------|
|-------4b5-2-----4b6--2-|-(2)-----------4b5-2---|
|------------------------|---------------------2-|
|-(0)-0------------------|---------------------0-|


  E E E   E E   Q    E   +E  E E   E E   E E   E
|----------------------|-------------------------|
|----------------------|-------------------------|
|-----------3b4--------|-------------------------|
|---2-4b5-2-----4b6--2-|-(2)-2-----------2-------|
|----------------------|-------4b5px-4b5---------|
|----------------------|-------------------3b4-0-|


  +E  E E E E   Q    E      +E   E   E E E   E   E S S
|-------------------------|----------------------------|
|-----------0---0---------|----------------------------|
|-----------3b4-3b4-------|----------------------2-0h1-|
|-------4-2----------4b5==|=(4)r-4b5-2-2-4b5-4b6-------|
|-------------------------|----------------------------|
|-(0)-0-------------------|----------------------------|


  +Q   Q  E   E   E S S   +E  E E E E   E   E S S
|-----------------------|-------------------------|
|-----------------------|-------------------------|
|-(1)-------------2-0h1-|-(1)---------------2-0h1-|
|------x--4b5-4b6-------|-------4---4b5-4b6---0-2-|
|-----------------------|-------------------------|
|-----------------------|-----0-------------------|


   Q   E   E E   E   E S S    E  E E E S S S S E S S
|--------------------------|--0----0-----------------|
|--------------------------|-------------------------|
|-(1)----------------2-0h1-|-(1)---------------------|
|-(2)--4b5---4b5-4b5---0-2-|-(2)-----------2-2-2-4-2-|
|--------------------------|-----------2-4-----------|
|--0-----------------------|-----0---0---------------|


  E E E S S E S S E E   E E S e S E E S E.
|---------------------|--------------------|
|---------------------|--------------------|
|---------------------|--------------------|
|---------------------|-------------5------|
|-----5---5---5h7---7-|---5---5---5---5h7--|
|-0-0---0---0-----0---|-0---0---0----------|


  S S S S S S E S S E S E.   E S S +S  S E e e S E.
|--------------------------|------------------------|
|--------------------------|------------------------|
|--------------------------|------------------------|
|-----5-----5---5----------|---5h7-(7)-5h7-5--------|
|-------------7---7---5h7--|-7---------------7-5h7--|
|-x-x---x-x----------------|------------------------|


  E S S +S  S E E S S S E.   E S S +S  S E E E S E.
|--------------------------|--------------------------|
|--------------------------|--------------------------|
|--------------------------|--------------------------|
|---5h7-(7)-5h7-5-----5----|---5h7-(7)-5h7-5----------|
|-----------------x-7---7--|-----------------7-5-7----|
|--------------------------|-x----------------------0-|
                             H             Q   E    E


  +E  S S S E S S S S S a S S E   E S S S E S S S S S S S E
|-------------------------------|---------------------------|
|-------------------------------|---------------------------|
|-------------------------------|---------------------------|
|---------5-5-----5-5-5-5h7-5---|-------5-5-----5-5-5-7-5---|
|-----5-7-----5-7-------------7-|---5-7-----5-7-------------|
|-(0)---------------------------|-0-----------------------0-|


  E S S S E S S S S S S S E   E S S S E S S S S S S S E
|---------------------------|---------------------------|
|---------------------------|---------------------------|
|---------------------------|---------------------------|
|-------5-5-----5-5-5-7-5---|-------5-5-----5-5-5-7-5---|
|---5-7-----5-7-------------|---5-7-----5-7-------------|
|-0-----------------------0-|-0-----------------------0-|


  +E   S  S  S  E  S  S  S  S  S  S  S  E
|-----------------------------------------|
|-----------12-12-12----------12-14-12----|
|-----------12-12-12----------12-14-12----|
|-----12-14----12-12-12-14-14----------14-|
|-----------------------------------------|
|-(0)-------------------------------------|


     +E   S  S  S  E  S  S  S  S  S  S  S  E
||-------------------------------------------|
||o------------12-12-12----------12-14-12----|
||-------------12-12-12----------12-14-12----|
||--(14)-12-14----------12-14-14----------14-|
||o------------------------------------------|
||-------------------------------------------|


   +E   S  S  S  E  S  S  S  S  S  S  S  E
|-------------------------------------------||
|------------12-12-12----------12-14-12----o||
|------------12-12-12----------12-14-12-----||
|-(14)-12-14----------12-14-14----------14--||
|------------------------------------------o||
|-------------------------------------------||


   +E   S  S  S  E  S  S  S  S  S  S  S  E
|------------------------------------------|
|------------12-12-14s15-------------------|
|------------12-12-14s16-12-14-12-14-12----|
|-(14)-12-14----------------------------14-|
|------------------------------------------|
|------------------------------------------|


   +E   S  S  S  E  S  S  S  S  S  S  S  E
|------------------------------------------|
|------------12-12-12----------12-14-12----|
|------------12-12-12----------12-14-12----|
|-(14)-12-14----------12-14-14----------14-|
|------------------------------------------|
|------------------------------------------|


   +E   S  S  S  E  S  S  S  S  S  S  S  E
|------------------------------------------|
|------------12-12-12----------12-14-12----|
|------------12-12-12----------12-14-12----|
|-(14)-12-14----------12-14-14----------14-|
|------------------------------------------|
|------------------------------------------|


   +E   S  S  S  E  S  S  S  S  S  S  S  E
|------------------------------------------*|
|------------12-12-12----------12-14-12----*|
|------------12-12-12----------12-14-12----*|
|-(14)-12-14----------12-14-14----------14-*|
|------------------------------------------*|
|------------------------------------------*|





                               HOUSES OF THE HOLY
                           As recorded by Led Zeppelin
                     (From the 1975 Album PHYSICAL GRAFFITI)

Words and Music by Jimmy Page & Robert Plant
Arranged by Led Zeppelin
Transcribed by rocktabber

Gtr I (E A D G B E) - 'Untitled'
Gtr II (E A D G B E) - 'Untitled'
Gtr III (E A D G B E) - 'Untitled'

 Intro
  Q=120
  A                           A6        A                         A6
 4/4
  Gtr I
  W                 H       E E E E   E E E E E E E E   E E E E E E E E
|-----------------|-----------2---2-|-----------------|-----------2---2-|
|-----------------|-----------2---2-|---------2-2-----|-----2-2---2---2-|
|-----------------|-----------2---2-|---------2-2-----|-----2-2---2---2-|
|-----------------|-----------2---2-|---2-2---2-2---2-|-2-2-2-2---2---2-|
|-----------------|-----------------|---3-4-0-0-0---3-|-4-0-0-0---------|
|-----------------|-----------------|-----------------|-----------------|
|
| Gtr II
| E E E E E E E E   E E E E E E E E   E E E E E E E E   E E E E E E E E
|-----------------|-----------2---2-|-----------------|-----------2---2-|
|-----------------|-----------2---2-|-----------------|-----------2---2-|
|---------2-2-----|-----2-2---2---2-|---------2-2-----|-----2-2---2---2-|
|---2-2-2-2-2---2-|-2-2-2-2---2---2-|---2-2-2-2-2---2-|-2-2-2-2---2---2-|
|---3-4-0-0-0---3-|-4-0-0-0---------|---3-4-0-0-0---3-|-4-0-0-0---------|
|-----------------|-----------------|-----------------|-----------------|


    A                         A6          A                         A   E
  E E E E E E E E   E E E E E E S E S   e E E E E E E E   E E E E E E E E
|-----------------|-----------2---2-2-|-2---------------|-----------0---0-|
|-----------------|-----------2---2-2-|-2---------------|-----------2---0-|
|---------2-2-----|-----2-2---2---2-2-|-2-------2-2-----|-----2-2---2---1-|
|---2-2---2-2---2-|-2-2-2-2---2---2-2-|-2-2-2---2-2---2-|-2-2-2-2---2---2-|
|---3-4-0-0-0---3-|-4-0-0-0-----------|---3-4-0-0-0---3-|-4-0-0-0---------|
|-----------------|-------------------|-----------------|-----------------|
|
| E E E E E E E E   E E E E E E S E S   e E E E E E E E   E E E E E E E E
|-----------------|-----------2---2-2-|-2---------------|---------------0-|
|---------2-2-----|-----2-2---2---2-2-|-2-------2-2-----|-----2-2---2---0-|
|---------2-2-----|-----2-2---2---2-2-|-2-------2-2-----|-----2-2---2---1-|
|---2-2-2-2-2---2-|-2-2-2-2---2---2-2-|-2-2-2-2-2-2---2-|-2-2-2-2---2---2-|
|---3-4-0-0-0---3-|-4-0-0-0-----------|---3-4-0-0-0---3-|-4-0-0-0---0---2-|
|-----------------|-------------------|-----------------|---------------0-|


   Verses 1 & 3
                     D6sus4  D  G  D  A
    +H     +Q.       E   +E  Q  Q  Q  E
||--(0)----(0)-------7-|-(7)-5--3--2--0-|
||o-(0)----(0)-------8-|-(8)-7--3--3--2-|
||--(1)----(1)-------7-|-(7)-7--4--2--2-|
||--(2)----(2)-------0-|-(0)-0--0--0--2-|
||o--------------------|----------------|
||---------------------|----------------|
|
|   +H     +E  a E E E   +E  Q  Q  Q  E
||--(0)----(0)-------3-|-(3)-2--3--2----|
||o-(0)----(0)-------3-|-(3)-3--3--3--2-|
||--(1)----(1)-------2-|-(2)-2--4--2--2-|
||--(2)----(2)-----2-0-|-(0)-0--0--0--2-|
||o-(2)----(2)-2h4-----|--------------0-|
||--(0)----(0)---------|----------------|


      E                D6sus4  D  G  D  A
  +E  E  Q   +Q.       E   +E  Q  Q  Q  E
|-(0)-0--0---(0)-------7-|-(7)-5--3--2--0-|
|-(2)-0--0---(0)-------8-|-(8)-7--3--3--2-|
|-(2)-1--1---(1)-------7-|-(7)-7--4--2--2-|
|-(2)-2--2---(2)-------0-|-(0)-0--0--0--2-|
|------------------------|----------------|
|------------------------|----------------|
|
| +E  E +Q   +E  a E E E   +E  Q  Q  Q  E
|----------------------3-|-(3)-2--3--2----|
|-(2)-0-(0)--(0)-------3-|-(3)-3--3--3--2-|
|-(2)-1-(1)--(1)-------2-|-(2)-2--4--2--2-|
|-(2)-2-(2)--(2)-----2-0-|-(0)-0--0--0--2-|
|-(0)-2-(2)--(2)-2h4-----|--------------0-|
|-----0-(0)--(0)---------|----------------|


      E                D6sus4  D  G  D  A
  +E  E  Q   +Q.       E   +E  Q  Q  Q  E
|-(0)-0--0---(0)-------7-|-(7)-5--3--2--0-|
|-(2)-0--0---(0)-------8-|-(8)-7--3--3--2-|
|-(2)-1--1---(1)-------7-|-(7)-7--4--2--2-|
|-(2)-2--2---(2)-------0-|-(0)-0--0--0--2-|
|------------------------|----------------|
|------------------------|----------------|
|
| +E  E +Q   +E  a E E E   +E  Q  Q  Q  E
|----------------------3-|-(3)-2--3--2----|
|-(2)-0-(0)--(0)-------3-|-(3)-3--3--3--2-|
|-(2)-1-(1)--(1)-------2-|-(2)-2--4--2--2-|
|-(2)-2-(2)--(2)-----2-0-|-(0)-0--0--0--2-|
|-(0)-2-(2)--(2)-2h4-----|--------------0-|
|-----0-(0)--(0)---------|----------------|


      E                D6sus4  D  G  D  A
  +E  E  Q   +Q.       E   +E  Q  Q  Q  E   E E E E E E E E
|-(0)-0--0---(0)-------7-|-(7)-5--3--2--0-|-----------------|
|-(2)-0--0---(0)-------8-|-(8)-7--3--3--2-|---------2-2-----|
|-(2)-1--1---(1)-------7-|-(7)-7--4--2--2-|---------2-2-----|
|-(2)-2--2---(2)-------0-|-(0)-0--0--0--2-|---2-2---2-2---2-|
|------------------------|----------------|---3-4-0-0-0---3-|
|------------------------|----------------|-----------------|
|
| +E  E +Q   +E  a E E E   +E  Q  Q  Q  E   E E E E E E E E
|----------------------3-|-(3)-2--3--2----|-----------------|
|-(2)-0-(0)--(0)-------3-|-(3)-3--3--3--2-|-----------------|
|-(2)-1-(1)--(1)-------2-|-(2)-2--4--2--2-|---------2-2-----|
|-(2)-2-(2)--(2)-----2-0-|-(0)-0--0--0--2-|---2-2-2-2-2---2-|
|-(0)-2-(2)--(2)-2h4-----|--------------0-|---3-4-0-0-0---3-|
|-----0-(0)--(0)---------|----------------|-----------------|


            A6        A
  E E E E E E E E   E E E E E E E E
|-----------2---2-|-----------------|
|-----------2---2-|-----------------|
|-----2-2---2---2-|---------2-2-----|
|-2-2-2-2---2---2-|---2-2---2-2---2-|
|-4-0-0-0---------|---3-4-0-0-0---3-|
|-----------------|-----------------|
|
| E E E E E E E E   E E E E E E E E
|-----------2---2-|-----------------|
|-----------2---2-|-----------------|
|-----2-2---2---2-|---------2-2-----|
|-2-2-2-2---2---2-|---2-2-2-2-2---2-|
|-4-0-0-0---------|---3-4-0-0-0---3-|
|-----------------|-----------------|


  E E E E    H                 E E E E E E E E
|----------------------------|------------------|
|----------------------------|------------------|
|----------------------------|---------2-2------|
|-2-2-2----------------------|---2-2---2-2---2--|
|-4-0-0----------------------|---3-4-0-0-0---3--|
|----------------------------|------------------|
|
| E E E E.     S S S S S S S   E E E E E E E E
|----------------------------|------------------|
|----------------------------|------------------|
|-----2-4b6rp==2-4p2-4p2-----|---------2-2------|
|-2-2-2------------------4p2-|---2-2-2-2-2---2--|
|-4-0-0----------------------|-0-3-4-0-0-0---3--|
|----------------------------|------------------|


            A6          A                             E
  E E E E E E S E S   e E E E E E E E   E E E E E E E E
|-----------2---2-2-|-2---------------|-----------0---0-|
|-----------2---2-2-|-2---------------|-----------2---0-|
|-----2-2---2---2-2-|-2-------2-2-----|-----2-2---2---1-|
|-2-2-2-2---2---2-2-|-2-2-2---2-2---2-|-2-2-2-2---2---2-|
|-4-0-0-0-----------|---3-4-0-0-0---3-|-4-0-0-0---------|
|-------------------|-----------------|-----------------|
|
| E E E E E E S E S   e E E E E E E E   E E E E E E E E
|-----------2---2-2-|-2---------------|---------------0-|
|-----2-2---2---2-2-|-2-------2-2-----|-----2-2---2---0-|
|-----2-2---2---2-2-|-2-------2-2-----|-----2-2---2---1-|
|-2-2-2-2---2---2-2-|-2-2-2-2-2-2---2-|-2-2-2-2---2---2-|
|-4-0-0-0-----------|---3-4-0-0-0---3-|-4-0-0-0---0---2-|
|-------------------|-----------------|---------------0-|


 Verses 2 & 4
                   D6sus4  D  G  D  A       E                D6sus4
  +H     +Q.       E   +E  Q  Q  Q  E   +E  E  Q   +Q.       E
|-(0)----(0)-------7-|-(7)-5--3--2--0-|-(0)-0--0---(0)-------7-|
|-(0)----(0)-------8-|-(8)-7--3--3--2-|-(2)-0--0---(0)-------8-|
|-(1)----(1)-------7-|-(7)-7--4--2--2-|-(2)-1--1---(1)-------7-|
|-(2)----(2)-------0-|-(0)-0--0--0--2-|-(2)-2--2---(2)-------0-|
|--------------------|----------------|------------------------|
|--------------------|----------------|------------------------|
|
| +H     +E  a E E E   +E  Q  Q  Q  E   +E  E +Q   +E  a E E E
|-(0)----(0)-------3-|-(3)-2--3--2----|----------------------3-|
|-(0)----(0)-------3-|-(3)-3--3--3--2-|-(2)-0-(0)--(0)-------3-|
|-(1)----(1)-------2-|-(2)-2--4--2--2-|-(2)-1-(1)--(1)-------2-|
|-(2)----(2)-----2-0-|-(0)-0--0--0--2-|-(2)-2-(2)--(2)-----2-0-|
|-(2)----(2)-2h4-----|--------------0-|-(0)-2-(2)--(2)-2h4-----|
|-(0)----(0)---------|----------------|-----0-(0)--(0)---------|


      D  G  D  A       E                D6sus4
  +E  Q  Q  Q  E   +E  E  Q   +Q.       E
|-(7)-5--3--2--0-|-(0)-0--0---(0)-------7---|
|-(8)-7--3--3--2-|-(2)-0--0---(0)-------8---|
|-(7)-7--4--2--2-|-(2)-1--1---(1)-------7---|
|-(0)-0--0--0--2-|-(2)-2--2---(2)-------0---|
|----------------|--------------------------|
|----------------|--------------------------|
|
| +E  Q  Q  Q  E   +E  E +Q   +E  a E E E
|-(3)-2--3--2----|----------------------3---|
|-(3)-3--3--3--2-|-(2)-0-(0)--(0)-------3---|
|-(2)-2--4--2--2-|-(2)-1-(1)--(1)-------2---|
|-(0)-0--0--0--2-|-(2)-2-(2)--(2)-----2-0---|
|--------------0-|-(0)-2-(2)--(2)-2h4-------|
|----------------|-----0-(0)--(0)-----------|


      D  G  D  A       E                D6sus4
  +E  Q  Q  Q  E   +E  E  Q   +Q.       E
|-(7)-5--3--2--0-|-(0)-0--0---(0)-------7-|
|-(8)-7--3--3--2-|-(2)-0--0---(0)-------8-|
|-(7)-7--4--2--2-|-(2)-1--1---(1)-------7-|
|-(0)-0--0--0--2-|-(2)-2--2---(2)-------0-|
|----------------|------------------------|
|----------------|------------------------|
|
| +E  Q  Q  Q  E   +E  E +Q   +E  a E E E
|-(3)-2--3--2----|----------------------3-|
|-(3)-3--3--3--2-|-(2)-0-(0)--(0)-------3-|
|-(2)-2--4--2--2-|-(2)-1-(1)--(1)-------2-|
|-(0)-0--0--0--2-|-(2)-2-(2)--(2)-----2-0-|
|--------------0-|-(0)-2-(2)--(2)-2h4-----|
|----------------|-----0-(0)--(0)---------|


      D  G  D  A     E                 A
  +E  Q  Q  Q  E   E E E E E E E E   E E E E E E E E
|-(7)-5--3--2--0-|---0-0-0-0-0-0-0-|------------------|
|-(8)-7--3--3--2-|---0-0-0-0-0-0-0-|---------2-2------|
|-(7)-7--4--2--2-|---1-1-1-1-1-1-1-|---------2-2------|
|-(0)-0--0--0--2-|---2-2-2-2-2-2-2-|---2-2---2-2---2--|
|----------------|-----------------|---3-4-0-0-0---3--|
|----------------|-----------------|------------------|
|
| +E  Q  Q  Q  E   E E E E E E E E   E E E E E E E E
|-(3)-2--3--2----|---0-0-0-0-------|------------------|
|-(3)-3--3--3--2-|---0-0-0-0-------|------------------|
|-(2)-2--4--2--2-|---1-1-1-1-------|---------2-2------|
|-(0)-0--0--0--2-|---2-2-2-2-------|---2-2-2-2-2---2--|
|--------------0-|---2-2-2-2-3-4-0-|---3-4-0-0-0---3--|
|----------------|---0-0-0-0-------|------------------|


            A6        A
  E E E E E E E E   E E E E E E E E
|-----------2---2-|-----------------|
|-----------2---2-|-----------------|
|-----2-2---2---2-|---------2-2-----|
|-2-2-2-2---2---2-|---2-2---2-2---2-|
|-4-0-0-0---------|---3-4-0-0-0---3-|
|-----------------|-----------------|
|
| E E E E E E E E   E E E E E E E E
|-----------2---2-|-----------------|
|-----------2---2-|-----------------|
|-----2-2---2---2-|---------2-2-----|
|-2-2-2-2---2---2-|---2-2-2-2-2---2-|
|-4-0-0-0---------|---3-4-0-0-0---3-|
|-----------------|-----------------|


  E E E   E   H                 E E E E E E E E
|-----------------------------|-----------------|
|-----------------------------|-----------------|
|-----------------------------|---------2-2-----|
|-2-2-2-----------------------|---2-2---2-2---2-|
|-4-0-0-----------------------|---3-4-0-0-0---3-|
|-----------------------------|-----------------|
|
| E E E.    S S S S S S S S S   E E E E E E E E
|-----------2-----------------|-----------------|
|-------------5p2-------------|-----------------|
|-----4b6---------4p2---4p2---|-2-------2-2-----|
|-2-2-----------------4-----4-|---2-2-2-2-2---2-|
|-4-0-------------------------|---3-4-0-0-0---3-|
|-----------------------------|-----------------|


                                        1.                  2.
            A6          A                             E                   E
  E E E E E E S E S   e E E E E E E E   E E E E E E E E     E E E E E E E E
|-----------2---2-2-|-2---------------|-----------0---0--||-----------0---0-||
|-----------2---2-2-|-2---------------|-----------2---0-o||-----------2---0-||
|-----2-2---2---2-2-|-2-------2-2-----|-----2-2---2---1--||-----2-2---2---1-||
|-2-2-2-2---2---2-2-|-2-2-2---2-2---2-|-2-2-2-2---2---2--||-2-2-2-2---2---2-||
|-4-0-0-0-----------|---3-4-0-0-0---3-|-4-0-0-0---------o||-4-0-0-0---------||
|-------------------|-----------------|------------------||-----------------||
|
| E E E E E E S E S   e E E E E E E E   E E E E E E E E     E E E E E E E E
|-----------2---2-2-|-2---------------|---------------0--||---------------0-||
|-----2-2---2---2-2-|-2-------2-2-----|-----2-2---2---0-o||-----2-2---2---0-||
|-----2-2---2---2-2-|-2-------2-2-----|-----2-2---2---1--||-----2-2---2---1-||
|-2-2-2-2---2---2-2-|-2-2-2-2-2-2---2-|-2-2-2-2---2---2--||-2-2-2-2---2---2-||
|-4-0-0-0-----------|---3-4-0-0-0---3-|-4-0-0-0---0---2-o||-4-0-0-0---0---2-||
|-------------------|-----------------|---------------0--||---------------0-||


 Verse 5
                   D6sus4  D  G  D  A
  +H     +Q.       E   +E  Q  Q  Q  E
|-(0)----(0)-------7-|-(7)-5--3--2--0-|
|-(0)----(0)-------8-|-(8)-7--3--3--2-|
|-(1)----(1)-------7-|-(7)-7--4--2--2-|
|-(2)----(2)-------0-|-(0)-0--0--0--2-|
|--------------------|----------------|
|--------------------|----------------|
|
| +H     +E  a E E E   +E  Q  Q  Q  E
|-(0)----(0)-------3-|-(3)-2--3--2----|
|-(0)----(0)-------3-|-(3)-3--3--3--2-|
|-(1)----(1)-------2-|-(2)-2--4--2--2-|
|-(2)----(2)-----2-0-|-(0)-0--0--0--2-|
|-(2)----(2)-2h4-----|--------------0-|
|-(0)----(0)---------|----------------|


      E                D6sus4  D  G  D  A
  +E  E  Q   +Q.       E   +E  Q  Q  Q  E
|-(0)-0--0---(0)-------7-|-(7)-5--3--2--0--|
|-(2)-0--0---(0)-------8-|-(8)-7--3--3--2--|
|-(2)-1--1---(1)-------7-|-(7)-7--4--2--2--|
|-(2)-2--2---(2)-------0-|-(0)-0--0--0--2--|
|------------------------|-----------------|
|------------------------|-----------------|
|
| +E  E +Q   +E  a E E E   +E  Q  Q  Q  E
|----------------------3-|-(3)-2--3--2-----|
|-(2)-0-(0)--(0)-------3-|-(3)-3--3--3--2--|
|-(2)-1-(1)--(1)-------2-|-(2)-2--4--2--2--|
|-(2)-2-(2)--(2)-----2-0-|-(0)-0--0--0--2--|
|-(0)-2-(2)--(2)-2h4-----|--------------0--|
|-----0-(0)--(0)---------|-----------------|


      E                D6sus4  D  G  D  A
  +E  E  Q   +Q.       E   +E  Q  Q  Q  E
|-(0)-0--0---(0)-------7-|-(7)-5--3--2--0-|
|-(2)-0--0---(0)-------8-|-(8)-7--3--3--2-|
|-(2)-1--1---(1)-------7-|-(7)-7--4--2--2-|
|-(2)-2--2---(2)-------0-|-(0)-0--0--0--2-|
|------------------------|----------------|
|------------------------|----------------|
|
| +E  E +Q   +E  a E E E   +E  Q  Q  Q  E
|----------------------3-|-(3)-2--3--2----|
|-(2)-0-(0)--(0)-------3-|-(3)-3--3--3--2-|
|-(2)-1-(1)--(1)-------2-|-(2)-2--4--2--2-|
|-(2)-2-(2)--(2)-----2-0-|-(0)-0--0--0--2-|
|-(0)-2-(2)--(2)-2h4-----|--------------0-|
|-----0-(0)--(0)---------|----------------|


      E                D6sus4  D  G  D  A
  +E  E  Q   +Q.       E   +E  Q  Q  Q  E   E E E E E E E E
|-(0)-0--0---(0)-------7-|-(7)-5--3--2--0-|-----------------|
|-(2)-0--0---(0)-------8-|-(8)-7--3--3--2-|---------2-2-----|
|-(2)-1--1---(1)-------7-|-(7)-7--4--2--2-|---------2-2-----|
|-(2)-2--2---(2)-------0-|-(0)-0--0--0--2-|---2-2---2-2---2-|
|------------------------|----------------|---3-4-0-0-0---3-|
|------------------------|----------------|-----------------|
|
| +E  E +Q   +E  a E E E   +E  Q  Q  Q  E   E E E E E E E E
|----------------------3-|-(3)-2--3--2----|-----------------|
|-(2)-0-(0)--(0)-------3-|-(3)-3--3--3--2-|-----------------|
|-(2)-1-(1)--(1)-------2-|-(2)-2--4--2--2-|---------2-2-----|
|-(2)-2-(2)--(2)-----2-0-|-(0)-0--0--0--2-|---2-2-2-2-2---2-|
|-(0)-2-(2)--(2)-2h4-----|--------------0-|---3-4-0-0-0---3-|
|-----0-(0)--(0)---------|----------------|-----------------|


            A6        A
  E E E E E E E E   E E E E E E E E   E E E   E   H
|-----------2---2-|-----------------|-----------------------------|
|-----------2---2-|-----------------|-----------------------------|
|-----2-2---2---2-|---------2-2-----|-----------------------------|
|-2---2-2---2---2-|---2-2---2-2---2-|-2-2-2-----------------------|
|-4-0-0-0---------|---3-4-0-0-0---3-|-4-0-0-----------------------|
|-----------------|-----------------|-----------------------------|
|
| E E E E E E E E   E E E E E E E E   E E E.    S S S S S S S S S
|-----------2---2-|-----------------|-----------------------------|
|-----------2---2-|-----------------|-----------------------------|
|-----2-2---2---2-|---------2-2-----|-----4b6r==2-4p2-4p2---4p2---|
|-2-2-2-2---2---2-|---2-2-2-2-2---2-|-2-2-----------------4-----4-|
|-4-0-0-0---------|---3-4-0-0-0---3-|-4-0-------------------------|
|-----------------|-----------------|-----------------------------|


                              A6              A                             E
  E E E E E E E E   E E E E E  E S  E  S    e E E E E E E E   E E E E E E E E
|-----------------|-----------14---14-14-|-14---------------|-----------0---0-|
|-----------------|-----------14---14-14-|-14---------------|-----------2---0-|
|---------2-2-----|-----2-2---14---14-14-|-14-------2-2-----|-----2-2---2---1-|
|---2-2---2-2---2-|-2-2-2-2---14---14-14-|-14-2-2---2-2---2-|-2-2-2-2---2---2-|
|---3-4-0-0-0---3-|-4-0-0-0--------------|----3-4-0-0-0---3-|-4-0-0-0---------|
|-----------------|----------------------|------------------|-----------------|
|
| E E E E E E E E   E E E E E  E S  E  S    e E E E E E E E   E E E E E E E E
|-----------------|------------2----2--2-|--2---------------|---------------0-|
|-----------------|-----2-2----2----2--2-|--2-------2-2-----|-----2-2---2---0-|
|-2-------2-2-----|-----2-2----2----2--2-|--2-------2-2-----|-----2-2---2---1-|
|---2-2-2-2-2---2-|-2-2-2-2----2----2--2-|--2-2-2-2-2-2---2-|-2-2-2-2---2---2-|
|---3-4-0-0-0---3-|-4-0-0-0--------------|----3-4-0-0-0---3-|-4-0-0-0---0---2-|
|-----------------|----------------------|------------------|---------------0-|


 Verse 6
                   D6sus4  D  G  D  A
  +H     +Q.       E   +E  Q  Q  Q  E
|-(0)----(0)-------7-|-(7)-5--3--2--0-|
|-(0)----(0)-------8-|-(8)-7--3--3--2-|
|-(1)----(1)-------7-|-(7)-7--4--2--2-|
|-(2)----(2)-------0-|-(0)-0--0--0--2-|
|--------------------|----------------|
|--------------------|----------------|
|
| +H     +E  a E E E   +E  Q  Q  Q  E
|-(0)----(0)-------3-|-(3)-2--3--2----|
|-(0)----(0)-------3-|-(3)-3--3--3--2-|
|-(1)----(1)-------2-|-(2)-2--4--2--2-|
|-(2)----(2)-----2-0-|-(0)-0--0--0--2-|
|-(2)----(2)-2h4-----|--------------0-|
|-(0)----(0)---------|----------------|


      E                D6sus4  D  G  D  A
  +E  E  Q   +Q.       E   +E  Q  Q  Q  E
|-(0)-0--0---(0)-------7-|-(7)-5--3--2--0--|
|-(2)-0--0---(0)-------8-|-(8)-7--3--3--2--|
|-(2)-1--1---(1)-------7-|-(7)-7--4--2--2--|
|-(2)-2--2---(2)-------0-|-(0)-0--0--0--2--|
|------------------------|-----------------|
|------------------------|-----------------|
|
| +E  E +Q   +E  a E E E   +E  Q  Q  Q  E
|----------------------3-|-(3)-2--3--2-----|
|-(2)-0-(0)--(0)-------3-|-(3)-3--3--3--2--|
|-(2)-1-(1)--(1)-------2-|-(2)-2--4--2--2--|
|-(2)-2-(2)--(2)-----2-0-|-(0)-0--0--0--2--|
|-(0)-2-(2)--(2)-2h4-----|--------------0--|
|-----0-(0)--(0)---------|-----------------|


      E                D6sus4  D  G  D  A
  +E  E  Q   +Q.       E   +E  Q  Q  Q  E
|-(0)-0--0---(0)-------7-|-(7)-5--3--2--0-|
|-(2)-0--0---(0)-------8-|-(8)-7--3--3--2-|
|-(2)-1--1---(1)-------7-|-(7)-7--4--2--2-|
|-(2)-2--2---(2)-------0-|-(0)-0--0--0--2-|
|------------------------|----------------|
|------------------------|----------------|
|
| +E  E +Q   +E  a E E E   +E  Q  Q  Q  E
|----------------------3-|-(3)-2--3--2----|
|-(2)-0-(0)--(0)-------3-|-(3)-3--3--3--2-|
|-(2)-1-(1)--(1)-------2-|-(2)-2--4--2--2-|
|-(2)-2-(2)--(2)-----2-0-|-(0)-0--0--0--2-|
|-(0)-2-(2)--(2)-2h4-----|--------------0-|
|-----0-(0)--(0)---------|----------------|


      E                D6sus4  D  G  D  A     E
  +E  E  Q   +Q.       E   +E  Q  Q  Q  E   E E E E E E E E
|-(0)-0--0---(0)-------7-|-(7)-5--3--2--0-|---0-0-0-0-0-0-0-|
|-(2)-0--0---(0)-------8-|-(8)-7--3--3--2-|---0-0-0-0-0-0-0-|
|-(2)-1--1---(1)-------7-|-(7)-7--4--2--2-|---1-1-1-1-1-1-1-|
|-(2)-2--2---(2)-------0-|-(0)-0--0--0--2-|---2-2-2-2-2-2-2-|
|------------------------|----------------|-----------------|
|------------------------|----------------|-----------------|
|
| +E  E +Q   +E  a E E E   +E  Q  Q  Q  E   E E E E E E E E
|----------------------3-|-(3)-2--3--2----|---0-0-0-0-------|
|-(2)-0-(0)--(0)-------3-|-(3)-3--3--3--2-|---0-0-0-0-------|
|-(2)-1-(1)--(1)-------2-|-(2)-2--4--2--2-|---1-1-1-1-------|
|-(2)-2-(2)--(2)-----2-0-|-(0)-0--0--0--2-|---2-2-2-2-------|
|-(0)-2-(2)--(2)-2h4-----|--------------0-|---2-2-2-2-3-4-0-|
|-----0-(0)--(0)---------|----------------|---0-0-0-0-------|


     A                         A6        A                         A6
  E  E E E E E E E   E E E E E E E E   E E E E E E E E   E E E E E E S  E S
|------------------|-----------2---2-|-----------------|-----------2----2-2--|
|------------------|-----2-2---2---2-|-----------------|-----------2----2-2--|
|----------2-2-----|-----2-2---2---2-|---------2-2-----|-----2-2---2----2-2--|
|----2-2---2-2---2-|-2-2-2-2---2---2-|---2-2---2-2---2-|-2-2-2-2---2----2-2--|
|----3-4-0-0-0---3-|-4-0-0-0---------|---3-4-0-0-0---3-|-4-0-0-0-------------|
|------------------|-----------------|-----------------|---------------------|
|
| E  E E E E E E E   E E E E E E E E   E E E E E E E E   E E E E E E S  E S
|------------------|-----------2---2-|-----------------|-----------2----2-2--|
|------------------|-----------2---2-|---------2-2-----|-----2-2---2----2-2--|
|----------2-2-----|-----2-2---2---2-|---------2-2-----|-----2-2---2----2-2--|
|----2-2-2-2-2---2-|-2-2-2-2---2---2-|---2-2-2-2-2---2-|-2-2-2-2---2----2-2--|
|----3-4-0-0-0---3-|-4-0-0-0---------|---3-4-0-0-0---3-|-4-0-0-0-------------|
|------------------|-----------------|-----------------|---------------------|
|
|   Gtr III
| W                  W                 W                 H       Q   E.   S
|------------------|-----------------|-----------------|---------------------|
|------------------|-----------------|-----------------|---------------------|
|------------------|-----------------|-----------------|---------------------|
|------------------|-----------------|-----------------|---------------------|
|------------------|-----------------|-----------------|------------------0--|
|------------------|-----------------|-----------------|---------------------|


 Guitar Solo / Outro
      A                                       A6
  Gtrs I, II
   e  E E E E E     E   E   E   E E   E   E   E   E E
|--2----------------------|-------------------2-----2-|
|--2--------2-2-----------|-------------------2-----2-|
|--2--------2-2-----------|-------2---2-------2-----2-|
|--2--2-2-2-2-2---------2-|-2---2-2---2-------2-----2-|
|-----3-4-0-0-0---------3-|-4---0-0---0---------------|
|-------------------------|---------------------------|
|
| Gtr III
| +H        E E    +Q       Q     E.    S S S S S E E
|-------------------------|---------------------------|
|-------------------------|---------------------------|
|-------------7b9==(7)r---|-7b9---7b9r==5-7p5-5-7-5-5-|
|-------------------------|---------------------------|
|-(0)-------0-------------|---------------------------|
|-------------------------|---------------------------|


    A                                         A6
  E E E E E E   E   E     E   E   E   E   E   E   E   E
|-----------------------|---------------------2-------2---|
|-----------------------|---------------------2-------2---|
|---------2-2-----------|---------2---2-------2-------2---|
|---2-2-2-2-2-------2---|-2---2---2---2-------2-------2---|
|---3-4-0-0-0-------3---|-4---0---0---0-------------------|
|-----------------------|---------------------------------|
|
| E E Q   E E   S S S S   S S S S S S S S S S S S S S E
|---------------5-------|---------------------------------|
|-----------------8p5---|---------------------------------|
|-----------7b9-------7p|=5---7p5---7p5---5-7-5---5h7-----|
|-5-5h7-----------------|---7-------------------7---------|
|-----------------------|---------------------------------|
|-----------------------|---------------------------------|


      A
  E   E   E E E   E   E   E
|-----------------------------|
|-----------------------------|
|-------------2---2-----------|
|-----2---2-2-2---2-------2---|
|-----3---4-0-0---0-------3---|
|-----------------------------|
|
| S E   S E E S S S S S E   S
|-----------------------------|
|-----------------------------|
|-2p0---2p0-0-----------------|
|-------------2-0-------------|
|-----------------3-0-5p3---5p|
|-----------------------------|


              A6                    A
  E E   E E E E   E   E         E   E E   E E   E   E E
|-------------2-------2------|--------------------------|
|-------------2-------2------|--------------------------|
|-------2-2---2-------2------|--------------2---2-------|
|-2-2---2-2---2-------2------|------2-2---2-2---2-----2-|
|-4-0---0-0------------------|------3-4---0-0---0-----3-|
|----------------------------|--------------------------|
|
| E E   E E E E   S S S S      +Q     Q     S S S S E E
|----------------------------|--------------------------|
|----------------------------|--------------------------|
|-------------------2-4-4b6==|=(4)r---4b6---4p2---4p2-2-|
|-----------------4----------|------------------4-------|
|-3-3b5-0-0-0-3b5------------|--------------------------|
|----------------------------|--------------------------|


            A6                    A
  E E E E E  E S    E    S    e   E     E   E   E   E     E   E
|-----------14-----14---14-|-14-----------------------------------|
|-----------14-----14---14-|-14-----------------------------------|
|-------2---14-----14---14-|-14-----------------2---2-------------|
|-2-2---2---14-----14---14-|-14---2-----2-------2---2---------2---|
|-4-0---0------------------|------3-----4---0---0---0---------3---|
|--------------------------|--------------------------------------|
|
| Q   E E Q    S    S S  S    S S S S a S S S S S S S S a S S S S
|---------------------2----|--------------------------------5-----|
|-------------------2----5-|--2-------------------------------8-5-|
|-2---x-2------4b6---------|----4-2-4-2h4-4-2-4-2-2-2-2-4h6-------|
|--------------------------|--------------------------------------|
|--------------------------|--------------------------------------|
|--------------------------|--------------------------------------|


                      A6
  E   E   E   E   E   E      E    E
|---------------------2-----------2---|
|---------------------2-----------2---|
|---------2---2-------2-----------2---|
|-2---2---2---2-------2-----------2---|
|-4---0---0---0-----------------------|
|-------------------------------------|
|
| S S S S S S S S S S S E      S  S S
|-----------------------8b10---9-10-9-|
|-------------------------------------|
|-7-5---7-5---5-7-5---7---------------|
|-----7-----7-------7-----------------|
|-------------------------------------|
|-------------------------------------|


       A
   E    E   E E     E  E  E E
|------------------------------------|
|------------------------------------|
|-------------------2--2-------------|
|-------2---2-2-----2--2----2--------|
|-------3---4-0-----0--0----3--------|
|------------------------------------|
|
|                           |3-|
|  S S  S S e S  S  E  E  E S  E
|-10-9-------------------------------|
|------10----------10----10---12b14==|
|---------9-9-9h11----11-------------|
|------------------------------------|
|------------------------------------|
|------------------------------------|


                    A6           A
    E    E  E  E  E E  E E   E   E   E E   E   E   E E
|-------------------2----2-|----------------------------|
|-------------------2----2-|----------------------------|
|-----------2--2----2----2-|---------------2---2--------|
|---2----2--2--2----2----2-|-----2---2-2---2---2-----2--|
|---4----0--0--0-----------|-----3---4-0---0---0-----3--|
|--------------------------|----------------------------|
|
|  +E    E  E  E  Q    Q     S S S S E S S S E   S E E
|--------------------------|----------------------------|
|-(12)r-12-10-12-10---10---|-----8-8-8-----8-8---x-0-8--|
|--------------------------|-7-9-------7-9---------0----|
|--------------------------|----------------------------|
|--------------------------|----------------------------|
|--------------------------|----------------------------|


                          A6                      A
  E   E    E    E    E     E     E     E      E   E   E   E   E   E E   E
|--------------------------2-----------2----|-------------------------------|
|--------------------------2-----------2----|-------------------------------|
|----------2----2----------2-----------2----|-----------------2---2---------|
|-2---2----2----2----------2-----------2----|-----2---2---2---2---2-----2---|
|-4---0----0----0---------------------------|-----3---4---0---0---0-----3---|
|-------------------------------------------|-------------------------------|
|
| E a S  S S  E    S E     S  S  S  S  S  S   S S S E   S S S S S E S S S S
|-------------------------------------------|-------------------------------|
|-8-7h9-11---10---10-xb14-12-10----12----10-|-----8-8---8-----8-8-8-----8-8-|
|-------------------------------11----11----|---9---------7-9-------7-9-----|
|-------------------------------------------|-------------------------------|
|-------------------------------------------|-------------------------------|
|-------------------------------------------|-------------------------------|


  E E     E    E     E        E    E     E
|-----------------------------------------------|
|-----------------------------------------------|
|--------------------2--------2-----------------|
|---2-----2----2-----2--------2----------2------|
|---3-----4----0-----0--------0----------3------|
|-----------------------------------------------|
|
| E S  S  S  E    S  S     S  S S  S  S  S  S
|-----------------------------------------------|
|-8------10-10---10-12b14-12-10---12----10-12---|
|---9-11------------------------9----11---------|
|-----------------------------------------------|
|-----------------------------------------------|
|-----------------------------------------------|


  Gtr I
   E  E E  E  E  Q.             +W
|-----------------------------|------------------------*|
|-------------2--2------------|-(2)--------------------*|
|-------------2--2------------|-(2)--------------------*|
|-----2-2--2--2--2------------|-(2)--------------------*|
|-----3-4--0--0--0------------|-(0)--------------------*|
|-----------------------------|------------------------*|
|
| Gtr II
|  E  E E  E  E  Q.             +Q.        E +H
|-----------------------------|------------3-(3)-------*|
|-----------------------------|------------2-(2)-------*|
|-------------2--2------------|-(2)--------2-(2)-------*|
|-----2-2--2--2--2------------|-(2)--------2-(2)-------*|
|-----3-4--0--0--0------------|-(0)--------0-(0)-------*|
|-----------------------------|------------------------*|
|
| Gtr III
|  E  E E  E  E  E   E  E        E   E  E  E  E   E Q
|------------14---------------|------------------------*|
|-10-12---14----17--14--------|------------------------*|
|----------------------16b18==|=16r-16-14----16--14----*|
|-----------------------------|-----------16-----------*|
|-----------------------------|------------------------*|
|-----------------------------|------------------------*|



                                 TRAMPLED UNDERFOOT
                           As recorded by Led Zeppelin
                     (From the 1975 Album PHYSICAL GRAFFITI)

Words and Music by Jimmy Page, Robert Plant & John Paul Jones
Transcribed by rocktabber

           A                   Bb
      x x x 2 2 x          x x x 3 3 x

Gtr I (E A D G B E) - 'Guitar 1'
Gtr II (E A D G B E) - 'Guitar 2 (with wah and reverb)'
Gtr III (E A D G B E) - 'Electric Piano (arranged for guitar)'
Gtr IV (E A D G B E) - 'Guitar 4 (with wah and slide)'

 Intro (Clavinet1st Verse
  Moderate Rock Q=110
                 N.C.(Gm)
 4/4
  Gtr I
  Wx2            E e e e S S S S S S E   E e e e S S S S S S E  3x
|------------||------------------------|------------------------||
|------------||o---3-2-3-2-3-----------|---3-2-3-2-3-----------o||
|------------||----3-2-3-2-3-----------|---3-2-3-2-3------------||
|------------||--------------5-3---3-5-|-------------5-3---3-5--||
|------------||o-----------------5-----|-----------------5-----o||
|------------||------------------------|------------------------||


  (Bb)            (C)             (Gm)
  Gtrs I, II
  S E S +S  S S S S E S +S  S E   E  e  q   S  S  S  S  S  S  E
|-----6-(6)-6---6-----8-(8)-8---|---10-10-----------------------|
|-------------------------------|---10-11--10-11----------------|
|-5s7---------7---7s9---------9-|----------------12-10----10-12-|
|-------------------------------|----------------------12-------|
|-------------------------------|-------------------------------|
|-------------------------------|-------------------------------|


  E  e  q   S  S  S  S  S  S  E
|---10-10-------------------------||
|---10-11--10-11------------------||
|----------------12-10----10-12\--||
|----------------------12---------||
|---------------------------------||
|---------------------------------||


   2nd & 3rd Verses
    (Gm)
    Gtr I
    E e q  S S S S S S E   E e q  S S S S S S E   E e q  S S S S S S E
||-----------------------|----------------------|----------------------|
||o---2-3--2-3-----------|---2-3--2-3-----------|---2-3--2-3-----------|
||----2-3--2-3-----------|---2-3--2-3-----------|---2-3--2-3-----------|
||-------------5-3---3-5-|------------5-3---3-5-|------------5-3---3-5-|
||o----------------5-----|----------------5-----|----------------5-----|
||-----------------------|----------------------|----------------------|


  E e q  S S S S S S E   E e q  S S S S S S E   E e q  S S S S S S E
|----------------------|----------------------|-----------------------|
|---2-3--2-3-----------|---2-3--2-3-----------|---2-3--2-3------------|
|---2-3--2-3-----------|---2-3--2-3-----------|---2-3--2-3------------|
|------------5-3---3-5-|------------5-3---3-5-|------------5-3---3-5--|
|----------------5-----|----------------5-----|----------------5------|
|----------------------|----------------------|-----------------------|


                                 1.
  (Bb)            (C)             (Gm)
  Gtrs I, II
  S E S +S  S S S S E S +S  S E   E  e  q   S  S  S  S  S  S  E
|-----6-(6)-6---6-----8-(8)-8---|---10-10-----------------------|
|-------------------------------|---10-11--10-11----------------|
|-5s7---------7---7s9---------9-|----------------12-10----10-12-|
|-------------------------------|----------------------12-------|
|-------------------------------|-------------------------------|
|-------------------------------|-------------------------------|


  E  e  q   S  S  S  S  S  S  E
|---10-10--------------------------||
|---10-11--10-11------------------o||
|----------------12-10----10-12\---||
|----------------------12----------||
|---------------------------------o||
|----------------------------------||


  2.
  (Eb)                  (F)
  Gtrs I, II
  S  E  S  +S   S  S  S  S  E  S  +S   S  e
|------11-(11)-11----11-------13-(13)-13----|
|-------------------------------------------|
|-9s12------------12----12s14------------14-|
|-------------------------------------------|
|-------------------------------------------|
|-------------------------------------------|


  (Gm)
  E  e  q   S  S  S  S  S  S  E   E  e  q   S  S  S  S  S  S  E
|---10-10-----------------------|---10-10-------------------------||
|---10-11--10-11----------------|---10-11--10-11------------------||
|----------------12-10----10-12-|----------------12-10----10-12\--||
|----------------------12-------|----------------------12---------||
|-------------------------------|---------------------------------||
|-------------------------------|---------------------------------||


 4th Verse
  (Gm)
  Gtr I
  E e q  S S S S S   S  E
|-------------------------|
|---2-3--2-3--------------|
|---2-3--2-3--------------|
|------------5-3-----3--5-|
|----------------5--------|
|-------------------------|
|
| Gtr II
|                    ~~~~~~
| H      Q       T T E.
|----------------8p6------|
|--------------------8----|
|-------------------------|
|-------------------------|
|-------------------------|
|-------------------------|


   E   e q        S  S S S S S      E      E e q  S S S S S S E
|----------------------------------------|--------------------------|
|------2-3--------2--3-------------------|---2-3--2-3---------------|
|------2-3--------2--3-------------------|---2-3--2-3---------------|
|----------------------5-3---3------5----|------------5-3---3-5-----|
|--------------------------5-------------|----------------5---------|
|----------------------------------------|--------------------------|
|
|~~~~~~                                    ~
| +Q     E E     +Q.            a  +S  S   Q   Q  Q       E   S S
|----------8b10==(8)-----------(8)r(8)p6-|--------------------5h6---|
|-(8)\-----------------------------------|-8------------------------|
|----------------------------------------|--------------------------|
|----------------------------------------|--------------------------|
|----------------------------------------|--------------------------|
|----------------------------------------|--------------------------|


  E   e   q       S S S S S S E     E   e  q   S S S S S S     E
|---------------------------------|---------------------------------|
|-----2---3-------2-3-------------|-----2--3---2-3------------------|
|-----2---3-------2-3-------------|-----2--3---2-3------------------|
|---------------------5-3---3-5---|----------------5-3---3-----5----|
|-------------------------5-------|--------------------5------------|
|---------------------------------|---------------------------------|
|
| S S S S S S S S S S S S S S S S   Q     +Q   Q       E   a a E
|-5-6-5-6-5-6-5-6-5-6-5-6-5-6-6-6-|-6b8---(6)------------------6b8==|
|---------------------------------|--------------------------x------|
|---------------------------------|------------------------x--------|
|---------------------------------|---------------------------------|
|---------------------------------|---------------------------------|
|---------------------------------|---------------------------------|


   E  e      q       S  S S S  S   S E
|----------------------------------------|
|-----2------3-------2--3----------------|
|-----2------3-------2--3----------------|
|-------------------------5-3------3-5---|
|------------------------------5---------|
|----------------------------------------|
|
|                    ~~~~~~~~~~~~~~
| +Q     a  +E  S S +Q        +Q
|-(6)---(6)r(6)--------------------------|
|---------------8-8-(8)-------(8)\-------|
|----------------------------------------|
|----------------------------------------|
|----------------------------------------|
|----------------------------------------|


  (Bb)            (C)
  Gtrs I, II
  S E S +S  S S S S E S +S  S E   E  E  q   S  S  S  S  S  S  E
|-----6-(6)-6---6-----8-(8)-8---|---10-10-----------------------|
|-------------------------------|---10-11--10-11----------------|
|-5s7---------7---7s9---------9-|----------------12-10----10-12-|
|-------------------------------|----------------------12-------|
|-------------------------------|-------------------------------|
|-------------------------------|-------------------------------|


  E  E  q   S  S  S  S  S  S  E
|---10-10---------------------------||
|---10-11--10-11--------------------||
|----------------12-10----10-12\----||
|----------------------12-----------||
|-----------------------------------||
|-----------------------------------||


 5th Verse
  (Gm)
  Gtr I
  E e q  S S S S S S E    E   e q  S S S S S S E    E  e q  S S S S S S E
|----------------------|-------------------------|--------------------------|
|---2-3--2-3-----------|------2-3--2-3-----------|-----2-3--2-3-------------|
|---2-3--2-3-----------|------2-3--2-3-----------|-----2-3--2-3-------------|
|------------5-3---3-5-|---------------5-3---3-5-|--------------5-3---3-5---|
|----------------5-----|-------------------5-----|------------------5-------|
|----------------------|-------------------------|--------------------------|
|
| Gtr II
|                    ~~~~~~~~~                 ~~~~~~~~
| H      E   S S S S E   +Q     Q  E   S S S S E   +E  E Q  Q       E   S S
|------------6-5-6-5---|---------------6-5-6-5---|--------------------------|
|--------------------8-|-(8)\------------------8-|-(8)------------------6p3-|
|----------------------|-------------------------|--------------------------|
|----------------------|-------------------------|--------------------------|
|----------------------|-------------------------|--------------------------|
|----------------------|-------------------------|--------------------------|


  E e   q       S S S S S S E
|-------------------------------|
|---2---3-------2-3-------------|
|---2---3-------2-3-------------|
|-------------------5-3---3-5---|
|-----------------------5-------|
|-------------------------------|
|
| E S S S S S S S S S S S S S S
|-------------------------------|
|-6p3---------------------------|
|-----3s2-3-2---------------3h5-|
|-------------5p3-5p3-----5-----|
|---------------------5---------|
|-------------------------------|


  E e q   S S S S S S E   E e q  S S S S S S E
|-----------------------|------------------------|
|---2-3---2-3-----------|---2-3--2-3-------------|
|---2-3---2-3-----------|---2-3--2-3-------------|
|-------------5-3---3-5-|------------5-3---3-5---|
|-----------------5-----|----------------5-------|
|-----------------------|------------------------|
|
| E E E E H               W
|-----------------------|------------------------|
|-----------------------|------------------------|
|---5-7-----------------|------------------------|
|-8---------------------|------------------------|
|-----------------------|------------------------|
|-----------------------|------------------------|


  (Bb)            (C)             (Gm)
  Gtrs I, II
  S E S +S  S S S S E S +S  S E   E  E  q   S  S  S  S  S  S  E
|-----6-(6)-6---6-----8-(8)-8---|---10-10-----------------------|
|-------------------------------|---10-11--10-11----------------|
|-5s7---------7---7s9---------9-|----------------12-10----10-12-|
|-------------------------------|----------------------12-------|
|-------------------------------|-------------------------------|
|-------------------------------|-------------------------------|


  E  E  q   S  S  S  S  S  S  E
|---10-10-------------------------||
|---10-11--10-11------------------||
|----------------12-10----10-12\--||
|----------------------12---------||
|---------------------------------||
|---------------------------------||


 6th Verse
  (Gm)
  Gtr I
  E e q         S  S S S      S  S E
|------------------------------------|
|---2-3---------2--3-----------------|
|---2-3---------2--3-----------------|
|--------------------5-3---------3-5-|
|-----------------------------5------|
|------------------------------------|
|
| Gtr II
|                                  ~~~
| Q   E. S     +Q         a  +S  S E
|--------8b10==(8)-------(8)r(8)p6---|
|----------------------------------8-|
|------------------------------------|
|------------------------------------|
|------------------------------------|
|------------------------------------|


   E   e q  S S S S S S E    E  e q  S S S S S S E
|-------------------------|---------------------------|
|------2-3--2-3-----------|-----2-3--2-3--------------|
|------2-3--2-3-----------|-----2-3--2-3--------------|
|---------------5-3---3-5-|--------------5-3---3-5----|
|-------------------5-----|------------------5--------|
|-------------------------|---------------------------|
|
|~~~~~~                 ~~~~~~~~
| +e   E Q  S S S S S S E   +Q    Q  Q       E   S S
|-------------------------|----------------------3p0--|
|-(8)\------8-6-8-6-6-6-8-|-(8)-----------------------|
|-------------------------|---------------------------|
|-------------------------|---------------------------|
|-------------------------|---------------------------|
|-------------------------|---------------------------|


  E   e   q     S S S S S S E
|-------------------------------|
|-----2---3-----2-3-------------|
|-----2---3-----2-3-------------|
|-------------------5-3---3-5---|
|-----------------------5-------|
|-------------------------------|
|
| S S S S S S e S S S S S S S S
|-3p0h3p0-3p0-------------------|
|-------------------------------|
|-------------5-3h5-6-5-6-5-3-3-|
|-------------------------------|
|-------------------------------|
|-------------------------------|


  E e q  S S S S S S E   E e q  S S S S S S E
|----------------------|------------------------|
|---2-3--2-3-----------|---2-3--2-3-------------|
|---2-3--2-3-----------|---2-3--2-3-------------|
|------------5-3---3-5-|------------5-3---3-5---|
|----------------5-----|----------------5-------|
|----------------------|------------------------|
|
| ~
| Q   Q  H               W
|----------------------|------------------------|
|----------------------|------------------------|
|----------------------|------------------------|
|-5--------------------|------------------------|
|----------------------|------------------------|
|----------------------|------------------------|


  (Bb)            (C)              (Eb)                  (F)
  Gtrs I, II
  S E S +S  S S S S E S +S  S E    S  E  S  +S   S  S  S  S  E  S  +S   S  e
|-----6-(6)-6---6-----8-(8)-8----|------11-(11)-11----11-------13-(13)-13----|
|--------------------------------|-------------------------------------------|
|-5s7---------7---7s9---------9\-|-9s12------------12----12s14------------14-|
|--------------------------------|-------------------------------------------|
|--------------------------------|-------------------------------------------|
|--------------------------------|-------------------------------------------|


  (Gm)
  E  E  q   S  S  S  S  S  S  E   E  E  q   S  S  S  S  S  S  E
|---10-10-----------------------|---10-10------------------------||
|---10-11--10-11----------------|---10-11--10-11-----------------||
|----------------12-10----10-12-|----------------12-10----10-12\-||
|----------------------12-------|----------------------12--------||
|-------------------------------|--------------------------------||
|-------------------------------|--------------------------------||


  G5                 C/G               Dm/A                C/G
  Gtrs I, II
    W                              +W
|--------------------------------|-------------------------------------|
|---3----------------------------|-(3)---------------------------------|
|---0----------------------------|-(0)---------------------------------|
|---0----------------------------|-(0)---------------------------------|
|--------------------------------|-------------------------------------|
|---3----------------------------|-(3)---------------------------------|
|
| Gtr III
|   Q   E  S  S  +S   S  E  E  E    S   E  S  E  S  S  +S   S  E  E  E
|-/13--13--x-13-(13)-12-12-12-12-|--x--13--x-13--x-13-(13)-12-12-12-12-|
|-/15--15--x-15-(15)-13-13-13-13-|--x--15--x-15--x-15-(15)-13-13-13-13-|
|-/12--12-12-12-(12)-12-12-12-12-|-14--14-14-14-14-14-(14)-12-12-12-12-|
|--------------------------------|-------------------------------------|
|--------------------------------|-------------------------------------|
|--------------------------------|-------------------------------------|


  G5 Dm/A                   C/G            Dm/A                C/G
   W                                   +W
|------------------------------------|-------------------------------------||
|--3---------------------------------|-(3)---------------------------------||
|--0---------------------------------|-(0)---------------------------------||
|--0---------------------------------|-(0)---------------------------------||
|------------------------------------|-------------------------------------||
|--3---------------------------------|-(3)---------------------------------||
|
|  S  E  S  E  S  S  +S   S  E  E  E    S   E  S  E  S  S  +S   S  E  E  E
|-13-13-13-13--x-13-(13)--x-12-12-12-|--x--13--x-13--x-13-(13)-12-12-12-12-||
|-15-15-15-15--x-15-(15)--x-13-13-13-|--x--15--x-15--x-15-(15)-13-13-13-13-||
|-14-14-12-14-14-14-(14)-14-12-12-12-|-14--14-14-14-14-14-(14)-12-12-12-12-||
|------------------------------------|-------------------------------------||
|------------------------------------|-------------------------------------||
|------------------------------------|-------------------------------------||


   Guitar and Elec. Piano Solo
    (Gm)        Dm/G
    Gtr I
     E  e        q                S   S  S  S  S  S  E
||---------------------------------------------------------|
||o-----2--------3----------------2---3--------------------|
||------2--------3----------------2---3--------------------|
||---------------------------------------5--3-----3--5-----|
||o--------------------------------------------5-----------|
||---------------------------------------------------------|
|
|   Gtr II
|       PM---------------------------------|
|    E  S  S     S   S  S     S   S   S  S  S  S  S  S   S
||---------------------------------------------------------|
||o-11-------------------------------------------------/13-|
||-----10-10----10--10-10----10--10--10-10-10-10-10-10-----|
||---------------------------------------------------------|
||o--------------------------------------------------------|
||---------------------------------------------------------|
|
|   Gtr III
|    Q        a  E.        a  S  +S   E     S  Q
||-----------10s13--------10s13-(13)-----------------------|
||o-------------15-----------15-(15)-11--------------------|
||--------------12-----------12-(12)-12--------------------|
||---------------------------------------------------------|
||o--------------------------------------------------------|
||---------------------------------------------------------|


   E    e         q                S   S  S  S  S  S  E
|------------------------------------------------------------|
|-------2---------3----------------2---3---------------------|
|-------2---------3----------------2---3---------------------|
|-----------------------------------------5--3-----3--5------|
|-----------------------------------------------5------------|
|------------------------------------------------------------|
|
|                        PM--------------------|
|  S  E       S   E      S     S   S   S  S  S  S  S  S  S
|------------------------------------------------------------|
|----------------11---------------11--------------11-11s13s==|
|-10-10------10--10-----10----10------10-10-10-10------------|
|------------------------------------------------------------|
|------------------------------------------------------------|
|------------------------------------------------------------|
|
|  S  E    a  S  +S   E     a  S  +E      E     Q
|-----------------------------13-(13)------------------------|
|--8-11---15s13-(13)-13----13s15-(15)------------------------|
|-10---------10-(10)-10-------12-(12)------------------------|
|------------------------------------------------------------|
|------------------------------------------------------------|
|------------------------------------------------------------|


  (Gm)          Dm/G
   E    e        q             S   S  S  S  S   S  E
|----------------------------------------------------------|
|-------2--------3-------------2---3-----------------------|
|-------2--------3-------------2---3-----------------------|
|-------------------------------------5--3------3--5-------|
|-------------------------------------------5--------------|
|----------------------------------------------------------|
|
|     PM------------|              PM---|
|  S  E    S     E   S     S   S   S  S  S  S   S  S     S
|----------------------------------------------------------|
|-11----------------------11----------------------11h===13-|
|----10---10----10--10----10------10-10-10-10--10----------|
|----------------------------------------------------------|
|----------------------------------------------------------|
|----------------------------------------------------------|
|
|  Q          a  E.     a  S  +S   E     S  E.        a  S
|---------------13-----------------------------------------|
|------------13s15-----15s13-(13)-11-----------------15s13-|
|---------------12--------12-(12)-12--------------------12-|
|----------------------------------------------------------|
|----------------------------------------------------------|
|----------------------------------------------------------|


    E        e     q            S   S  S  S  S  S  E
|---------------------------------------------------------||
|------------2-----3------------2---3--------------------o||
|------------2-----3------------2---3---------------------||
|--------------------------------------5--3-----3--5------||
|--------------------------------------------5-----------o||
|---------------------------------------------------------||
|
|   PM------------------|
|   S      E    S  E     S  S   S   E     S  S  S  S   S
|---------------------------------------------------------||
|--------------------------11---------------11-------/13-o||
|--10-----10---10-10----10-10------10----10-10-10-10------||
|---------------------------------------------------------||
|--------------------------------------------------------o||
|---------------------------------------------------------||
|
|  +S   a  E    S  S  S  S  S  +S   S  E     S  S  S   S
|---------------------------------------------------------||
|-(13)-15s13---15-13-11---------------11----13-11-----14-o||
|-(12)----12------12----12-12-(12)----12----12----12--12--||
|---------------------------------------------------------||
|--------------------------------------------------------o||
|---------------------------------------------------------||


     A        Bb              A    Bb G  F  D  F  G
  Gtr I
   E  e        q                S   S  S  S  S  S  E
      |        |                |   |  |  |  |  |  |
      /        /                /   /  o  o  o  o  o

  Gtr II
      PM---------------------------------|
   E  S  S     S   S  S     S   S   S  S  S  S  S  S   S
|--------------------------------------------------------|
|-11-------------------------------------------------/13-|
|----10-10----10--10-10----10--10--10-10-10-10-10-10-----|
|--------------------------------------------------------|
|--------------------------------------------------------|
|--------------------------------------------------------|
|
| Gtr IV
|  W
|--------------------------------------------------------|
|--------------------------------------------------------|
|--------------------------------------------------------|
|--------------------------------------------------------|
|--------------------------------------------------------|
|--------------------------------------------------------|
|
| Gtr III
|  Q        a  E.        a  S  +S   E     S  Q
|----------10s13--------10s13-(13)-----------------------|
|-------------15-----------15-(15)-11--------------------|
|-------------12-----------12-(12)-12--------------------|
|--------------------------------------------------------|
|--------------------------------------------------------|
|--------------------------------------------------------|


        A       Bb               A    Bb G  F  D  F  G
   E    e         q                S   S  S  S  S  S  E
        |         |                |   |  |  |  |  |  |
        /         /                /   /  o  o  o  o  o

                         PM--------------------|
   S  E       S   E      S     S   S   S  S  S  S  S  S  S
|-----------------------------------------------------------|
|----------------11---------------11--------------11-11s13s=|
|-10-10------10--10-----10----10------10-10-10-10-----------|
|-----------------------------------------------------------|
|-----------------------------------------------------------|
|-----------------------------------------------------------|
|
|  H                               Q            E     E
|-----------------------------------------------------------|
|-----------------------------------------------------------|
|-----------------------------------------------------3s====|
|-----------------------------------------------------------|
|-----------------------------------------------------------|
|-----------------------------------------------------------|
|
|  S  E    a  S  +S   E     a  S  +E      E     Q
|-----------------------------13-(13)-----------------------|
|--8-11---15s13-(13)-13----13s15-(15)-----------------------|
|-10---------10-(10)-10-------12-(12)-----------------------|
|-----------------------------------------------------------|
|-----------------------------------------------------------|
|-----------------------------------------------------------|


           A       Bb           A    Bb G  F  D   F  G
     E     e        q             S   S  S  S  S   S  E
           |        |             |   |  |  |  |   |  |
           /        /             /   /  o  o  o   o  o

         PM------------|              PM---|
     S   E    S     E   S     S   S   S  S  S  S   S  S     S
||------------------------------------------------------------|
||o-11-----------------------11----------------------11h===13-|
||------10---10----10--10----10------10-10-10-10--10----------|
||------------------------------------------------------------|
||o-----------------------------------------------------------|
||------------------------------------------------------------|
|
|    H.                                       +E      E
||---------------------------------------------------/6-------|
||o-----------------------------------------------------------|
||---5----------------------------------------(5)-------------|
||------------------------------------------------------------|
||o-----------------------------------------------------------|
||------------------------------------------------------------|
|
|    Q           a  E.     a  S  +S   E     S  E.        a  S
||-----------------13-----------------------------------------|
||o-------------13s15-----15s13-(13)-11-----------------15s13-|
||-----------------12--------12-(12)-12--------------------12-|
||------------------------------------------------------------|
||o-----------------------------------------------------------|
||------------------------------------------------------------|


             A    Bb          A    Bb G  F  D  F  G
    E        e     q            S   S  S  S  S  S  E
             |     |            |   |  |  |  |  |  |
             /     /            /   /  o  o  o  o  o

    PM------------------|
    S      E    S  E     S  S   S   E     S  S  S  S   S
|---------------------------------------------------------|
|--------------------------11---------------11-------/13--|
|--10-----10---10-10----10-10------10----10-10-10-10------|
|---------------------------------------------------------|
|---------------------------------------------------------|
|---------------------------------------------------------|
|
|  +Q.                   E     +Q.                 E
|--(6)s==================3-----(3)------------------------|
|---------------------------------------------------------|
|--------------------------------------------------3s=====|
|---------------------------------------------------------|
|---------------------------------------------------------|
|---------------------------------------------------------|
|
|  +S   a  E    S  S  S  S  S  +S   S  E     S  S  S   S
|---------------------------------------------------------|
|-(13)-15s13---15-13-11---------------11----13-11-----14--|
|-(12)----12------12----12-12-(12)----12----12----12--12--|
|---------------------------------------------------------|
|---------------------------------------------------------|
|---------------------------------------------------------|


  1.,2.
      A        Bb              A    Bb G  F  D   F  G
   E   e        q                S   S  S  S  S   S  E
       |        |                |   |  |  |  |   |  |
       /        /                /   /  o  o  o   o  o

       PM---------------------------------|
   E   S  S     S   S  S     S   S   S  S  S  S   S  S   S
|----------------------------------------------------------|
|-11---------------------------------------------------/13-|
|-----10-10----10--10-10----10--10--10-10-10-10--10-10-----|
|----------------------------------------------------------|
|----------------------------------------------------------|
|----------------------------------------------------------|
|
|  H.                                        +E      E
|----------------------------------------------------------|
|----------------------------------------------------------|
|--5-----------------------------------------(5)-----3-----|
|----------------------------------------------------------|
|----------------------------------------------------------|
|----------------------------------------------------------|
|
|  Q         a  E.        a  S  +S   E     S  Q
|-----------10s13--------10s13-(13)------------------------|
|--------------15-----------15-(15)-11---------------------|
|--------------12-----------12-(12)-12---------------------|
|----------------------------------------------------------|
|----------------------------------------------------------|
|----------------------------------------------------------|


        A       Bb               A    Bb G  F  D  F  G
   E    e         q                S   S  S  S  S  S  E
        |         |                |   |  |  |  |  |  |
        /         /                /   /  o  o  o  o  o

                         PM--------------------|
   S  E       S   E      S     S   S   S  S  S  S  S  S  S  3x
|-----------------------------------------------------------||
|----------------11---------------11--------------11-11s13-o||
|-10-10------10--10-----10----10------10-10-10-10-----------||
|-----------------------------------------------------------||
|----------------------------------------------------------o||
|-----------------------------------------------------------||
|
|  Q              Q               +Q.                 E     3x
|-----------------------------------------------------------||
|----------------------------------------------------------o||
|--3s=============0---------------(0)-----------------3-----||
|-----------------------------------------------------------||
|----------------------------------------------------------o||
|-----------------------------------------------------------||
|
|  S  E    a  S  +S   E     a  S  +E      E     Q           3x
|-----------------------------13-(13)-----------------------||
|--8-11---15s13-(13)-13----13s15-(15)----------------------o||
|-10---------10-(10)-10-------12-(12)-----------------------||
|-----------------------------------------------------------||
|----------------------------------------------------------o||
|-----------------------------------------------------------||


  3.
      A     Bb          A  Bb G  F  D  F  G
   E   e     q           S  S  S  S  S  S  E
       |     |           |  |  |  |  |  |  |
       /     /           /  /  o  o  o  o  o

       PM------------------------|
   E   S  S  S  S  S  S  S  S  S  S  S  S  S   S
|------------------------------------------------|
|-11-----------------------------------------/13-|
|-----10-10-10-10-10-10-10-10-10-10-10-10-10-----|
|------------------------------------------------|
|------------------------------------------------|
|------------------------------------------------|
|
|  H.                                E     E
|------------------------------------------------|
|------------------------------------------------|
|--5---------------------------------5-----3-----|
|------------------------------------------------|
|------------------------------------------------|
|------------------------------------------------|


        A    Bb       A   Bb G  F  D  F  G
   E    e     q        S   S  S  S  S  S  E
        |     |        |   |  |  |  |  |  |
        /     /        /   /  o  o  o  o  o

                 PM----------------|
   S  E    S  E  S  S  S   S  S  S  S  S  S  S
|----------------------------------------------||
|------------11-------11--------------11-11s13-||
|-10-10---10-10-10-10-----10-10-10-10----------||
|----------------------------------------------||
|----------------------------------------------||
|----------------------------------------------||
|
|  Q          Q       +Q.                 E
|----------------------------------------------||
|----------------------------------------------||
|--3s=========0-------(0)----------------------||
|----------------------------------------------||
|----------------------------------------------||
|----------------------------------------------||


  G5                 C/G               Dm/A                C/G
  Gtrs I, II
    W                              +W
|--------------------------------|-------------------------------------|
|---3----------------------------|-(3)---------------------------------|
|---0----------------------------|-(0)---------------------------------|
|---0----------------------------|-(0)---------------------------------|
|--------------------------------|-------------------------------------|
|---3----------------------------|-(3)---------------------------------|
|
| Gtr III
|   Q   E  S  S  +S   S  E  E  E    S   E  S  E  S  S  +S   S  E  E  E
|-/13--13--x-13-(13)-12-12-12-12-|--x--13--x-13--x-13-(13)-12-12-12-12-|
|-/15--15--x-15-(15)-13-13-13-13-|--x--15--x-15--x-15-(15)-13-13-13-13-|
|-/12--12-12-12-(12)-12-12-12-12-|-14--14-14-14-14-14-(14)-12-12-12-12-|
|--------------------------------|-------------------------------------|
|--------------------------------|-------------------------------------|
|--------------------------------|-------------------------------------|


  G5       Dm/A             C/G
   W
|------------------------------------|
|--3---------------------------------|
|--0---------------------------------|
|--0---------------------------------|
|------------------------------------|
|--3---------------------------------|
|
|  S  E  S  E  S  S  +S   S  E  E  E
|-13-13-13-13--x-13-(13)--x-12-12-12-|
|-15-15-15-15--x-15-(15)--x-13-13-13-|
|-14-14-12-14-14-14-(14)-14-12-12-12-|
|------------------------------------|
|------------------------------------|
|------------------------------------|


      Dm/A                C/G
  +W
|-------------------------------------|
|-(3)---------------------------------|
|-(0)---------------------------------|
|-(0)---------------------------------|
|-------------------------------------|
|-(3)---------------------------------|
|
|  S   E  S  E  S  S  +S   S  E  E  E
|--x--13--x-13--x-13-(13)-12-12-12-12-|
|--x--15--x-15--x-15-(15)-13-13-13-13-|
|-14--14-14-14-14-14-(14)-12-12-12-12-|
|-------------------------------------|
|-------------------------------------|
|-------------------------------------|


  (Gm)
  E E q  S S S S S S E   E E q  S S S S S S E
|----------------------|-----------------------||
|---2-3--2S3-----------|---2-3--2S3------------||
|---2-3--2S3-----------|---2-3--2S3------------||
|------------5-3---3-5-|------------5-3---3-5--||
|----------------5-----|----------------5------||
|----------------------|-----------------------||
|
| W                      W
|----------------------|-----------------------||
|----------------------|-----------------------||
|----------------------|-----------------------||
|----------------------|-----------------------||
|----------------------|-----------------------||
|----------------------|-----------------------||


 7th Verse
  (Gm)
  Gtr I
  E e q  S    S  S  S S S E
|---------------------------|
|---2-3--2----3-------------|
|---2-3--2----3-------------|
|----------------5--3---3-5-|
|---------------------5-----|
|---------------------------|
|
| Gtr II
| H      E      +Q.
|---------------------------|
|---------------------------|
|--------3b5====(3)r========|
|---------------------------|
|---------------------------|
|---------------------------|


   E  e q  S   S S S  S  S E   E e q  S S S S S S E
|----------------------------|-----------------------|
|-----2-3--2---3-------------|---2-3--2-3------------|
|-----2-3--2---3-------------|---2-3--2-3------------|
|----------------5-3-----3-5-|------------5-3---3-5--|
|---------------------5------|----------------5------|
|----------------------------|-----------------------|
|
| +E  e Q  Q         +Q        Q   Q  H
|----------------------------|-----------------------|
|----------------------------|-----------------------|
|-(3)p0----3b5-------(3)-----|-x---------------------|
|----------------------------|-----------------------|
|----------------------------|-----------------------|
|----------------------------|-----------------------|


  E e    q   S   S S   S S   S E
|----------------------------------|
|---2----3---2---3-----------------|
|---2----3---2---3-----------------|
|------------------5---3-----3-5---|
|------------------------5---------|
|----------------------------------|
|
|        ~~~
| E E   +Q   S   S S   S S   S S S
|----------------------------------|
|----------------------------------|
|---5b6-(5)--5b6-5-5b6-5-5b6-5-3p0-|
|----------------------------------|
|----------------------------------|
|----------------------------------|


  E e q  S S S S S S E   E e q  S S S S S S E
|----------------------|----------------------|
|---2-3--2-3-----------|---2-3--2-3-----------|
|---2-3--2-3-----------|---2-3--2-3-----------|
|------------5-3---3-5-|------------5-3---3-5-|
|----------------5-----|----------------5-----|
|----------------------|----------------------|
|
| W                      W
|----------------------|----------------------|
|----------------------|----------------------|
|----------------------|----------------------|
|----------------------|----------------------|
|----------------------|----------------------|
|----------------------|----------------------|


  (Bb)            (C)             (Gm)
  Gtrs I, II
  S E S +S  S S S S E S +S  S e   E  e  e E  S  S  S  S  S  S  E
|-----6-(6)-6---6-----8-(8)-8---|---10-10------------------------|
|-------------------------------|---10-11-x-10-11----------------|
|-5s7---------7---7s9---------9-|-x---------------12-10----10-12-|
|-------------------------------|-----------------------12-------|
|-------------------------------|--------------------------------|
|-------------------------------|--------------------------------|


  E  E  q   S  S  S  S  S  S  E
|---10-10-------------------------||
|---10-11--10-11------------------||
|----------------12-10----10-12\--||
|----------------------12---------||
|---------------------------------||
|---------------------------------||


 8th Verse
  (Gm)
  Gtr I
  E e q  S S S   S S S E   E e q  S S S S S     S  E
|------------------------|------------------------------|
|---2-3--2-3-------------|---2-3--2-3-------------------|
|---2-3--2-3-------------|---2-3--2-3-------------------|
|------------5---3---3-5-|------------5-3-------3--5----|
|------------------5-----|----------------5-------------|
|------------------------|------------------------------|
|
| Gtr II
|                                                  |3-|
| H      S S S   S S S E   H      Q       E       +E  S
|------------------------|----------------8pb10r==(8)p6-|
|------------------------|------------------------------|
|----------5-5b6-3-5p3---|------------------------------|
|----------------------5-|------------------------------|
|------------------------|------------------------------|
|------------------------|------------------------------|


  E    e q  S S S S S     S E
|----------------------------------|
|------2-3--2-3--------------------|
|------2-3--2-3--------------------|
|---------------5-3-------3-5------|
|-------------------5--------------|
|----------------------------------|
|
| S E.   Q  Q       E.        +S
|-------------------8b10======(8)r=|
|-8-8------------------------------|
|----------------------------------|
|----------------------------------|
|----------------------------------|
|----------------------------------|


   E    e   q         S   S  S  S S S E
|-----------------------------------------|
|-------2---3---------2---3---------------|
|-------2---3---------2---3---------------|
|----------------------------5--3---3-5---|
|---------------------------------5-------|
|-----------------------------------------|
|
| +S  S S S E     S S E     +S  S S S S S
|-(8)-6-8-6-8b8.5-8-6-8b9r==(8)-6-8-6-----|
|-------------------------------------8-7-|
|-----------------------------------------|
|-----------------------------------------|
|-----------------------------------------|
|-----------------------------------------|


  E e q  S S S S S S E   E e q  S S S S S S E
|----------------------|------------------------|
|---2-3--2-3-----------|---2-3--2-3-------------|
|---2-3--2-3-----------|---2-3--2-3-------------|
|------------5-3---3-5-|------------5-3---3-5---|
|----------------5-----|----------------5-------|
|----------------------|------------------------|
|
| ~
| E e Q  H               W
|---6------------------|------------------------|
|-8--------------------|------------------------|
|----------------------|------------------------|
|----------------------|------------------------|
|----------------------|------------------------|
|----------------------|------------------------|


  (Bb)          (C)               (Gm)
  Gtrs I, II
  S E S +S  S S S S E S +S  S e   E  E  q   S  S  S  S  S  S  E
|-----6-(6)-6---6-----8-(8)-8---|---10-10-----------------------|
|-------------------------------|---10-11--10-11----------------|
|-5s7---------7---7s9---------9-|----------------12-10----10-12-|
|-------------------------------|----------------------12-------|
|-------------------------------|-------------------------------|
|-------------------------------|-------------------------------|


  E  E  q   S  S  S  S  S  S  E
|---10-10-------------------------||
|---10-11--10-11------------------||
|----------------12-10----10-12\--||
|----------------------12---------||
|---------------------------------||
|---------------------------------||


 9th Verse
  (Gm)
  Gtr I
  E e q  S S S S S     S  E     E  e q  S S S S  S  S E
|----------------------------|------------------------------------|
|---2-3--2-3-----------------|-----2-3--2-3-----------------------|
|---2-3--2-3-----------------|-----2-3--2-3-----------------------|
|------------5-3-------3--5--|--------------5-3-----3-5-----------|
|----------------5-----------|-------------------5----------------|
|----------------------------|------------------------------------|
|
| Gtr II
| H      E   E   E       +E    +H.              +E    S     S
|----------------8b10====(8)-|-(8)--------------(8)---8pb10-8pb10-|
|------------6---------------|------------------------------------|
|----------------------------|------------------------------------|
|----------------------------|------------------------------------|
|----------------------------|------------------------------------|
|----------------------------|------------------------------------|


  E             e           q                         S      S      S     S     S      S      E
|---------------------------------------------------------------------------------------------------------|
|---------------2-----------3-------------------------2------3--------------------------------------------|
|---------------2-----------3-------------------------2------3--------------------------------------------|
|-------------------------------------------------------------------5-----3------------3------5-----------|
|-------------------------------------------------------------------------------5-------------------------|
|---------------------------------------------------------------------------------------------------------|
|
| S      S      S     S     S      S      S     S     S      S      S     S     S      S      S     S
|-8pb10==8pb10==8pb10-8pb10-8pb10==8pb10==8pb10-8pb10-8pb10==8pb10==8pb10-8pb10-8pb10==8pb10==8pb10-8pb10-|
|---------------------------------------------------------------------------------------------------------|
|---------------------------------------------------------------------------------------------------------|
|---------------------------------------------------------------------------------------------------------|
|---------------------------------------------------------------------------------------------------------|
|---------------------------------------------------------------------------------------------------------|


  E           e             q                    S S S S S S E
|----------------------------------------------------------------|
|-------------2-------------3--------------------2-3-------------|
|-------------2-------------3--------------------2-3-------------|
|----------------------------------------------------5-3---3-5---|
|--------------------------------------------------------5-------|
|----------------------------------------------------------------|
|
| S     S     S      S      S      S      S    S S S S S S S S S
|-8pb10-8pb10-8pb9.5-8pb9.5-8pb9.5-8pb9.5-8pb9-8r8-8-8-8-6-8p6---|
|--------------------------------------------------------------8-|
|----------------------------------------------------------------|
|----------------------------------------------------------------|
|----------------------------------------------------------------|
|----------------------------------------------------------------|


  E     e  q   S  S S  S S S E   E e q  S S S S S S E
|------------------------------|-----------------------|
|-------2--3---2--3------------|---2-3--2-3------------|
|-------2--3---2--3------------|---2-3--2-3------------|
|-------------------5--3---3-5-|------------5-3---3-5--|
|------------------------5-----|----------------5------|
|------------------------------|-----------------------|
|
|       ~~~~~~~~~~
| E     Q.    +E    E    Q       W
|-6b6.5-------------6\---------|-----------------------|
|-------8-----(8)--------------|-----------------------|
|------------------------------|-----------------------|
|------------------------------|-----------------------|
|------------------------------|-----------------------|
|------------------------------|-----------------------|


  (Bb)          (C)               (Eb)                  (F)
  Gtrs I, II
  S E S +S  S S S S E S +S  S E   S  E  S  +S   S  S  S  S  E  S  +S   S  e
|-----6-(6)-6---6-----8-(8)-8---|------11-(11)-11----11-------13-(13)-13----|
|-------------------------------|-------------------------------------------|
|-5s7---------7---7s9---------9-|-9s12------------12----12s14------------14-|
|-------------------------------|-------------------------------------------|
|-------------------------------|-------------------------------------------|
|-------------------------------|-------------------------------------------|


  (Gm)
  E  E  q   S  S  S  S  S  S  E
|---10-10--------------------------|
|---10-11--10-11-------------------|
|----------------12-10----10-12\---|
|----------------------12----------|
|----------------------------------|
|----------------------------------|


  E  E  e E  S  S  S  S  S  S  E
|---10-10------------------------|
|---10-11-x-10-11----------------|
|-x---------------12-10----10-12-|
|-----------------------12-------|
|--------------------------------|
|--------------------------------|


   Outro
    (Gm)
    Gtr I
    E E q  S S S S S S E   E E q  S S S S S S E   6x
||-----------------------|------------------------||
||o---2-3--2-3-----------|---2-3--2-3------------o||
||----2-3--2-3-----------|---2-3--2-3-------------||
||-------------5-3---3-5-|------------5-3---3-5---||
||o----------------5-----|----------------5------o||
||-----------------------|------------------------||


  E e q  S S S S S S E   E E q  S S S S S S E
|----------------------|----------------------|
|---2-3--2-3-----------|---5-3--2-3-----------|
|---2-3--2-3-----------|---5-3--2-3-----------|
|------------5-3---3-5-|------------5-3---3-5-|
|----------------5-----|----------------5-----|
|----------------------|----------------------|
|
| Gtr II
| W                      W
|----------------------|----------------------|
|----------------------|----------------------|
|----------------------|----------------------|
|----------------------|----------------------|
|----------------------|----------------------|
|----------------------|----------------------|


  E     e        q                  S      S      S      S S     S E
|--------------------------------------------------------------------------------|
|-------2--------3------------------2------3-------------------------------------|
|-------2--------3------------------2------3-------------------------------------|
|-------------------------------------------------5------3-------3-5-------------|
|----------------------------------------------------------5---------------------|
|--------------------------------------------------------------------------------|
|
| E.      S      S      S     E     S      S      S      S E       S      S
|-8b10====8pb10==8pb10==8pb10-8b10==8pb10==8pb10==8pb10==8-8b10====8pb10==8pb10==|
|--------------------------------------------------------------------------------|
|--------------------------------------------------------------------------------|
|--------------------------------------------------------------------------------|
|--------------------------------------------------------------------------------|
|--------------------------------------------------------------------------------|


   E     e    q        S    S   S      S  S  S     E
|-----------------------------------------------------------|
|--------2----3--------2----3-------------------------------|
|--------2----3--------2----3-------------------------------|
|-------------------------------5------3-----3-----5--------|
|-----------------------------------------5-----------------|
|-----------------------------------------------------------|
|
|                      |----3-----|
| +S   S E    S E    S E      E   E      +S  E       S
|-(8)r-8-8b10-8-8b10-6-8b10---8---8b10---(8)-8b10====8pb10==|
|-----------------------------------------------------------|
|-----------------------------------------------------------|
|-----------------------------------------------------------|
|-----------------------------------------------------------|
|-----------------------------------------------------------|


  E    e   q               S   S S     S S S      E
|---------------------------------------------------|
|------2---3---------------2---3--------------------|
|------2---3---------------2---3--------------------|
|--------------------------------5-----3---3------5-|
|----------------------------------------5----------|
|---------------------------------------------------|
|
| E.     S E     S S      +S   S E       S E.
|-8b10---8-8pb10-8-8pb10==(8)r-8-8pb10---8-8pb10====|
|---------------------------------------------------|
|---------------------------------------------------|
|---------------------------------------------------|
|---------------------------------------------------|
|---------------------------------------------------|


       E    e   q       S S S S S S E     E   E   q       S S S S S S E
|---------------------------------------|---------------------------------|
|-----------2---3-------2-3-------------|-----5---3-------2-3-------------|
|-----------2---3-------2-3-------------|-----5---3-------2-3-------------|
|---------------------------5-3---3-5---|---------------------5-3---3-5---|
|-------------------------------5-------|-------------------------5-------|
|---------------------------------------|---------------------------------|
|
|  a  +S  S S S S S S S S S S S S S S S   S S S S S S S S S S S S S S S S
|-(8)r(8)p6---8p6---6-8p6---6-8p6-------|---------------------------------|
|-----------8-----8-------8-------8-6h8p|=6---6---6-8p6---6---------------|
|---------------------------------------|---7---7-------7---7p5-3h5p3---3-|
|---------------------------------------|-----------------------------5---|
|---------------------------------------|---------------------------------|
|---------------------------------------|---------------------------------|


    E E   q       S S   S   S S S E     E   E q  S S S   S   S S E
|-------------------------------------|---------------------------------|
|-----5---3-------2-3-----------------|-----5-3--2-3--------------------|
|-----5---3-------2-3-----------------|-----5-3--2-3--------------------|
|-----------------------5---3---3-5---|--------------5---3-----3-5------|
|-----------------------------5-------|----------------------5----------|
|-------------------------------------|---------------------------------|
|
|                 |---3---|                          |--3--|     |-3-|
| a E S S S S S S E   E   E   S E   S   S S E Q  E   S S   S E   S S S
|-------------------------------------|--------------9p6---8-6---9p6-8--|
|-----6-6-6-----6-6---6---6-----------|---------------------------------|
|-5s7-------4S7-----------------5p==3-|-5p3-----------------------------|
|-------------------------------------|-----5---------------------------|
|-------------------------------------|---------------------------------|
|-------------------------------------|---------------------------------|


  E     E q       S S S S S S E   E   E q     S S S S S S E
|-------------------------------|---------------------------|
|-------5-3-------2-3-----------|-----5-3-----2-3-----------|
|-------5-3-------2-3-----------|-----5-3-----2-3-----------|
|---------------------5-3---3-5-|-----------------5-3---3-5-|
|-------------------------5-----|---------------------5-----|
|-------------------------------|---------------------------|
|
| S S a E S S S S S e   S E   E   E   e E S S S S S S E   E
|-6---6h8-6---------------------|---------------------------|
|---8-------8p6-----------------|---------------------------|
|---------------7-5s3-----3---5-|-5b6-5---6-5-6-5-3---3-----|
|-----------------------6-------|-------------------5-----5-|
|-------------------------------|---------------------------|
|-------------------------------|---------------------------|


    E E q         S S S   S     S S E
|-------------------------------------|
|-----5-3---------2-3-----------------|
|-----5-3---------2-3-----------------|
|---------------------5---3-------3-5-|
|-------------------------------5-----|
|-------------------------------------|
|
|           |-3-|     |--3--|
| a q   E a S S S E   S S   S a S S E
|-------------------------------------|
|-------------------------------------|
|-3h5-----3h5-3-0-------------3h5-3-0-|
|---------------------5-3---0---------|
|-------------------------------------|
|-------------------------------------|


    E e q     S S S S S S E   E E q  S S S S S S E
|---------------------------|------------------------|
|-----2-3-----2-3-----------|---2-3--2-3-------------|
|-----2-3-----2-3-----------|---2-3--2-3-------------|
|-----------------5-3---3-5-|------------5-3---3-5---|
|---------------------5-----|----------------5-------|
|---------------------------|------------------------|
|
| a Q   E S S H               W
|---------------------------|------------------------|
|---------------------------|------------------------|
|-3h5-----3h5---------------|------------------------|
|---------------------------|------------------------|
|---------------------------|------------------------|
|---------------------------|------------------------|


    E E q  S S S S S S E   E E q  S S S S S S E   E E q  S S S S S S E
||-----------------------|----------------------|-----------------------||
||o---2-3--2-3-----------|---2-3--2-3-----------|---2-3--2-3-----------o||
||----2-3--2-3-----------|---2-3--2-3-----------|---2-3--2-3------------||
||-------------5-3---3-5-|------------5-3---3-5-|------------5-3---3-5--||
||o----------------5-----|----------------5-----|----------------5-----o||
||-----------------------|----------------------|-----------------------||


                                                                       G5
  E E q  S S S S S S E   E E q  S S S S S S E   E E q  S S S S S S E   W
|----------------------|----------------------|----------------------|------*|
|---2-3--2-3-----------|---2-3--2-3-----------|---2-3--2-3-----------|------*|
|---2-3--2-3-----------|---2-3--2-3-----------|---2-3--2-3-----------|------*|
|------------5-3---3-5-|------------5-3---3-5-|------------5-3---3-5-|-5----*|
|----------------5-----|----------------5-----|----------------5-----|-5----*|
|----------------------|----------------------|----------------------|-3----*|




                                 IN MY TIME OF DYING
                           As recorded by Led Zeppelin
                     (From the 1975 Album PHYSICAL GRAFITTI)

Words and Music by Jimmy Page & Robert Plant
Arranged by Led Zeppelin
Transcribed by rocktabber

Gtr I (E A E A C# E) - 'Untitled'

 Intro
  Q=90
            (A)
 4/4
  Gtr I
  H    Q  E E   E E E E Q.   E   E E E a  E  +Q.   E
|-------------|----------------|---------------------|
|-------------|----------------|-------3s12-(12)-----|
|-----------3s|=2-0-2s3s5----0-|-3s2-0-3s12-(12)---3s|
|-------------|-----2s3s5----0-|-3s2-0-3s12-(12)---3s|
|-------------|----------------|---------------------|
|-------------|----------------|---------------------|


  E E E E Q.   E   Q.   E +Q.   E
|----------------|------------------|
|----------------|------------------|
|-2-0-2s3s5----0-|-3----0-(0)---3s==|
|-2-0-2s3s5----0-|-3----0-(0)---3s==|
|----------------|------------------|
|----------------|------------------|


  E E E E Q.   E   E E E a  E  +Q.   E
|----------------|---------------------|
|----------------|-------3s12-(12)-----|
|-2-0-2s3s5----0-|-3s2-0-3s12-(12)---3s|
|-2-0-2s3s5----0-|-3s2-0-3s12-(12)---3s|
|----------------|---------------------|
|----------------|---------------------|


  E E E E Q.   E   Q.  E +H       +W
|----------------|--------------|--------|
|----------------|--------------|--------|
|-2-0-2s3s5----0-|-3s==0-(0)----|-(0)----|
|-2-0-2s3s5----0-|-3s==0-(0)----|-(0)----|
|----------------|--------------|--------|
|----------------|--------------|--------|


  A5C5  D5      (A)
  E E E E +Q.   E   a E E a E E +Q   Q
|-----------------|---------------------|
|-----------------|---------------------|
|-0-3---5-(5)---0-|-3s7-0-3s5-3-(3)--0--|
|-0-3---5-(5)-----|---------------------|
|-0-3---5-(5)-----|---------------------|
|-----------------|---------------------|


  A5C5  D5      (A)
  E E E E +Q.   E   a E E a E E +Q.   E
|-----------------|---------------------|
|-----------------|---------------------|
|-0-3---5-(5)---0-|-3s7-0-3s5-3-(3)---0-|
|-0-3---5-(5)-----|---------------------|
|-0-3---5-(5)-----|---------------------|
|-----------------|---------------------|


  A5C5  D5      (A)
  E E E E +Q.   E   a E E a E E +Q   E E
|-----------------|----------------------|
|-----------------|----------------------|
|-0-3---5-(5)---0-|-3s7-0-3s5-3-(3)--0-0s|
|-0-3---5-(5)-----|--------------------0s|
|-0-3---5-(5)-----|----------------------|
|-----------------|----------------------|


  E E a E E a E E E a E   +E  E a E E a E E E a E
|-----------------------|--------------------------|
|-----------------------|--------------------------|
|-7-0-3s5-0-2s3-0-0-5s7-|-(7)-0-3s5-0-2s3-0-0-5s7--|
|-7---3s5---2s3-----5s7-|-(7)---3s5---2s3-----5s7--|
|-----------------------|--------------------------|
|-----------------------|--------------------------|


  +E  E a E E a E E E a E   +E  E a E E a E E E  E
|-------------------------|------------------------|
|-------------------------|------------------------|
|-(7)-0-3s5-0-2s3-0-0-5s7-|-(7)-0-3s5-0-2s3-0-0s12-|
|-(7)---3s5---2s3-----5s7-|-(7)---3s5---2s3---0s12-|
|-------------------------|------------------------|
|-------------------------|------------------------|


   +E  E a E E a E E E a  E    +E  E a E E a E E E a E
|---------------------------|---------------------------|
|----------------------3s12-|-(12)----------------------|
|-(12)-0-3s5-0-2s3-0-0-3s12-|-(12)-0-3s5-0-2s3-0-0-5s7--|
|-(12)---3s5---2s3-----3s12-|-(12)---3s5---2s3----------|
|---------------------------|---------------------------|
|---------------------------|---------------------------|


                                             D5                          (A)
  +E  E a E E a E E E E    E E a E E a E E E E   +W           +H.      E E
|-----------------------|----------------------|------------|---------------|
|-----------------------|----------------------|------------|---------------|
|-(7)-0-3s5-0-2s3-0-0-7s|=12-0-3s5-0-2s3-0-0-5-|-(5)--------|-(5)--------3s=|
|-------3s5---2s3-------|------3s5---2s3-----5-|-(5)--------|-(5)--------3s=|
|-----------------------|--------------------5-|-(5)--------|-(5)-----------|
|-----------------------|----------------------|------------|---------------|


   Verses 1 & 2
    E E E E Q.   E   E E E a  E  +Q.   E   E E E E Q.   E   H    Q.   E
||-----------------|---------------------|----------------|--------------|
||o----------------|-------3s12-(12)-----|----------------|--------------|
||--2-0-2s3s5----0-|-3s2-0-3s12-(12)---3s|=2-0-2s3s5----0-|-3s===0----3s=|
||--2-0-2s3s5----0-|-3s2-0-3s12-(12)---3s|=2-0-2s3s5----0-|-3s===0----3s=|
||o----------------|---------------------|----------------|--------------|
||-----------------|---------------------|----------------|--------------|


  E E E E Q.   E   E E E a  E  +Q.   E   E E E E Q.   E   H    H      +W
|----------------|---------------------|----------------|-----------|--------|
|----------------|-------3s12-(12)-----|----------------|-----------|--------|
|-2-0-2s3s5----0-|-3s2-0-3s12-(12)---3s|=2-0-2s3s5----0-|-3s===0----|-(0)----|
|-2-0-2s3s5----0-|-3s2-0-3s12-(12)---3s|=2-0-2s3s5----0-|-3s===0----|-(0)----|
|----------------|---------------------|----------------|-----------|--------|
|----------------|---------------------|----------------|-----------|--------|


  A5C5  D5               (A)         A5C5  D5      (A)
  E E E E +H       +Q.   E +Q   Q    E E E E +Q.   E   a E E a E E +H     a
|----------------|-----------------|-----------------|-----------------------|
|----------------|-----------------|-----------------|-----------------------|
|-0-3---5-(5)----|-(5)---3-(3)s=0--|-0-3---5-(5)---0-|-3s7-0-3s5-3-(3)s===2--|
|-0-3---5-(5)----|-(5)---3-(3)s=0--|-0-3---5-(5)-----|-----------------------|
|-0-3---5-(5)----|-(5)-------------|-0-3---5-(5)-----|-----------------------|
|----------------|-----------------|-----------------|-----------------------|


  A5C5  D5      (A)
  E E E E +Q.   E   a E E a E E +Q   E E
|-----------------|----------------------|
|-----------------|----------------------|
|-0-3---5-(5)---0-|-3s7-0-3s5-3-(3)--0-0s|
|-0-3---5-(5)-----|--------------------0s|
|-0-3---5-(5)-----|----------------------|
|-----------------|----------------------|


  E E a E E a E E E a E   +E  E a E E a E E E a E
|-----------------------|--------------------------|
|-----------------------|--------------------------|
|-7-0-3s5-0-2s3-0-0-5s7-|-(7)-0-3s5-0-2s3-0-0-5s7--|
|-7---3s5---2s3-----5s7-|-(7)---3s5---2s3-----5s7--|
|-----------------------|--------------------------|
|-----------------------|--------------------------|


  +E  E a E E a E E E a E   +E  E a E E a E E E  E
|-------------------------|------------------------|
|-------------------------|------------------------|
|-(7)-0-3s5-0-2s3-0-0-5s7-|-(7)-0-3s5-0-2s3-0-0s12-|
|-(7)---3s5---2s3-----5s7-|-(7)---3s5---2s3---0s12-|
|-------------------------|------------------------|
|-------------------------|------------------------|


   +E  E a E E a E E E a  E    +E  E a E E a E E E a E
|---------------------------|---------------------------|
|----------------------3s12-|-(12)----------------------|
|-(12)-0-3s5-0-2s3-0-0-3s12-|-(12)-0-3s5-0-2s3-0-0-5s7--|
|-(12)---3s5---2s3-----3s12-|-(12)---3s5---2s3----------|
|---------------------------|---------------------------|
|---------------------------|---------------------------|


                                             D5
  +E  E a E E a E E E E    E E a E E a E E E E   +W           +H.      E E
|-----------------------|----------------------|------------|---------------||
|-----------------------|----------------------|------------|---------------||
|-(7)-0-3s5-0-2s3-0-0-7s|=12-0-3s5-0-2s3-0-0-5-|-(5)--------|-(5)--------3s=||
|-------3s5---2s3-------|------3s5---2s3-----5-|-(5)--------|-(5)--------3s=||
|-----------------------|--------------------5-|-(5)--------|-(5)-----------||
|-----------------------|----------------------|------------|---------------||


  1.
  E E E E Q.   E   E E E a  E  +E   Q  E   E E E E Q.   E   Q.  E +Q.   E
|----------------|-----------------12----|----------------|-----------------|
|----------------|-------3s12-(12)-------|----------------|-----------------|
|-2-0-2s3s5----0-|-3s2-0-3s12-(12)-----3s|=2-0-2s3s5----0-|-3s==0-(0)---3s==|
|-2-0-2s3s5----0-|-3s2-0-3s12-(12)-----3s|=2-0-2s3s5----0-|-3s==0-(0)---3s==|
|----------------|-----------------------|----------------|-----------------|
|----------------|-----------------------|----------------|-----------------|


  E E E E Q.   E   E E E a  E  +Q.   E   E E E E Q.   E   H.      E E
|----------------|---------------------|----------------|----------------||
|----------------|-------3s12-(12)-----|----------------|---------------o||
|-2-0-2s3s5----0-|-3s2-0-3s12-(12)---3s|=2-0-2s3s5----0-|-3---------3\---||
|-2-0-2s3s5----0-|-3s2-0-3s12-(12)---3s|=2-0-2s3s5----0-|-3---------3\---||
|----------------|---------------------|----------------|---------------o||
|----------------|---------------------|----------------|----------------||


  2.100
  D7   D13 D7   D13   D7   D13 D7   D13
  E. S E E E. S E E   E. S E E E. S E E
|-8--8-7---8--8-7---|-8--8-7---8--8-7---|
|-8--8-7---8--8-7---|-8--8-7---8--8-7---|
|-5--5-5---5--5-5---|-5--5-5---5--5-5---|
|-5--5-5---5--5-5---|-5--5-5---5--5-5---|
|-5--5-5---5--5-5---|-5--5-5---5--5-5---|
|-------------------|-------------------|


    (A)
  S S S S S S S S S E S +E  E   S S S S S S S S S E S +E  E
|-----------------------------|-----------------------------|
|-----------------------------|-----------------------------|
|---3-2-0-3-2-0-0-5-3-0-(0)---|---3-2-0-3-2-0-0-5-3-0-(0)---|
|---3-2-0-3-2-0-0-5-3-0-(0)---|---3-2-0-3-2-0-0-5-3-0-(0)---|
|-----------------------------|-----------------------------|
|-----------------------------|-----------------------------|


                               9/8
  S S S S S S S S S E S +E  E   S S S S S S S S S E S +S  E. E
|-----------------------------|---------------------------------|
|-----------------------------|---------------------------------|
|---3-2-0-3-2-0-0-5-3-0-(0)---|---3-2-0-3-2-0-0-5-3-0-(0)-------|
|---3-2-0-3-2-0-0-5-3-0-(0)---|---3-2-0-3-2-0-0-5-3-0-(0)-------|
|-----------------------------|---------------------------------|
|-----------------------------|---------------------------------|


   Verse 3
    D7   D13 D7   D13   D7   D13 D7   D13
   4/4
    E. S E E E. S E E   E. S E E E. S E E
||--8--8-7---8--8-7---|-8--8-7---8--8-7---|
||o-8--8-7---8--8-7---|-8--8-7---8--8-7---|
||--5--5-5---5--5-5---|-5--5-5---5--5-5---|
||--5--5-5---5--5-5---|-5--5-5---5--5-5---|
||o-5--5-5---5--5-5---|-5--5-5---5--5-5---|
||--------------------|-------------------|


  D7   D13 D7   D13   D7   D13 D7   D13
  E. S E E E. S E E   E. S E E E. S S S S S
|-8--8-7---8--8-7---|-8--8-7---8--8-7-------|
|-8--8-7---8--8-7---|-8--8-7---8--8-7-0-0-0-|
|-5--5-5---5--5-5---|-5--5-5---5--5-5-0-0-0-|
|-5--5-5---5--5-5---|-5--5-5---5--5-5-0-0-0-|
|-5--5-5---5--5-5---|-5--5-5---5--5-5-0-0-0-|
|-------------------|-----------------------|


    (A)
  S S S S S S S S S E S +Q     S S S S S S S S S E S +Q
|----------------------------|----------------------------|
|----------------------------|----------------------------|
|---3-2-0-3-2-0-0-5-3-0-(0)--|---3-2-0-3-2-0-0-5-3-0-(0)--|
|---3-2-0-3-2-0-0-5-3-0-(0)--|---3-2-0-3-2-0-0-5-3-0-(0)--|
|----------------------------|----------------------------|
|----------------------------|----------------------------|


                              9/8
  S S S S S S S S S E S +Q     S S S S S S S S S E S +S  E. E
|----------------------------|----------------------------------||
|----------------------------|---------------------------------o||
|---3-2-0-3-2-0-0-5-3-0-(0)--|---3-2-0-3-2-0-0-5-3-0-(0)--------||
|---3-2-0-3-2-0-0-5-3-0-(0)--|---3-2-0-3-2-0-0-5-3-0-(0)--------||
|----------------------------|---------------------------------o||
|----------------------------|----------------------------------||


  D7   D13 D7   D13   D7   D13 D7   D13
 4/4
  E. S E E E. S E E   E. S E E E. S E E
|-8--8-7---8--8-7---|-8--8-7---8--8-7---|
|-8--8-7---8--8-7---|-8--8-7---8--8-7---|
|-5--5-5---5--5-5---|-5--5-5---5--5-5---|
|-5--5-5---5--5-5---|-5--5-5---5--5-5---|
|-5--5-5---5--5-5---|-5--5-5---5--5-5---|
|-------------------|-------------------|


  C7   C13 C7   C13   C7   C13 C7   C13
  E. S E E E. S E E   E. S E E E. S E E
|-6--6-5---6--6-5---|-6--6-5---6--6-5----|
|-6--6-5---6--6-5---|-6--6-5---6--6-5----|
|-3--3-3---3--3-3---|-3--3-3---3--3-3----|
|-3--3-3---3--3-3---|-3--3-3---3--3-3----|
|-3--3-3---3--3-3---|-3--3-3---3--3-3----|
|-------------------|--------------------|


    (A)
  S S S S S S S S S E S +Q     S S S S S S S S S E S +Q
|----------------------------|----------------------------|
|----------------------------|----------------------------|
|---3-2-0-3-2-0-0-5-3-0-(0)--|---3-2-0-3-2-0-0-5-3-0-(0)--|
|---3-2-0-3-2-0-0-5-3-0-(0)--|---3-2-0-3-2-0-0-5-3-0-(0)--|
|----------------------------|----------------------------|
|----------------------------|----------------------------|


  S S S S S S S S S E S +Q     S S S S S S S S S E S +Q
|----------------------------|------------------------------|
|----------------------------|------------------------------|
|---3-2-0-3-2-0-0-5-3-0-(0)--|---3-2-0-3-2-0-0-5-3-0-(0)----|
|---3-2-0-3-2-0-0-5-3-0-(0)--|---3-2-0-3-2-0-0-5-3-0-(0)----|
|----------------------------|------------------------------|
|----------------------------|------------------------------|


 First Guitar Solo
  E S S a S S S S S S a S S +S  S S S   S S S S a S S S S S S a S S S a  E.a
|-------------------------------------|---------------------------------------|
|-------------------------------------|---------------------------------------|
|---3-0-2s3-0-0-0-3s0-----0-(0)-0-0-0-|-0-0-3s0-----0-0-0-3s0-----0-0-7s12s3--|
|---3-0-2s3-------3s0-2s3-0-(0)-------|-----3s0-2s3-------3s0-2s3-0-0-7s12s3--|
|-------------------------------------|---------------------------------------|
|-------------------------------------|---------------------------------------|


  S S S S S S S S S a e S +S   S  E    +S  S S S S S S S a S S a S S +S  E.
|-----------------------------------|---------------------------------------|
|-----------------------------------|---------------------------------------|
|---0-3-0-3-0-0-0-3-2s3-0-(0)-12s10-|-(10)-0-3-0---0-0-0-2s3-0-2s3-0-(0)-0--|
|-----3-0-3-------------------------|--------3-0-3-----------------0-(0)-0--|
|-----------------------------------|---------------------------------------|
|-----------------------------------|---------------------------------------|


  S S S S +E  S S S E. S S E   S S S S +E  S S S E. S S E
|----------------------------|----------------------------|
|----------------------------|----------------------------|
|-3s2-0s5-(5)-3s2-0s7--3s2-0-|-3s2-0s5-(5)-3s2-0s7--3s2-0-|
|----------------------------|----------------------------|
|----------------------------|----------------------------|
|----------------------------|----------------------------|


  S S S S S S S  S S S  S S  S  S S  S a
|----------------------------------------|
|---------------------------12-12---12s5-|
|-6-7-0-6-7-0-9-10-0-9-10-0-12-12-0-12s5-|
|----------------------------------------|
|----------------------------------------|
|----------------------------------------|


  S S S S S S S  a  S  +S  S S S S S S S
|----------------------------------------|
|---------------10s12-(12)---------------|
|---0-0-0-3s2-0-10s12-(12)-0-0-0-3s2-0-0-|
|--------------------------------3s2-0-0-|
|----------------------------------------|
|----------------------------------------|


  S a  E S  a  E  S  a  S  +S   S  S  S  S  S  S  S
|----------------12------------12-11-------------15-|
|----------11s12----11s12-(12)-------12-15-15-15----|
|-0-7S12-0-11s12----11s12-(12)-------------15-------|
|-0-7S12-0------------------------------------------|
|---------------------------------------------------|
|---------------------------------------------------|


   S  S  S  S  S  S  S  S  S  S  S  S  S  S  S S
|-------15-------15-------12-------12-------12----|
|----15----15-15----11-12----11-12----11-12----3--|
|-15-------15-------------------------------------|
|-------------------------------------------------|
|-------------------------------------------------|
|-------------------------------------------------|


  S S S S S S S S S S S S S S S S   S S S S S S S S S S S S S S S S
|---5-----8-----8-----8-----8-----|-5-5-3-3-------------------------|
|-5---4-5-8-7-8-8-7-8---7-8---4-5-|---5-3-3-------------------------|
|---------------------------------|---------3-3-0-3s2-0-3-2-0-0-0-0-|
|---------------------------------|---------------3s2-0-3-2-0-0-0-0-|
|---------------------------------|---------------------------------|
|---------------------------------|---------------------------------|


  S S a S S S S S S a S S a S S +E  S S   E a S S +S  S S S S S S S +E  S S
|---------------------------------------|------------------------------------|
|---------------------------------------|------------------------------------|
|-0-0-2s3-0-0-0-0-0-2s3-0-2s3-0-(0)-0-0-|-0-2s3-0-(0)-0-0-0-3s2-0-5-(5)-5-0--|
|-0-0-2s3-0-0-----------------0-(0)-----|-0-2s3-0-(0)-------3s2-0-5-(5)-5-0--|
|---------------------------------------|------------------------------------|
|---------------------------------------|------------------------------------|


  E a S S S S S S S E. +S  S S S   S S S S S S S S S S S S S S S S
|------------------------------2-|-3---2-3-------2-3---2-3----------|
|------------------------------2-|-3---2-3--------------------------|
|-0-2s3-0-0-0-3-0-0-0--(0)-0-0---|---0-----0-0-0-----0-----0-0-0-0--|
|-0-2s3-0-0-0-3-0-0-0--(0)-------|----------------------------------|
|--------------------------------|----------------------------------|
|--------------------------------|----------------------------------|


  a  S  S  S  S  S  S  S  S  S  S  S  S  S  S  S  S
|------------12----12----12----12----12----12----12-|
|-7s12-12-12----12----12----12----12----12----12-12-|
|-7s12----------12----12----12----12----12----12----|
|---------------------------------------------------|
|---------------------------------------------------|
|---------------------------------------------------|


 9/8
   S  S  S  S  S  S  S  S  S  S  S  S  S  S  E  a E
|-12-15-15-15----15-15-15----15-15-------15-15s10----|
|-------------15----------15-------15-15----15s10----|
|----------------------------------------------------|
|----------------------------------------------------|
|----------------------------------------------------|
|----------------------------------------------------|


   Verse 4
    D7   D13 D7   D13   D7   D13 D7   D13
   4/4
    E. S E E E. S E E   E. S E E E. S E E
||--8--8-7---8--8-7---|-8--8-7---8--8-7---|
||o-8--8-7---8--8-7---|-8--8-7---8--8-7---|
||--5--5-5---5--5-5---|-5--5-5---5--5-5---|
||--5--5-5---5--5-5---|-5--5-5---5--5-5---|
||o-5--5-5---5--5-5---|-5--5-5---5--5-5---|
||--------------------|-------------------|


  D7   D13 D7   D13   D7   D13 D7   D13
  E. S E E E. S E E   E. S E E E. S S S S S
|-8--8-7---8--8-7---|-8--8-7---8--8-7-------|
|-8--8-7---8--8-7---|-8--8-7---8--8-7-0-0-0-|
|-5--5-5---5--5-5---|-5--5-5---5--5-5-0-0-0-|
|-5--5-5---5--5-5---|-5--5-5---5--5-5-0-0-0-|
|-5--5-5---5--5-5---|-5--5-5---5--5-5-0-0-0-|
|-------------------|-----------------------|


    (A)
  S S S S S S S S S E S +Q     S S S S S S S S S E S +Q
|----------------------------|----------------------------|
|----------------------------|----------------------------|
|---3-2-0-3-2-0-0-5-3-0-(0)--|---3-2-0-3-2-0-0-5-3-0-(0)--|
|---3-2-0-3-2-0-0-5-3-0-(0)--|---3-2-0-3-2-0-0-5-3-0-(0)--|
|----------------------------|----------------------------|
|----------------------------|----------------------------|


                              9/8
  S S S S S S S S S E S +Q     S S S S S S S S S E S +S  E. E
|----------------------------|----------------------------------||
|----------------------------|---------------------------------o||
|---3-2-0-3-2-0-0-5-3-0-(0)--|---3-2-0-3-2-0-0-5-3-0-(0)--------||
|---3-2-0-3-2-0-0-5-3-0-(0)--|---3-2-0-3-2-0-0-5-3-0-(0)--------||
|----------------------------|---------------------------------o||
|----------------------------|----------------------------------||


  D7   D13 D7   D13   D7   D13 D7   D13
 4/4
  E. S E E E. S E E   E. S E E E. S E E
|-8--8-7---8--8-7---|-8--8-7---8--8-7---|
|-8--8-7---8--8-7---|-8--8-7---8--8-7---|
|-5--5-5---5--5-5---|-5--5-5---5--5-5---|
|-5--5-5---5--5-5---|-5--5-5---5--5-5---|
|-5--5-5---5--5-5---|-5--5-5---5--5-5---|
|-------------------|-------------------|


  C7   C13 C7   C13   C7   C13 C7   C13
  E. S E E E. S E E   E. S E E E. S E E
|-6--6-5---6--6-5---|-6--6-5---6--6-5----|
|-6--6-5---6--6-5---|-6--6-5---6--6-5----|
|-3--3-3---3--3-3---|-3--3-3---3--3-3----|
|-3--3-3---3--3-3---|-3--3-3---3--3-3----|
|-3--3-3---3--3-3---|-3--3-3---3--3-3----|
|-------------------|--------------------|


    (A)
  S S S S S S S S S E S +Q     S S S S S S S S S E S +Q
|----------------------------|----------------------------|
|----------------------------|----------------------------|
|---3-2-0-3-2-0-0-5-3-0-(0)--|---3-2-0-3-2-0-0-5-3-0-(0)--|
|---3-2-0-3-2-0-0-5-3-0-(0)--|---3-2-0-3-2-0-0-5-3-0-(0)--|
|----------------------------|----------------------------|
|----------------------------|----------------------------|


  S S S S S S S S S E S +Q     S S S S S S S S S E S +Q
|----------------------------|------------------------------|
|----------------------------|------------------------------|
|---3-2-0-3-2-0-0-5-3-0-(0)--|---3-2-0-3-2-0-0-5-3-0-(0)----|
|---3-2-0-3-2-0-0-5-3-0-(0)--|---3-2-0-3-2-0-0-5-3-0-(0)----|
|----------------------------|------------------------------|
|----------------------------|------------------------------|


 Second Guitar Solo
  S S a S S a S S S S a S S a S S +S  S S S
|-------------------------------------------|
|-------------------------------------------|
|-0-0-2s3-0-2s3-0-0-0-2s3-0-----0-(0)-0-0-0-|
|-0-0-2s3-0-2s3-0-0-0-2s3-0-2s3-0-(0)-0-0-0-|
|-------------------------------------------|
|-------------------------------------------|


  S S a S S a S S S S a S S a S S S  E.
|---------------------------------------|
|---------------------------------------|
|-0-0-2s3-0-----0-0-0-2s3-0-----0-0-12s=|
|-0-0-2s3-0-2s3-0-0-0-2s3-0-2s3-0-0-12s=|
|---------------------------------------|
|---------------------------------------|


  S S a S S a S S S S a S S a S S +S   E.
|----------------------------------------|
|----------------------------------------|
|-3-0-2s3-0-2s3-0-0-0-----------0-(0)-12s|
|-3-0-2s3-0-2s3-0-0-0-2s3-0-2s3-0-(0)-12s|
|----------------------------------------|
|----------------------------------------|


  S S a S S a S S S S a S S a S S +S  E.
|----------------------------------------|
|----------------------------------------|
|-3-0-2s3-0-2s3-0-0-0-----------0-(0)-0--|
|-3-0-2s3-0-2s3-0-0-0-2s3-0-2s3-0-(0)-0--|
|----------------------------------------|
|----------------------------------------|


          |---5---|
  S S S S S S S S S S S S S S S S S   S S S S S S S S S S S S S S S S
|-----------5s3-----5s3-----5s3-----|-5s3------------------------------|
|-----------------------------------|----------------------------------|
|-2-3-2-3s2-------------------------|---------------------3-0-0-0-0-0--|
|-2-3-2-3s2-----5s3-----5s3-----5s3-|-----5s3-------0-3-0--------------|
|-----------------------------------|-----------0-3--------------------|
|-----------------------------------|----------------------------------|


  a S S S a S +E. S a E E a S S E
|---------------------------------|
|---------------------------------|
|-2s3-2-0-3s5-(5)-0-3s5-0-2s3-2-0-|
|-----------------------0-2s3-2-0-|
|---------------------------------|
|---------------------------------|


  S S E  a  S  S  S  S  S  S  S  S  S  E  a S
|----------------12-------15-------12---------|
|-8-8-8-10s12-12----14-15----11-12------------|
|-------------------------------------12s10-0-|
|---------------------------------------------|
|---------------------------------------------|
|---------------------------------------------|


  S S S S +E  S S S S E S S E   S S S a S +E  S S S S S a  S  +S   S  S  S  a
|-----------------------------|-----------------------------------------------|
|-----------------------------|-----------------------------------------------|
|-6-7-0-5-(5)-5-0-3s2-0-------|-6-7-0-3s5-(5)-5-0-3s2-0-7s12-(12)-12-12-12s10-|
|-----------------3s2-0-------|-------------------------7s12-(12)-12-12-------|
|-----------------------3s2-0-|-----------------------------------------------|
|-----------------------------|-----------------------------------------------|


  S  S  a S  a  S a S S a S S S a S S S a S S E
|-----------------------------------------------|
|-----------------------------------------------|
|---12s10---10s12s7---0-2s3-2-0-3s5-0-0-2s3-2-0-|
|-----------------------------------------------|
|-----------------------------------------------|
|-----------------------------------------------|


  a S S S S a S S S S S S S S E E
|----------------------------------|
|----------------------------------|
|---------0-2s3-0-0-0-6-7-3-2-0-0--|
|----------------------------------|
|-2s3-0-3--------------------------|
|----------------------------------|


  S  a  E  a  S  +S   a  E  a  S  +S   E S  a  S  S S  S
|--------------------------------------------------------|
|-----------------------------------------------------11-|
|-0-10s12-10s12-(12)-10s12-12s10-(10)-10-0-10s12-10-0-11-|
|--------------------------------------------------------|
|--------------------------------------------------------|
|--------------------------------------------------------|


   S  S  S  S  S  S  S S S S S S S S S S
|----12-------12-------------------------|
|-12----11-12----11-12-3-3-2-0-0---------|
|-12-----------------------------3-2-0-0-|
|----------------------------------------|
|----------------------------------------|
|----------------------------------------|


   S  S  S  S  S  S  S  S  S  S  S  S  S  S  S  S
|-------12----12----12----12----12----12----12----|
|-10s12-12-12-12-12-12-12-12-12-12-12-12-12-12-12-|
|-10s12----12----12----12----12----12----12----12-|
|-10s12-------------------------------------------|
|-------------------------------------------------|
|-------------------------------------------------|


   S  S  S  S  S  S  S  S  S  S  S  S  S  S  S  a S
|----15-15-15-15-15-15-15----------15-15-15-15s10----|
|-12-15-15----15-15-15-15-15-15-15----15-15-15s10-0--|
|-12-15-15----15-15-15-15-15-15-15----15-15-15s10----|
|----------------------------------------------------|
|----------------------------------------------------|
|----------------------------------------------------|


  S S S S S S S S S S S S Q    S S S S S S S S S S S S Q
|----------------------------|----------------------------|
|----------------------------|----------------------------|
|---3-2-0-3-2-0-3-2-0-3-0----|---3-2-0-3-2-0-3-2-0-3-0----|
|---3-2-0-3-2-0-3-2-0-3-0----|---3-2-0-3-2-0-3-2-0-3-0----|
|----------------------------|----------------------------|
|----------------------------|----------------------------|


  S S S S S S S S S S S S Q    S S S S S S S S S S S S Q
|----------------------------|----------------------------|
|----------------------------|----------------------------|
|---3-2-0-3-2-0-3-2-0-3-0----|---3-2-0-3-2-0-3-2-0-3-0----|
|---3-2-0-3-2-0-3-2-0-3-0----|---3-2-0-3-2-0-3-2-0-3-0----|
|----------------------------|----------------------------|
|----------------------------|----------------------------|


 Verse 5
  A5C5  D5         (A)                A5C5  D5          (A)
  E E E E +H       E E E E +H         E E E E +Q   Q    E Q  E +E  E  Q  a
|----------------|------------------|-----------------|---------------------|
|----------------|-------------0----|-----------------|---------------------|
|-0-3---5-(5)----|-5-5-3-0-(0)------|-0-3---5-(5)--5--|-5-3--0-(0)-3s12s=3--|
|-0-3---5-(5)----|-5-5-3-0-(0)------|-0-3---5-(5)--5--|-5-3--0-(0)-3s12s=3--|
|----------------|------------------|-----------------|---------------------|
|----------------|------------------|-----------------|---------------------|
                   H        E  Q.


  A5C5  D5           (A)
  E E E E +E  E Q    E Q  E +E  E  Q  a
|------------------|--------------------|
|------------------|--------------------|
|-0-3---5-(5)-5-5--|-5-3--0-(0)-3s12s=3-|
|-0-3---5-(5)-5-5--|-5-3--0-(0)-3s12s=3-|
|------------------|--------------------|
|------------------|--------------------|


  A5C5  D5            (A)
  E E E E +E  E E E   E Q  E +E  E  Q  a
|-------------------|--------------------|
|-------------------|--------------------|
|-0-3---5-(5)-5-5-5-|-5-3--0-(0)-3s12s=3-|
|-0-3---5-(5)-5-5-5-|-5-3--0-(0)-3s12s=3-|
|-------------------|--------------------|
|-------------------|--------------------|


  A5C5  D5          (A)                  A5C5  D5         (A)
  E E E E +Q   Q    E Q  E +E  E  Q  a   E E E E +H       E Q  E +E  E  Q  a
|-----------------|--------------------|----------------|--------------------|
|-----------------|--------------------|----------------|--------------------|
|-0-3---5-(5)--5--|-5-3--0-(0)-3s12s=3-|-0-3---5-(5)----|-5-3--0-(0)-3s12s=3-|
|-0-3---5-(5)--5--|-5-3--0-(0)-3s12s=3-|-0-3---5-(5)----|-5-3--0-(0)-3s12s=3-|
|-----------------|--------------------|----------------|--------------------|
|-----------------|--------------------|----------------|--------------------|


  A5C5  D5           (A)                  A5C5  D5          (A)
  E E E E +Q   E E   E Q  E +E  E  Q  a   E E E E +Q.   E   E E E E E E E E
|------------------|--------------------|-----------------|------------------|
|------------------|--------------------|-----------------|------------------|
|-0-3---5-(5)--5-5-|-5-3--0-(0)-3s12s=3-|-0-3---5-(5)---3-|-5-3-5-3-5-3-0-0--|
|-0-3---5-(5)--5-5-|-5-3--0-(0)-3s12s=3-|-0-3---5-(5)---3-|-5-3-5-3-5-3-0-0--|
|------------------|--------------------|-----------------|------------------|
|------------------|--------------------|-----------------|------------------|


  a E E a E E E E E a E   +E  E a E E E E E a E
|-----------------------|-----------------------|
|-----------------------|-----------------------|
|-3s7-0-3s5-0-3s0-0-3s7-|-(7)-0-3s5-0-3s0-0-3s7-|
|-------------3s0-------|-------------3s0-------|
|-----------------------|-----------------------|
|-----------------------|-----------------------|


  +E  E a E E E E E a E   +E  E a E E E E E a  E
|-----------------------|------------------------|
|-----------------------|------------------------|
|-(7)-0-3s5-0-3s0-0-3s7-|-(7)-0-3s5-0-3s0-0-3s12-|
|-------------3s0-------|-------------3s0--------|
|-----------------------|------------------------|
|-----------------------|------------------------|


   +E  E a E E E E E a  E    +E  E a E E E E E a  E
|-------------------------|-------------------------|
|-------------------------|-------------------------|
|-(12)-0-3s5-0-3s0-0-3s12-|-(12)-0-3s5-0-3s0-0-3s12-|
|--------------3s0--------|--------------3s0--------|
|-------------------------|-------------------------|
|-------------------------|-------------------------|


                                               D5
   +E  E a E E E E E a  E    +E  E a E E E E E E
|-------------------------|------------------------|
|-------------------------|------------------------|
|-(12)-0-3s5-0-3s0-0-3s12-|-(12)-0-3s5-0-3s0-0-5---|
|--------------3s0--------|--------------3s0---5---|
|-------------------------|--------------------5---|
|-------------------------|------------------------|


 Outro
  +W           +W           +W           +W           +W           +W
|------------|------------|------------|------------|------------|--------|
|------------|------------|------------|------------|------------|--------|
|-(5)--------|-(5)--------|-(5)--------|-(5)--------|-(5)--------|-(5)----|
|-(5)--------|-(5)--------|-(5)--------|-(5)--------|-(5)--------|-(5)----|
|-(5)--------|-(5)--------|-(5)--------|-(5)--------|-(5)--------|-(5)----|
|------------|------------|------------|------------|------------|--------|


            (A)
  H    Q  E E   E E E E Q.   E   E E E a  E  +Q.   E
|-------------|----------------|---------------------|
|-------------|----------------|-------3s12-(12)-----|
|-----------3s|=2-0-2s3s5----0-|-3s2-0-3s12-(12)---3s|
|-----------3s|=2-0-2s3s5----0-|-3s2-0-3s12-(12)---3s|
|-------------|----------------|---------------------|
|-------------|----------------|---------------------|


  E E E E Q.   E   Q.  E +Q.   E
|----------------|------------------|
|----------------|------------------|
|-2-0-2s3s5----0-|-3s==0-(0)---3s===|
|-2-0-2s3s5----0-|-3s==0-(0)---3s===|
|----------------|------------------|
|----------------|------------------|


  E E E E Q.   E   E E E a  E  +Q.   E   E E E E Q.   E   Q.  E +Q.   E
|----------------|---------------------|----------------|-----------------|
|----------------|-------3s12-(12)-----|----------------|-----------------|
|-2-0-2s3s5----0-|-3s2-0-3s12-(12)---3s|=2-0-2s3s5----0-|-3s==0-(0)---3s==|
|-2-0-2s3s5----0-|-3s2-0-3s12-(12)---3s|=2-0-2s3s5----0-|-3s==0-(0)---3s==|
|----------------|---------------------|----------------|-----------------|
|----------------|---------------------|----------------|-----------------|


  E E E E Q.   E   E E E a  E  +Q.   E   E E E E Q.   E   E E E a  E  +Q.   E
|----------------|---------------------|----------------|----------------------|
|----------------|-------3s12-(12)-----|----------------|-------3s12-(12)------|
|-2-0-2s3s5----0-|-3s2-0-3s12-(12)---3s|=2-0-2s3s5----0-|-3s2-0-3s12-(12)---3s=|
|-2-0-2s3s5----0-|-3s2-0-3s12-(12)---3s|=2-0-2s3s5----0-|-3s2-0-3s12-(12)---3s=|
|----------------|---------------------|----------------|----------------------|
|----------------|---------------------|----------------|----------------------|


  E E E E Q.   E   E E E a  E  +Q.   E
|----------------|---------------------|
|----------------|-------3s12-(12)-----|
|-2-0-2s3s5----0-|-3s2-0-3s12-(12)---3s|
|-2-0-2s3s5----0-|-3s2-0-3s12-(12)---3s|
|----------------|---------------------|
|----------------|---------------------|


  E E E E Q.   E   Q.  E +H       +W
|----------------|--------------|--------|
|----------------|--------------|--------|
|-2-0-2s3s5----0-|-3s==0-(0)----|-(0)----|
|-2-0-2s3s5----0-|-3s==0-(0)----|-(0)----|
|----------------|--------------|--------|
|----------------|--------------|--------|


  a E E a E E E E E a E   +E  E a E E E E E a E
|-----------------------|-----------------------|
|-----------------------|-----------------------|
|-3s7-0-3s5-0-3s0-0-3s7-|-(7)-0-3s5-0-3s0-0-3s7-|
|-------------3s0-------|-------------3s0-------|
|-----------------------|-----------------------|
|-----------------------|-----------------------|


  +E  E a E E E E E a  E    +E  E a E E E E E a  E
|------------------------|-------------------------|
|------------------------|-------------------------|
|-(7)-0-3s5-0-3s0-0-3s12-|-(12)-0-3s5-0-3s0-0-3s12-|
|-------------3s0--------|--------------3s0---3s12-|
|------------------------|-------------------------|
|------------------------|-------------------------|


   +E  E a E E E E E a  E    +E  E a E E E E E a E
|-------------------------|------------------------|
|-------------------------|------------------------|
|-(12)-0-3s5-0-3s0-0-3s12-|-(12)-0-3s5-0-3s0-0-3s7-|
|-(12)---------3s0---3s12-|-(12)---------3s0-------|
|-------------------------|------------------------|
|-------------------------|------------------------|


  +E  E a E E E Q  a E   +E  E a E E E Q  a  E
|----------------------|------------------------|
|-------------3-0------|-------------3-0--------|
|-(7)-0-3s5-0-3-0--3s7-|-(7)-0-3s5-0-3-0--3s12--|
|----------------------|------------------------|
|----------------------|------------------------|
|----------------------|------------------------|


   +E  E a E E E Q  a  E    +E  E a E E E Q  a E
|------------------------|-----------------------|
|--------------3-0-------|--------------3-0------|
|-(12)-0-3s5-0-3-0--3s12-|-(12)-0-3s5-0-3-0--3s7-|
|------------------------|-----------------------|
|------------------------|-----------------------|
|------------------------|-----------------------|


  +E  E a E E E Q  a  E    +E  E a E E E Q  a  E
|-----------------------|-------------------------|
|-----------------------|-------------------------|
|-(7)-0-3s5-0-3-0--3s12-|-(12)-0-3s5-0-3-0--3s12--|
|-------------3-0-------|--------------3-0--------|
|-----------------------|-------------------------|
|-----------------------|-------------------------|


   +E  E a E E E Q  a  E    +E  E a E E E Q  a E
|------------------------|-----------------------|
|------------------------|-----------------------|
|-(12)-0-3s5-0-3-0--3s12-|-(12)-0-3s5-0-3-0--3s7-|
|------0-------3-0-------|------0-------3-0------|
|------------------------|-----------------------|
|------------------------|-----------------------|


  +E  E a E S S S S S S E a  E    +E  E a E S S S S S S E a  E
|------------------------------|--------------------------------|
|------------------------------|--------------------------------|
|-(7)-0-3s5-0---0-3-0---0-3s12-|-(12)-0-3s5-0---0-3-0---0-3s12--|
|-------------3-------3--------|--------------3-------3---------|
|------------------------------|--------------------------------|
|------------------------------|--------------------------------|


   +E  E a E S S S S S S E a  E    +E  E a E S S S S S S E a  E
|-------------------------------|-------------------------------|
|-------------------------------|-------------------------------|
|-(12)-0-3s5-0---0-3-0---0-3s12-|-(12)-0-3s5-0---0-3-0---0-3s12-|
|--------------3-------3--------|--------------3-------3--------|
|-------------------------------|-------------------------------|
|-------------------------------|-------------------------------|


   +E  E a E S S S S S S E a  E    +E  E a E S S S S S S E a  E
|-------------------------------|----------------------------------|
|-------------------------------|----------------------------------|
|-(12)-0-3s5-0---0-3-0---0-3s12-|-(12)-0-3s5-0---0-3-0---0-3s12----|
|--------------3-------3--------|--------------3-------3-----------|
|-------------------------------|----------------------------------|
|-------------------------------|----------------------------------|


   +E  E a E S S S S S S E a  E    +E  E a E S S S S S S E a  E
|-------------------------------|-------------------------------|
|-------------------------------|-------------------------------|
|-(12)-0-3s5-0---0-3-0---0-3s12-|-(12)-0-3s5-0---0-3-0---0-3s12-|
|--------------3-------3--------|--------------3-------3--------|
|-------------------------------|-------------------------------|
|-------------------------------|-------------------------------|


   +E  E a E S S S S S S E a E   +E  E a E S S S S S S E a E
|------------------------------|--------------------------------|
|------------------------------|--------------------------------|
|-(12)-0-3s5-0---0-3-0---0-3s7-|-(7)-0-3s5-0---0-3-0---0-3s7----|
|--------------3-------3-------|-------------3-------3----------|
|------------------------------|--------------------------------|
|------------------------------|--------------------------------|


  +E  E a E S S S S S S E  S  S    S  S  S  S  S  S S S S S S S E  S  S
|-------------------------------|---------------------------------------|
|-------------------------------|-12-10s12-12-10-12---------------------|
|-(7)-0-3s5-0---0-3-0---0-10s12-|-12-10s12-12-10-12-0---0-3-0---0-10s12-|
|-------------3-------3---------|---------------------3-------3---------|
|-------------------------------|---------------------------------------|
|-------------------------------|---------------------------------------|


   S  S  S  S  S  S S S S S S S E  S  S
|---------------------------------------|
|-12-10s12-12-10-12---------------------|
|-12-10s12-12-10-12-0---0-3-0---0-10s12-|
|---------------------3-------3---------|
|---------------------------------------|
|---------------------------------------|


   S  S  S  S  S  S S S S S S S E  S  S
|---------------------------------12s15--|
|-12-10s12-12-10-12---------------12s15--|
|-12-10s12-12-10-12-0---0-3-0---0-12s15--|
|---------------------3-------3----------|
|----------------------------------------|
|----------------------------------------|


     S  S  S  S  E S S S S S S E  S  S    S  S  S  S  E S S S S S S E  S  S  3x
||--15-15-15-15-15---------------12s15-|-15-15-15-15-15---------------12s15--||
||o-15-15-15-15-15---------------12s15-|-15-15-15-15-15---------------12s15-o||
||--15-15-15-15-15-0---0-3-0---0-12s15-|-15-15-15-15-15-0---0-3-0---0-12s15--||
||-------------------3-------3---------|------------------3-------3----------||
||o------------------------------------|------------------------------------o||
||-------------------------------------|-------------------------------------||


   S  S  S  S  E S S S S S S E a  E
|-15-15-15-15-15--------------------|
|-15-15-15-15-15--------------------|
|-15-15-15-15-15-0---0-3-0---0-7s12-|
|------------------3-------3--------|
|-----------------------------------|
|-----------------------------------|


   +E  E a E E E E E a  E    +E  E a E E E E E a  E
|-------------------------|--------------------------|
|-------------------------|--------------------------|
|-(12)-0-3s5-0-3-0-0-7s12-|-(12)-0-3s5-0-3-0-0-7s12--|
|--------------3-0--------|--------------3-0---------|
|-------------------------|--------------------------|
|-------------------------|--------------------------|


   +E  E a E E E E E a E   +E  E a E E E E E E   +W
|------------------------|---------------------|--------*|
|------------------------|---------------------|--------*|
|-(12)-0-3s5-0-3-0-0-3s7-|-(7)-0-3s5-0-3-0-0-5-|-(5)----*|
|--------------3-0-------|-------------3-0---5-|-(5)----*|
|------------------------|-------------------5-|-(5)----*|
|------------------------|---------------------|--------*|





                                     KASHMIR
                           As recorded by Led Zeppelin
                     (From the 1975 Album PHYSICAL GRAFFITI)

Words and Music by Jimmy Page, John Paul Jones and John Bonham
Transcribed by rocktabber
         Dsus4                  D                   F/C                 Am/C
    x x 12 12 0 12       x x 12 11 0 12       x x 10 10 0 10        x x 10 9 0 10

         D5/A                   A                  Am7/G                Gadd9
      x x 7 7 0 7          x x 7 6 0 7          x x 5 5 0 5          x x 5 4 0 5

        Fadd11                  F                   G5                   A5
      x x 3 3 0 3          x x 3 2 0 3          5 5 5 7 5 5          7 7 7 9 7 7

Gtr I (D A D G A D) - 'Electric Guitar 1'
Gtr II (D A D G A D) - 'Electric Guitar 2'
Gtr III (E A D G B E) - 'Brass'
Gtr IV (E A D G B E) - 'High Strings'

 Intro
  Moderately Q=84
    N.C.(D5)       (D+)              (D6)                 (D7)
 4/4
  Gtr I
  S S E E S S E E  S S E   E S S E E  S  S E E S S   E E  S S E E S S E E
|------------------------|-------------------------|-----------------------|
|------------------------|-------------------------|-----------------------|
|-2-2-2---2-2-2----3-3-3-|---3-3-3----4--4-4---4-4-|-4----5-5-5---5-5-5----|
|-0-0-0---0-0-0----0-0-0-|---0-0-0----0--0-0---0-0-|-0----0-0-0---0-0-0----|
|-5-5-5---5-5-5----5-5-5-|---5-5-5----5--5-5---5-5-|-5----5-5-5---5-5-5----|
|---------------0--------|---------0-(0)-----------|---0----------------0--|
  H           E Q.         Q     E E +Q      Q       E Q.       Q     E E


  (D)       (D5)     (D+)              (D6)                 (D7)
   S  S E E S S E E  S S E   E S S E E  S  S E E S S   E E  S S E E S S E E
|--------------------------|-------------------------|----------------------||
|--------------------------|-------------------------|----------------------||
|--7--7-7---2-2-2----3-3-3-|---3-3-3----4--4-4---4-4-|-4----5-5-5---5-5-5---||
|--0--0-0---0-0-0----0-0-0-|---0-0-0----0--0-0---0-0-|-0----0-0-0---0-0-0---||
|--5--5-5---5-5-5----5-5-5-|---5-5-5----5--5-5---5-5-|-5----5-5-5---5-5-5---||
|-(0)-------------0--------|---------0-(0)-----------|---0----------------0-||
  +Q      Q     E Q.         Q     E E +Q      Q       E Q.       Q     E E


   First Verse
    (D)       (D5)     (D+)
     S  S E E S S E E  S S E
||---------------------------|
||o--------------------------|
||---7--7-7---2-2-2----3-3-3-|
||---0--0-0---0-0-0----0-0-0-|
||o--5--5-5---5-5-5----5-5-5-|
||--(0)-------------0--------|
    +Q      Q     E Q.


            (D6)                 (D7)
  E S S E E  S  S E E S S   E E  S S E E S S E E   4x
|-------------------------|------------------------||
|-------------------------|-----------------------o||
|---3-3-3----4--4-4---4-4-|-4----5-5-5---5-5-5-----||
|---0-0-0----0--0-0---0-0-|-0----0-0-0---0-0-0-----||
|---5-5-5----5--5-5---5-5-|-5----5-5-5---5-5-5----o||
|---------0-(0)-----------|---0----------------0---||
  Q     E E +Q      Q       E Q.       Q     E E


 Bridge
  Dsus4   D       F/C       Am/C  D5/AA   Am7/GGadd9 Fadd11F
  Gtr II
   E.      S  +E   E    +S  E.    E   E   E.   S +E  E +S  E.   S S E
   |       |   |   |     |  |     |   |   |    |  |  |  |  |    | | |
   /       /   /   /     /  /     /   /   /    /  /  /  /  /    o o o

  Gtr I
   S  S E      E   S S   E     E  S S E   E  S S  E  E  S  S  E E   S S
|---------------------------------------|-------------------------------|
|---------------------------------------|-------------------------------|
|--7--7-7----------2-2---2--------3-3-3-|----3-3--3-----4--4--4-----4-4-|
|--0--0-0----------0-0---0--------0-0-0-|----0-0--0-----0--0--0-----0-0-|
|--5--5-5----------5-5---5--------5-5-5-|----5-5--5-----5--5--5-----5-5-|
|-(0)--------------------------0--------|------------0-(0)--------------|
| +Q           Q         E     Q.         Q       E  E +Q       Q
|
| Gtr III
|  E.      S  +E   E    +S  E.    e   e   E.   S +E  E +S  E.   S S E
|-10------10-(10)--8----(8)-8-----5---5-|-3----3-(3)-1-(1)-1----1-0-----|
|-12------10-(10)-10---(10)-8-----------|-5----3-(3)-3-(3)-1--------3---|
|-12------11-(11)-10---(10)-9-----7---6-|-5----4-(4)-3-(3)-2------------|
|---------------------------------------|-----------------------3-2-0---|
|---------------------------------------|-------------------------------|
|---------------------------------------|-------------------------------|


  Dsus4  D         F/C     Am/C   D5AA  Am7/G   Gadd9 Fadd11  F
   E.     S  +E     E  +S  E.     E E    E.     S +E  E   +S  E.    S S E
   |      |   |     |   |  |      | |    |      |  |  |    |  |     | | |
   /      /   /     /   /  /      / /    /      /  /  /    /  /     o o o

   E  E       S  S  E   E     S S E E    S  S E    E  S S  E     E  S S E
|-------------------------------------|-----------------------------------|
|-------------------------------------|-----------------------------------|
|--4----------5--5--5---------5-5-5---|--7--7-7-------2-2--2--------3-3-3-|
|--0----------0--0--0---------0-0-0---|--0--0-0-------0-0--0--------0-0-0-|
|--5----------5--5--5---------5-5-5---|--5--5-5-------5-5--5--------5-5-5-|
|-----0-----------------------------0-|-(0)----------------------0--------|
|  E  Q.                Q         E E   +Q         Q       E     Q.
|
|  E.     S  +E     E  +S  E.     e e    E.     S +E  E   +S  E.    S S E
|-10-----10-(10)----8--(8)-8------5-5-|--3------3-(3)-1---(1)-1-----1-0---|
|-12-----10-(10)---10-(10)-8----------|--5------3-(3)-3---(3)-1---------3-|
|-12-----11-(11)---10-(10)-9------7-6-|--5------4-(4)-3---(3)-2-----------|
|-------------------------------------|-----------------------------3-2-0-|
|-------------------------------------|-----------------------------------|
|-------------------------------------|-----------------------------------|


                                                   Second & Fourth Verse
                                                 $
    N.C.(D+)(D6)                 (D7)               (D)       (D5)     (D+)
  E S S E E  S  S E E S S   E E  S S E E S S E E     S  S E E S S E E  S S E
|-------------------------|----------------------||--------------------------|
|-------------------------|----------------------||--------------------------|
|---3-3-3----4--4-4---4-4-|-4----5-5-5---5-5-5---||--7--7-7---2-2-2----3-3-3-|
|---0-0-0----0--0-0---0-0-|-0----0-0-0---0-0-0---||--0--0-0---0-0-0----0-0-0-|
|---5-5-5----5--5-5---5-5-|-5----5-5-5---5-5-5---||--5--5-5---5-5-5----5-5-5-|
|---------0-(0)-----------|---0----------------0-||-(0)-------------0--------|
  Q     E E +Q      Q       E Q.       Q     E E    +Q      Q     E Q.


              (D6)                 (D7)
    E S S E E  S  S E E S S   E E  S S E E    S  S  E    E
||--------------------------|---------------------------------|
||o-------------------------|---------------------------------|
||----3-3-3----4--4-4---4-4-|-4----5-5-5------5--5--5---------|
||----0-0-0----0--0-0---0-0-|-0----0-0-0------0--0--0---------|
||o---5-5-5----5--5-5---5-5-|-5----5-5-5------5--5--5---------|
||----------0-(0)-----------|---0------------------------0----|
|   Q     E E +Q      Q       E Q.       Q          E    E
|
|   Gtr III
|   W                         H          S  S S  S  S  S S  S
||--------------------------|---------------------------------|
||o-------------------------|---------------------------------|
||--------------------------|-----------------------4---------|
||--------------------------|---------------7-6--7-----7-6--7-|
||o-------------------------|---------------------------------|
||--------------------------|---------------------------------|
|
|   Gtr IV
|   W                         H          S  S S  S  S  S S  S
||--------------------------|---------------------------------|
||o-------------------------|--------------10-9-10-12-10-9-10-|
||--------------------------|---------------------------------|
||--------------------------|---------------------------------|
||o-------------------------|---------------------------------|
||--------------------------|---------------------------------|


  (D)       (D5)     (D+)
   S  S E E S S E E  S S E  3x
|---------------------------||
|--------------------------o||
|--7--7-7---2-2-2----3-3-3--||
|--0--0-0---0-0-0----0-0-0--||
|--5--5-5---5-5-5----5-5-5-o||
|-(0)-------------0---------||
| +Q      Q     E Q.
|
|  ~~~
|  W                        3x
|---------------------------||
|--------------------------o||
|---------------------------||
|--4------------------------||
|--------------------------o||
|---------------------------||
|
|  ~~~
|  W                        3x
|---------------------------||
|--------------------------o||
|-11------------------------||
|---------------------------||
|--------------------------o||
|---------------------------||


            (D6)                 (D7)
  Gtr II
  W                         W
  Gtr I
  E S S E E  S  S E E S S   E E  S S E E S S E E
|-------------------------|----------------------||
|-------------------------|----------------------||
|---3-3-3----4--4-4---4-4-|-4----5-5-5---5-5-5---||
|---0-0-0----0--0-0---0-0-|-0----0-0-0---0-0-0---||
|---5-5-5----5--5-5---5-5-|-5----5-5-5---5-5-5---||
|---------0-(0)-----------|---0----------------0-||
| Q     E E +Q      Q       E Q.       Q     E E
|
| W                         W
|-------------------------|----------------------||
|-------------------------|----------------------||
|-------------------------|----------------------||
|-------------------------|----------------------||
|-------------------------|----------------------||
|-------------------------|----------------------||
|
| W                         W
|-------------------------|----------------------||
|-------------------------|----------------------||
|-------------------------|----------------------||
|-------------------------|----------------------||
|-------------------------|----------------------||
|-------------------------|----------------------||


 Bridge
  Dsus4   D       F/C       Am/C  D5/A A
   E.      S  +E   E    +S  E.     E    E
   |       |   |   |     |  |      |    |
   /       /   /   /     /  /      /    /

   S  S E      E   S S   E     E   S S  E
|-----------------------------------------|
|-----------------------------------------|
|--7--7-7----------2-2---2---------3-3--3-|
|--0--0-0----------0-0---0---------0-0--0-|
|--5--5-5----------5-5---5---------5-5--5-|
|-(0)--------------------------0----------|
| +Q           Q         E     Q.
|
|  E.      S  +E   E    +S  E.     e    e
|-10------10-(10)--8----(8)-8------5----5-|
|-12------10-(10)-10---(10)-8-------------|
|-12------11-(11)-10---(10)-9------7----6-|
|-----------------------------------------|
|-----------------------------------------|
|-----------------------------------------|
|
|  E.      S  +E   E    +S  E.     e    e
|-10------10-(10)--8----(8)-8-------------|
|---------------------------------10---10-|
|-----------------------------------------|
|-----------------------------------------|
|-----------------------------------------|
|-----------------------------------------|


  Am7/GGadd9 Fadd11  F                 Dsus4  D         F/C     Am/C   D5/A
  E.   S +E   E  +S   E.    S S  E      E.     S  +E     E  +S  E.      E  E
  |    |  |   |   |   |     | |  |      |      |   |     |   |  |       |  |
  /    /  /   /   /   /     o o  o      /      /   /     /   /  /       /  /

  E  S S  E   E   S   S  E  E    S S    E  E       S  S  E   E     S S  E  E
|------------------------------------|---------------------------------------|
|------------------------------------|---------------------------------------|
|----3-3--3-------4---4--4-------4-4-|--4----------5--5--5---------5-5--5----|
|----0-0--0-------0---0--0-------0-0-|--0----------0--0--0---------0-0--0----|
|----5-5--5-------5---5--5-------5-5-|--5----------5--5--5---------5-5--5----|
|-------------0--(0)-----------------|-----0-------------------------------0-|
| Q       E   E  +Q         Q           E  Q.                Q          E  E
|
| E.   S +E   E  +S   E.    S S  E      E.     S  +E     E  +S  E.      e  e
|-3----3-(3)--1--(1)--1-----1-0------|-10-----10-(10)----8--(8)-8-------5--5-|
|-5----3-(3)--3--(3)--1----------3---|-12-----10-(10)---10-(10)-8------------|
|-5----4-(4)--3--(3)--2--------------|-12-----11-(11)---10-(10)-9-------7--6-|
|---------------------------3-2--0---|---------------------------------------|
|------------------------------------|---------------------------------------|
|------------------------------------|---------------------------------------|
|
| E.   S +E   E  +S   E.    S S  e      E.     S  +E     E  +S  E.      e  e
|------------------------------------|-10-----10-(10)----8--(8)-8------------|
|-8----8-(8)-------------------------|---------------------------------10-10-|
|------------10-(10)-10----10-9------|---------------------------------------|
|-------------------------------12---|---------------------------------------|
|------------------------------------|---------------------------------------|
|------------------------------------|---------------------------------------|


  Am7/G   Gadd9 Fadd11    F                           N.C.(D6)
   E.     S +E   E    +S   E.     S S  E    W
   |      |  |   |     |   |      | |  |
   /      /  /   /     /   /      o o  o

   S  S E    E   S S   E      E   S S  E    E S S E E  S  S E E S S
|----------------------------------------||-------------------------|
|----------------------------------------||-------------------------|
|--7--7-7--------2-2---2----------3-3--3-||---3-3-3----4--4-4---4-4-|
|--0--0-0--------0-0---0----------0-0--0-||---0-0-0----0--0-0---0-0-|
|--5--5-5--------5-5---5----------5-5--5-||---5-5-5----5--5-5---5-5-|
|-(0)-------------------------0----------||---------0-(0)-----------|
| +Q         Q         E      Q.            Q     E E +Q      Q
|
|  E.     S +E   E    +S   E.     S S  E    W
|--3------3-(3)--1----(1)--1------1-0----||-------------------------|
|--5------3-(3)--3----(3)--1-----------3-||-------------------------|
|--5------4-(4)--3----(3)--2-------------||-------------------------|
|---------------------------------3-2--0-||-------------------------|
|----------------------------------------||-------------------------|
|----------------------------------------||-------------------------|
|
|  E.     S +E   E    +S   E.     S S  e    E S S E E  S  S E E S S
|----------------------------------------||-------------------------|
|--8------8-(8)--------------------------||-------------------------|
|---------------10---(10)-10-----10-9----||---3-3-3----4--4-4---4-4-|
|-------------------------------------12-||-------------------------|
|----------------------------------------||-------------------------|
|----------------------------------------||-------------------------|


              To Coda
       (D7)              DsusD       F/C     Am/CD5/A
                         Gtrs I, II
  E E  S S E E S S E E    E.  S  +E   E  +S   E.  E  E
|----------------------|-12--12-(12)-10-(10)-10---7--7-|
|----------------------|--0---0--(0)--0--(0)--0---0--0-|
|-4----5-5-5---5-5-5---|-12--11-(11)-10-(10)--9---7--6-|
|-0----0-0-0---0-0-0---|-12--12-(12)-10-(10)-10---7--7-|
|-5----5-5-5---5-5-5---|-------------------------------|
|---0----------------0-|-------------------------------|
| E Q.       Q     E E
|
| W                       E.  S  +E   E  +S   E.  e  e
|----------------------|-10--10-(10)--8--(8)--8---5--5-|
|----------------------|-12--10-(10)-10-(10)--8--------|
|----------------------|-12--11-(11)-10-(10)--9---7--6-|
|----------------------|-------------------------------|
|----------------------|-------------------------------|
|----------------------|-------------------------------|
|
| E E  S S E E S S E E    E.  S  +E   E  +S   E.  e  e
|----------------------|-10--10-(10)--8--(8)--8--------|
|----------------------|-------------------------10-10-|
|-4----5-5-5---5-5-5---|-------------------------------|
|----------------------|-------------------------------|
|----------------------|-------------------------------|
|----------------------|-------------------------------|


                                      Interlude
  Am7Gadd9 Fadd11  F     N.C.(Dm)      A5            A
 9/8                                  4/4
  E. S +E   E  +S   E. S S S S S S     E E E E E E E  E
|-5--5-(5)--3--(3)--3--------------||-------------------|
|-0--0-(0)--0--(0)--0--------------||o---------------12-|
|-5--4-(4)--3--(3)--2--------------||--2-----2---2------|
|-5--5-(5)--3--(3)--3--3-2-0-----0-||--2-----2---2---11-|
|----------------------------0-2---||o-0-----0---0---12-|
|----------------------------------||-------------------|
|
| E. S +E   E  +S   E. S S E   E       W
|-3--3-(3)--1--(1)--1--1-0---------||-------------------|
|-5--3-(3)--3--(3)--1------3-------||o------------------|
|-5--4-(4)--3--(3)--2--------------||-------------------|
|----------------------3-2-0-------||-------------------|
|----------------------------------||o------------------|
|----------------------------------||-------------------|
|
| E. S +E   E  +S   E. S S S S S S     W
|----------------------------------||-------------------|
|-8--8-(8)-------------------------||o------------------|
|----------10-(10)-10--------------||-------------------|
|----------------------3-2-0-----0-||-------------------|
|----------------------------0-2---||o------------------|
|----------------------------------||-------------------|


        A5                        A          A5     N.C.(Dm)
   +E   E Q  H      E E E E E E E  E    +E   E Q  E S S S S S S   4x
|-----------------|------------------|----------------------------||
|-(12)\-----------|---------------12-|-(12)\---------------------o||
|-------2---------|-2-----2---2------|-------2--------------------||
|-(11)\-2---------|-2-----2---2---11-|-(11)\-2------3-2-0-----0---||
|-(12)\-0---------|-0-----0---0---12-|-(12)\-0------------0-2----o||
|-----------------|------------------|----------------------------||


  A5            A          A5                        A          A5
  E E E E E E E  E    +E   E Q  H      E E E E E E E  E    +E   E Q  H
|------------------|-----------------|------------------|-----------------||
|---------------12-|-(12)\-----------|---------------12-|-(12)\-----------||
|-2-----2---2------|-------2---------|-2-----2---2------|-------2---------||
|-2-----2---2---11-|-(11)\-2---------|-2-----2---2---11-|-(11)\-2---------||
|-0-----0---0---12-|-(12)\-0---------|-0-----0---0---12-|-(12)\-0---------||
|------------------|-----------------|------------------|-----------------||


   Bridge
    DsusD       F/C     Am/CD5/A    Am7Gadd9 Fadd11  F
     E.  S  +E   E  +S   E.  E  E   E. S +E   E  +S   E.  S S  E
||--12--12-(12)-10-(10)-10---7--7-|-5--5-(5)--3--(3)--3-----------||
||o--0---0--(0)--0--(0)--0---0--0-|-0--0-(0)--0--(0)--0----------o||
||--12--11-(11)-10-(10)--9---7--6-|-5--4-(4)--3--(3)--2-----------||
||--12--12-(12)-10-(10)-10---7--7-|-5--5-(5)--3--(3)--3---3-2--0--||
||o-------------------------------|------------------------------o||
||--------------------------------|-------------------------------||
|
|   Gtr III
|    E.  S  +E   E  +S   E.  e  e   E. S +E   E  +S   E.  S S  E
||--10--10-(10)--8--(8)--8---5--5-|-3--3-(3)--1--(1)--1---1-0-----||
||o-12--10-(10)-10-(10)--8--------|-5--3-(3)--3--(3)--1--------3-o||
||--12--11-(11)-10-(10)--9---7--6-|-5--4-(4)--3--(3)--2-----------||
||--------------------------------|-----------------------3-2--0--||
||o-------------------------------|------------------------------o||
||--------------------------------|-------------------------------||
|
|   Gtr IV
|    E.  S  +E   E  +S   E.  e  e   E. S +E   E  +S   E.  S S  e
||--10--10-(10)--8--(8)--8--------|-------------------------------||
||o-------------------------10-10-|-8--8-(8)---------------------o||
||--------------------------------|----------10-(10)-10--10-9-----||
||--------------------------------|---------------------------12--||
||o-------------------------------|------------------------------o||
||--------------------------------|-------------------------------||


 Chorus
  G5
  Gtr I
   Q  E. S S S E E E   +E      Q        E +Q         S   S  E
|--5--5--5-5-5-5-5-5-|-(5)-----5--------5-(5)--------5---5--5----|
|--5--5--5-5-5-5-5-5-|-(5)-----5--------5-(5)--------5---5--5----|
|--7--7--7-7-7-7-7-7-|-(7)-----7--------7-(7)--------7---7--7----|
|--5--5--5-5-5-5-5-5-|-(5)-----5--------5-(5)--------5---5--5----|
|--5--5--5-5-5-5-5-5-|-(5)-----5--------5-(5)--------5---5--5----|
|--5--5--5-5-5-5-5-5-|-(5)-----5--------5-(5)--------5---5--5----|
|
| Gtr IV
|  ~~
|                                          |--3---|
|  W                    S   S  E  E     E  E   E  E  S   S  S  S
|--------------------|------------------------------12-----------|
|--------------------|------------------------14-15-----15-14-11-|
|-12-----------------|-14--15-14-12----14-15-------------------6-|
|--5-----------------|--7---8--7-(7)-5--5-(5)-------(5)--7--8----|
|--------------------|-------------------------------------------|
|--------------------|-------------------------------------------|
   W                    S   S  E +S  S  E +Q        +S   S  S  S


  A5
   Q   E. S S S E +E     E      E    E   Q    +Q         E  S  S
|--7---7--7-7-7-7-(7)----7---|--7----7---7----(7)--------7--7--7-|
|--7---7--7-7-7-7-(7)----7---|--7----7---7----(7)--------7--7--7-|
|--9---9--9-9-9-9-(9)----9---|--9----9---9----(9)--------9--9--9-|
|--7---7--7-7-7-7-(7)----7---|--7----7---7----(7)--------7--7--7-|
|--7---7--7-7-7-7-(7)----7---|--7----7---7----(7)--------7--7--7-|
|--7---7--7-7-7-7-(7)----7---|--7----7---7----(7)--------7--7--7-|
|
|  ~~~                          ~~~            ~~~
|                                              |--3---|
|  H.              S  S  S S   +H              E   E  E  E  S  S
|-12--------------10--9-10-9-|-(9)-------------------------------|
|--5--------------(5)------5-|-(5)------------11--10-10-11-11-11-|
|------------------------6---|-----7-6---------------------------|
|----------------------------|---------8-7--8--7-----------------|
|----------------------------|-----------------------------------|
|----------------------------|-----------------------------------|
   H.             +E     S S   +S  S S S E. S  H


  G5
   Q   E. S S S E E E   +E     Q          E    +Q            S  S  E
|--5---5--5-5-5-5-5-5-|-(5)----5----------5----(5)-----------5--5--5----|
|--5---5--5-5-5-5-5-5-|-(5)----5----------5----(5)-----------5--5--5----|
|--7---7--7-7-7-7-7-7-|-(7)----7----------7----(7)-----------7--7--7----|
|--5---5--5-5-5-5-5-5-|-(5)----5----------5----(5)-----------5--5--5----|
|--5---5--5-5-5-5-5-5-|-(5)----5----------5----(5)-----------5--5--5----|
|--5---5--5-5-5-5-5-5-|-(5)----5----------5----(5)-----------5--5--5----|
|
|  ~~~
|                        |---3----|  |---3---|
|  H.             Q      E   E    E  E  E    E  S   S  S  S  S  S  S  S
|---------------------|----------------12-------------12-13-12-------12-|
|---------------------|----------14-15------14-14--15-----6----15-14----|
|-12------------------|-14--15-------7--9----7--6---7--9-----9--6--7--9-|
|--5------------------|--7---8----9-------------------------------------|
|---------------------|-------------------------------------------------|
|---------------------|-------------------------------------------------|
   H.             Q      E   E    E  E  E    E  S   S  S  S  S  S  S  S
                         |---3----|  |---3---|


  A5
   Q    E.        S   S  S E  +E      E       E  E   Q        +Q      E  S S
|--7----7---------7---7--7-7--(7)-----7----|--7--7---7--------(7)-----7--7-7---|
|--7----7---------7---7--7-7--(7)-----7----|--7--7---7--------(7)-----7--7-7---|
|--9----9---------9---9--9-9--(9)-----9----|--9--9---9--------(9)-----9--9-9---|
|--7----7---------7---7--7-7--(7)-----7----|--7--7---7--------(7)-----7--7-7---|
|--7----7---------7---7--7-7--(7)-----7----|--7--7---7--------(7)-----7--7-7---|
|--7----7---------7---7--7-7--(7)-----7----|--7--7---7--------(7)-----7--7-7---|
|
| Gtr III
|  H                  Q        E      E      +H.                      Q
|------------------------------------------|-----------------------------------|
|------------------------------------------|-----------------------------------|
|-------------------------------------2----|-(2)-------------------------------|
|-------------------------------------2----|-(2)-------------------------------|
|-------------------------------------4----|-(4)-------------------------------|
|------------------------------------------|-----------------------------------|
|
| Gtr IV
|  Q   +S   S  S  S  +Q       +S   S  S  S    Q     +S  S  E  +E  S S E.   T T
|-12--(12)-------12-(12)-----(12)-13-10-13-|-12----(12)------------------------|
|--5---(5)-14-10--5--(5)------(5)--6-----6-|--5-----(5)-8-10-(10)-8-6-5------6-|
|-----------6-------------------------7----|-------------------------------7---|
|--------------7---------------------------|------------5--7--(7)-5-3-2------3-|
|------------------------------------------|-------------------------------5---|
|------------------------------------------|-----------------------------------|
   Q   +S   S  S  S  +Q       +S   S  S  S    Q     +S  S  E  +E  S S E.   T T


  G5
  Q   E. S S S E E  E      +E   Q     E +Q         S S    E
|-5---5--5-5-5-5-5--5----|-(5)--5-----5-(5)--------5-5----5----|
|-5---5--5-5-5-5-5--5----|-(5)--5-----5-(5)--------5-5----5----|
|-7---7--7-7-7-7-7--7----|-(7)--7-----7-(7)--------7-7----7----|
|-5---5--5-5-5-5-5--5----|-(5)--5-----5-(5)--------5-5----5----|
|-5---5--5-5-5-5-5--5----|-(5)--5-----5-(5)--------5-5----5----|
|-5---5--5-5-5-5-5--5----|-(5)--5-----5-(5)--------5-5----5----|
|
| Gtr IV
|                                                  |----3----|
| H.             E  S  S    E   E  E  E  E   S  S  E    E    E
|------------------------|----------------------9-10---12---10-|
|-8----------------10-11-|-10-----10----10--11-----------------|
|------------------------|-----12----12------------7----9----7-|
|-5-----------------7--8-|--7---5--7--5--7---8-11--------------|
|------------------------|-------------------------------------|
|------------------------|-------------------------------------|
  H.             E  S  S    E   E  E  E  E   S  S  E    E    E
                                                   |----3----|


  A5
  Q           E.    S  S  S E +E    E
|-7-----------7-----7--7--7-7-(7)---7----|
|-7-----------7-----7--7--7-7-(7)---7----|
|-9-----------9-----9--9--9-9-(9)---9----|
|-7-----------7-----7--7--7-7-(7)---7----|
|-7-----------7-----7--7--7-7-(7)---7----|
|-7-----------7-----7--7--7-7-(7)---7----|
|
| Gtr III
| H                    Q       E    S  S
|----------------------------------------|
|----------------------------------------|
|-----------------------------------2--2-|
|-----------------------------------2--2-|
|----------------------------------------|
|----------------------------------------|
|
| Gtr IV
| S  S  S  S  E   S S +Q       S  S S  S
|-9-10-12-13-12--10-9-(9)-----10--9-6----|
|-------------------------------------10-|
|----7--9-10--9---7-6-(6)------7--6------|
|-7---------------------------------8--7-|
|----------------------------------------|
|----------------------------------------|
  S  S  S  S  E   S S +Q       S  S S  S


    E   E    Q       +Q         E  S S
|---7---7----7-------(7)--------7--7-7-|
|---7---7----7-------(7)--------7--7-7-|
|---9---9----9-------(9)--------9--9-9-|
|---7---7----7-------(7)--------7--7-7-|
|---7---7----7-------(7)--------7--7-7-|
|---7---7----7-------(7)--------7--7-7-|
|
|  +Q        Q        E.     S +E  E
|--------------------------------------|
|--------------------------------------|
|--(2)----------------2------2-(2)-----|
|--(2)----------------2------2-(2)-----|
|--------------------------------------|
|--------------------------------------|
|
|  +E   S S +E   S S +S  S E   +E  S S
|--------------------------------------|
|-(10)-11-8-(8)-10-6-(6)-8-----------6-|
|--------------------------9---(9)-9---|
|--(7)--8-5-(5)--7-------5-------------|
|------------------8-(8)---7---(7)-7-8-|
|--------------------------------------|
   +E   S S +E   S S +S  S E   +E  S S


  G5
  Q   E. S S S E E E   +E        Q     E +Q            S  S  E
|-5---5--5-5-5-5-5-5-|-(5)-------5-----5-(5)-----------5--5--5-|
|-5---5--5-5-5-5-5-5-|-(5)-------5-----5-(5)-----------5--5--5-|
|-7---7--7-7-7-7-7-7-|-(7)-------7-----7-(7)-----------7--7--7-|
|-5---5--5-5-5-5-5-5-|-(5)-------5-----5-(5)-----------5--5--5-|
|-5---5--5-5-5-5-5-5-|-(5)-------5-----5-(5)-----------5--5--5-|
|-5---5--5-5-5-5-5-5-|-(5)-------5-----5-(5)-----------5--5--5-|
|
| Gtr IV
|                       |--3---|
| H.             Q      S   S  S E +Q     S   S  S  S  S  E.
|--------------------|-------------------13--12-10--9-10-12----|
|-8------------------|-10--11-10-8-(8)-------------------------|
|--------------------|-------------------10---9-----------9----|
|-5------------------|--7---8--7-5-(5)----------12-11-12-------|
|--------------------|-----------------------------------------|
|--------------------|-----------------------------------------|
  H.             Q      S   S  S E +Q     S   S  S  S  S  E.
                        |--3---|


  A5
    Q          E.      S  S S  E     +E  E
|---7----------7-------7--7-7--7-----(7)-7---|
|---7----------7-------7--7-7--7-----(7)-7---|
|---9----------9-------9--9-9--9-----(9)-9---|
|---7----------7-------7--7-7--7-----(7)-7---|
|---7----------7-------7--7-7--7-----(7)-7---|
|---7----------7-------7--7-7--7-----(7)-7---|
|
| Gtr III
|   H                     Q           E  S S
|--------------------------------------------|
|--------------------------------------------|
|----------------------------------------2-2-|
|----------------------------------------2-2-|
|----------------------------------------4-4-|
|--------------------------------------------|
|
| Gtr IV
|              |--3--|
|  +S   S S  S E   E E    S S  S  S  +Q
|-(12)-10-9----9-----9------9----------------|
|-----------11----11-----11---11-10-(10)-----|
|--(9)--7-6----6-----6------6----------------|
|------------8-----8------8----8--7--(7)-----|
|--------------------------------------------|
|--------------------------------------------|
   +S   S S  S E   E E    S S  S  S  +Q
               |--3--|


    E  E  Q          +Q          E  S  S
|---7--7--7----------(7)---------7--7--7--|
|---7--7--7----------(7)---------7--7--7--|
|---9--9--9----------(9)---------9--9--9--|
|---7--7--7----------(7)---------7--7--7--|
|---7--7--7----------(7)---------7--7--7--|
|---7--7--7----------(7)---------7--7--7--|
|
|  +H.                           Q
|-----------------------------------------|
|-----------------------------------------|
|--(2)------------------------------------|
|--(2)------------------------------------|
|--(4)------------------------------------|
|-----------------------------------------|
|
|  +Q     S  S  S  S  S   S S S  E.    S
|--------12-13-10-12--9--10-6-9-----------|
|-(10)--------------------------10----10--|
|---------9-10-----9--6---7---6-----------|
|--(7)---------12-----------8----7-----7--|
|-----------------------------------------|
|-----------------------------------------|
   +Q     S  S  S  S  S   S S S  E.    S


  G5
  Q   E.     S  S  S  E   E   E       +E   Q          E     +Q    S  S  E
|-5---5------5--5--5--5---5---5----|--(5)--5----------5-----(5)---5--5--5-|
|-5---5------5--5--5--5---5---5----|--(5)--5----------5-----(5)---5--5--5-|
|-7---7------7--7--7--7---7---7----|--(7)--7----------7-----(7)---7--7--7-|
|-5---5------5--5--5--5---5---5----|--(5)--5----------5-----(5)---5--5--5-|
|-5---5------5--5--5--5---5---5----|--(5)--5----------5-----(5)---5--5--5-|
|-5---5------5--5--5--5---5---5----|--(5)--5----------5-----(5)---5--5--5-|
|
| H             Q         E   S  S    +H                     H
|----------------------------------|--------------------------------------|
|-----------------------------3--3-|--(3)---------------------------------|
|----------------------------------|--------------------------------------|
|-----------------------------0--0-|--(0)---------------------------------|
|----------------------------------|--------------------------------------|
|-----------------------------3--3-|--(3)---------------------------------|
|
| Gtr IV
| Q.      S  S  S  S  E  +E   S  S    +E   S  S  +E   S  S  +Q    S  S  E
|--------13-12-13-12-10-(10)--9-10-|-(10)-12-13-(13)-12-13-(13)--12-10-12-|
|-8--------------------------------|--------------------------------------|
|--------10--9-10--9---------------|-------9-10-(10)--9-10-(10)---9-----9-|
|-5------------------12-(12)-11-12-|-(12)---------------------------12----|
|----------------------------------|--------------------------------------|
|----------------------------------|--------------------------------------|
  Q.      S  S  S  S  E  +E   S  S    +E   S  S  +E   S  S  +Q    S  S  E


  A5
    Q   E. S  S  S E    +E  E     E  E  Q   +Q   E S S
|---7---7--7--7--7-7----(7)-7-|---7--7--7---(7)--7-7-7-|
|---7---7--7--7--7-7----(7)-7-|---7--7--7---(7)--7-7-7-|
|---9---9--9--9--9-9----(9)-9-|---9--9--9---(9)--9-9-9-|
|---7---7--7--7--7-7----(7)-7-|---7--7--7---(7)--7-7-7-|
|---7---7--7--7--7-7----(7)-7-|---7--7--7---(7)--7-7-7-|
|---7---7--7--7--7-7----(7)-7-|---7--7--7---(7)--7-7-7-|
|
| Gtr IV
|                                            ~~~~
|  +Q   Q     E.      S  Q       +E  E  Q   +H
|-(12)--9---------------------|------------------------|
|------------10------11-10----|-(10)-8-10--(10)--------|
|--(9)--6---------------------|------------------------|
|-------------7-------8--7----|--(7)-5--7---(7)--------|
|-----------------------------|------------------------|
|-----------------------------|------------------------|
   +Q   Q     E.      S  Q       +E  E  Q   +H


  N.C.(D5)         (D+)              (D6)                 (D7)
  S S E E S S E E  S S E   E S S E E  S  S E E S S   E E  S S E E S S E E
|------------------------|-------------------------|----------------------|
|------------------------|-------------------------|----------------------|
|-2-2-2---2-2-2----3-3-3-|---3-3-3----4--4-4---4-4-|-4----5-5-5---5-5-5---|
|-0-0-0---0-0-0----0-0-0-|---0-0-0----0--0-0---0-0-|-0----0-0-0---0-0-0---|
|-5-5-5---5-5-5----5-5-5-|---5-5-5----5--5-5---5-5-|-5----5-5-5---5-5-5---|
|---------------0--------|---------0-(0)-----------|---0----------------0-|
  H           E Q.         Q     E E +Q      Q       E Q.       Q     E E


  (D)       (D5)     (D+)              (D6)                 (D7)
   S  S E E S S E E  S S E   E S S E E  S  S E E S S   E E  S S E E S S E E
|--------------------------|-------------------------|----------------------||
|--------------------------|-------------------------|----------------------||
|--7--7-7---2-2-2----3-3-3-|---3-3-3----4--4-4---4-4-|-4----5-5-5---5-5-5---||
|--0--0-0---0-0-0----0-0-0-|---0-0-0----0--0-0---0-0-|-0----0-0-0---0-0-0---||
|--5--5-5---5-5-5----5-5-5-|---5-5-5----5--5-5---5-5-|-5----5-5-5---5-5-5---||
|-(0)-------------0--------|---------0-(0)-----------|---0----------------0-||
  +Q      Q     E Q.         Q     E E +Q      Q       E Q.       Q     E E


 Third Verse
  (D)       (D5)     (D+)              (D6)
   S  S E E S S E E  S S E   E S S E E  S  S E E S S
|--------------------------|-------------------------|
|--------------------------|-------------------------|
|--7--7-7---2-2-2----3-3-3-|---3-3-3----4--4-4---4-4-|
|--0--0-0---0-0-0----0-0-0-|---0-0-0----0--0-0---0-0-|
|--5--5-5---5-5-5----5-5-5-|---5-5-5----5--5-5---5-5-|
|-(0)-------------0--------|---------0-(0)-----------|
| +Q      Q     E Q.         Q     E E +Q      Q
|
| Gtr III
|  W                         W
|--------------------------|-------------------------|
|--------------------------|-------------------------|
|--------------------------|-------------------------|
|--------------------------|-------------------------|
|--------------------------|-------------------------|
|--------------------------|-------------------------|
|
| Gtr IV
|  W                         W
|--------------------------|-------------------------|
|--------------------------|-------------------------|
|--------------------------|-------------------------|
|--------------------------|-------------------------|
|--------------------------|-------------------------|
|--------------------------|-------------------------|


       (D7)
  E E  S S E E    S  S  E    E
|----------------------------------|
|----------------------------------|
|-4----5-5-5------5--5--5----------|
|-0----0-0-0------0--0--0----------|
|-5----5-5-5------5--5--5----------|
|---0------------------------0-----|
| E Q.       Q          E    E
|
| H          S  S S  S  S  S S  S
|----------------------------------|
|----------------------------------|
|-----------------------4----------|
|---------------7-6--7-----7-6--7--|
|----------------------------------|
|----------------------------------|
|
| H          S  S S  S  S  S S  S
|----------------------------------|
|--------------10-9-10-12-10-9-10--|
|----------------------------------|
|----------------------------------|
|----------------------------------|
|----------------------------------|


  (D)       (D5)     (D+)              (D6)
   S  S E E S S E E  S S E   E S S E E  S  S E E S S
|--------------------------|-------------------------|
|--------------------------|-------------------------|
|--7--7-7---2-2-2----3-3-3-|---3-3-3----4--4-4---4-4-|
|--0--0-0---0-0-0----0-0-0-|---0-0-0----0--0-0---0-0-|
|--5--5-5---5-5-5----5-5-5-|---5-5-5----5--5-5---5-5-|
|-(0)-------------0--------|---------0-(0)-----------|
| +Q      Q     E Q.         Q     E E +Q      Q
|
|  ~~~
|  W                         W
|--------------------------|-------------------------|
|--------------------------|-------------------------|
|--------------------------|-------------------------|
|--4-----------------------|-------------------------|
|--------------------------|-------------------------|
|--------------------------|-------------------------|
|
|  ~~~
|  W                         W
|--------------------------|-------------------------|
|--7-----------------------|-------------------------|
|--------------------------|-------------------------|
|--------------------------|-------------------------|
|--------------------------|-------------------------|
|--------------------------|-------------------------|


       (D7)
  E E  S S E E    S  S  E    E
|----------------------------------|
|----------------------------------|
|-4----5-5-5------5--5--5----------|
|-0----0-0-0------0--0--0----------|
|-5----5-5-5------5--5--5----------|
|---0------------------------0-----|
| E Q.       Q          E    E
|
| H          S  S S  S  S  S S  S
|----------------------------------|
|----------------------------------|
|-----------------------4----------|
|---------------7-6--7-----7-6--7--|
|----------------------------------|
|----------------------------------|
|
| H          S  S S  S  S  S S  S
|----------------------------------|
|--------------10-9-10-12-10-9-10--|
|----------------------------------|
|----------------------------------|
|----------------------------------|
|----------------------------------|


  (D)       (D5)     (D+)              (D6)
   S  S E E S S E E  S S E   E S S E E  S  S E E S S
|--------------------------|-------------------------|
|--------------------------|-------------------------|
|--7--7-7---2-2-2----3-3-3-|---3-3-3----4--4-4---4-4-|
|--0--0-0---0-0-0----0-0-0-|---0-0-0----0--0-0---0-0-|
|--5--5-5---5-5-5----5-5-5-|---5-5-5----5--5-5---5-5-|
|-(0)-------------0--------|---------0-(0)-----------|
| +Q      Q     E Q.         Q     E E +Q      Q
|
|  ~~~
|  W                         W
|--------------------------|-------------------------|
|--------------------------|-------------------------|
|--------------------------|-------------------------|
|--4-----------------------|-------------------------|
|--------------------------|-------------------------|
|--------------------------|-------------------------|
|
|  ~~~
|  W                         W
|--------------------------|-------------------------|
|--7-----------------------|-------------------------|
|--------------------------|-------------------------|
|--------------------------|-------------------------|
|--------------------------|-------------------------|
|--------------------------|-------------------------|


       (D7)
  E E  S S E E    S  S  E    E
|----------------------------------|
|----------------------------------|
|-4----5-5-5------5--5--5----------|
|-0----0-0-0------0--0--0----------|
|-5----5-5-5------5--5--5----------|
|---0------------------------0-----|
| E Q.       Q          E    E
|
| H          S  S S  S  S  S S  S
|----------------------------------|
|----------------------------------|
|-----------------------4----------|
|---------------7-6--7-----7-6--7--|
|----------------------------------|
|----------------------------------|
|
| H          S  S S  S  S  S S  S
|----------------------------------|
|--------------10-9-10-12-10-9-10--|
|----------------------------------|
|----------------------------------|
|----------------------------------|
|----------------------------------|


  (D)       (D5)     (D+)              (D6)                 (D7)
   S  S E E S S E E  S S E   E S S E E  S  S E E S S   E E  S S E E S S E E
|--------------------------|-------------------------|----------------------||
|--------------------------|-------------------------|----------------------||
|--7--7-7---2-2-2----3-3-3-|---3-3-3----4--4-4---4-4-|-4----5-5-5---5-5-5---||
|--0--0-0---0-0-0----0-0-0-|---0-0-0----0--0-0---0-0-|-0----0-0-0---0-0-0---||
|--5--5-5---5-5-5----5-5-5-|---5-5-5----5--5-5---5-5-|-5----5-5-5---5-5-5---||
|-(0)-------------0--------|---------0-(0)-----------|---0----------------0-||
| +Q      Q     E Q.         Q     E E +Q      Q       E Q.       Q     E E
|
|  ~~~
|  W                         W                         W
|--------------------------|-------------------------|----------------------||
|--------------------------|-------------------------|----------------------||
|--------------------------|-------------------------|----------------------||
|--4-----------------------|-------------------------|----------------------||
|--------------------------|-------------------------|----------------------||
|--------------------------|-------------------------|----------------------||
|
|  ~~~
|  W                         E S S E E  S  S E E S S   E E  S S E E S S E E
|--------------------------|-------------------------|----------------------||
|--7-----------------------|-------------------------|----------------------||
|--------------------------|---3-3-3----4--4-4---4-4-|-4----5-5-5---5-5-5---||
|--------------------------|-------------------------|----------------------||
|--------------------------|-------------------------|----------------------||
|--------------------------|-------------------------|----------------------||


 Bridge
  Dsus4   D       F/C       Am/C  D5/AA   Am7/GGadd9 Fadd11F
  Gtr II
   E.      S  +E   E    +S  E.    E   E   E.   S +E  E +S  E.   S S E
   |       |   |   |     |  |     |   |   |    |  |  |  |  |    | | |
   /       /   /   /     /  /     /   /   /    /  /  /  /  /    o o o

  Gtr I
   S  S E      E   S S   E     E  S S E   E  S S  E  E  S  S  E E   S S
|---------------------------------------|-------------------------------|
|---------------------------------------|-------------------------------|
|--7--7-7----------2-2---2--------3-3-3-|----3-3--3-----4--4--4-----4-4-|
|--0--0-0----------0-0---0--------0-0-0-|----0-0--0-----0--0--0-----0-0-|
|--5--5-5----------5-5---5--------5-5-5-|----5-5--5-----5--5--5-----5-5-|
|-(0)--------------------------0--------|------------0-(0)--------------|
| +Q           Q         E     Q.         Q       E  E +Q       Q
|
| Gtr III
|  E.      S  +E   E    +S  E.    e   e   E.   S +E  E +S  E.   S S E
|-10------10-(10)--8----(8)-8-----5---5-|-3----3-(3)-1-(1)-1----1-0-----|
|-12------10-(10)-10---(10)-8-----------|-5----3-(3)-3-(3)-1--------3---|
|-12------11-(11)-10---(10)-9-----7---6-|-5----4-(4)-3-(3)-2------------|
|---------------------------------------|-----------------------3-2-0---|
|---------------------------------------|-------------------------------|
|---------------------------------------|-------------------------------|


  Dsus4  D         F/C     Am/C   D5AA  Am7/G   Gadd9 Fadd11  F
   E.     S  +E     E  +S  E.     E E    E.     S +E  E   +S  E.    S S E
   |      |   |     |   |  |      | |    |      |  |  |    |  |     | | |
   /      /   /     /   /  /      / /    /      /  /  /    /  /     o o o

   E  E       S  S  E   E     S S E E    S  S E    E  S S  E     E  S S E
|-------------------------------------|-----------------------------------|
|-------------------------------------|-----------------------------------|
|--4----------5--5--5---------5-5-5---|--7--7-7-------2-2--2--------3-3-3-|
|--0----------0--0--0---------0-0-0---|--0--0-0-------0-0--0--------0-0-0-|
|--5----------5--5--5---------5-5-5---|--5--5-5-------5-5--5--------5-5-5-|
|-----0-----------------------------0-|-(0)----------------------0--------|
|  E  Q.                Q         E E   +Q         Q       E     Q.
|
|  E.     S  +E     E  +S  E.     e e    E.     S +E  E   +S  E.    S S E
|-10-----10-(10)----8--(8)-8------5-5-|--3------3-(3)-1---(1)-1-----1-0---|
|-12-----10-(10)---10-(10)-8----------|--5------3-(3)-3---(3)-1---------3-|
|-12-----11-(11)---10-(10)-9------7-6-|--5------4-(4)-3---(3)-2-----------|
|-------------------------------------|-----------------------------3-2-0-|
|-------------------------------------|-----------------------------------|
|-------------------------------------|-----------------------------------|


                                   D.S. al Coda
    N.C.(D+)(D6)                 (D7)
  E S S E E  S  S E E S S   E E  S S E E S S E E
|-------------------------|----------------------||
|-------------------------|----------------------||
|---3-3-3----4--4-4---4-4-|-4----5-5-5---5-5-5---||
|---0-0-0----0--0-0---0-0-|-0----0-0-0---0-0-0---||
|---5-5-5----5--5-5---5-5-|-5----5-5-5---5-5-5---||
|---------0-(0)-----------|---0----------------0-||
| Q     E E +Q      Q       E Q.       Q     E E
|
| Gtr IV
| E S S E E  S  S E E S S   E E  S S E E S S E E
|-------------------------|----------------------||
|-------------------------|----------------------||
|---3-3-3----4--4-4---4-4-|-4----5-5-5---5-5-5---||
|-------------------------|----------------------||
|-------------------------|----------------------||
|-------------------------|----------------------||


    &
    DsusD       F/C     Am/D5/A    Am7Gadd9 Fadd11  F
    Gtrs I, II
     E.  S  +E   E  +S  E.  E  E   E. S +E   E  +S   E.  S S  E
     |   |   |   |   |  |   |  |   |  |  |   |   |   |   | |  |
     /   /   /   /   /  /   /  /   /  /  /   /   /   /   o o  o

    Gtr III
     E.  S  +E   E  +S  E.  e  e   E. S +E   E  +S   E.  S S  E
||--10--10-(10)--8--(8)-8---5--5-|-3--3-(3)--1--(1)--1---1-0-----||
||o-12--10-(10)-10-(10)-8--------|-5--3-(3)--3--(3)--1--------3-o||
||--12--11-(11)-10-(10)-9---7--6-|-5--4-(4)--3--(3)--2-----------||
||-------------------------------|-----------------------3-2--0--||
||o------------------------------|------------------------------o||
||-------------------------------|-------------------------------||
|
|   Gtr IV
|    E.  S  +E   E  +S  E.  e  e   E. S +E   E  +S   E.  S S  e
||--10--10-(10)--8--(8)-8--------|-------------------------------||
||o------------------------10-10-|-8--8-(8)---------------------o||
||-------------------------------|----------10-(10)-10--10-9-----||
||-------------------------------|---------------------------12--||
||o------------------------------|------------------------------o||
||-------------------------------|-------------------------------||


 Out-Chorus
  G5
  Gtr I
  Q  E. S S S E E E   +E  Q  E +Q   S S E
|-5--5--5-5-5-5-5-5-|-(5)-5--5-(5)--5-5-5-|
|-5--5--5-5-5-5-5-5-|-(5)-5--5-(5)--5-5-5-|
|-7--7--7-7-7-7-7-7-|-(7)-7--7-(7)--7-7-7-|
|-5--5--5-5-5-5-5-5-|-(5)-5--5-(5)--5-5-5-|
|-5--5--5-5-5-5-5-5-|-(5)-5--5-(5)--5-5-5-|
|-5--5--5-5-5-5-5-5-|-(5)-5--5-(5)--5-5-5-|
|
| Gtr IV
| W                   +H.           E   E
|-------------------|---------------------|
|-------------------|---------------------|
|-------------------|---------------2---3-|
|-5-----------------|-(5)-----------------|
|-2-----------------|-(2)-----------------|
|-------------------|---------------------|


  A5
  Q   E.   S S S  E +E    E      E    E  Q      +Q   E     S S
|-7---7----7-7-7--7-(7)---7---|--7----7--7------(7)--7-----7-7-|
|-7---7----7-7-7--7-(7)---7---|--7----7--7------(7)--7-----7-7-|
|-9---9----9-9-9--9-(9)---9---|--9----9--9------(9)--9-----9-9-|
|-7---7----7-7-7--7-(7)---7---|--7----7--7------(7)--7-----7-7-|
|-7---7----7-7-7--7-(7)---7---|--7----7--7------(7)--7-----7-7-|
|-7---7----7-7-7--7-(7)---7---|--7----7--7------(7)--7-----7-7-|
|
| Gtr III
| H          Q       E    S S   +H.                  Q
|-----------------------------|--------------------------------|
|-------------------------5-5-|-(5)----------------------------|
|-------------------------6-6-|-(6)----------------------------|
|-------------------------7-7-|-(7)----------------------------|
|-----------------------------|--------------------------------|
|-----------------------------|--------------------------------|
|
| Gtr IV
| Q.     S S S E.    S  S S S    S  S E +E  S S  Q   S  S  E
|-----------------------------|----------------------9-10-12---|
|-5---------------------------|-----------------10-------------|
|-2------3-6-7-9-----7--6-7-9-|-(9)------------------6--7--9---|
|-------------------------7---|-----5-7-(7)-8-5--7-------------|
|-0------1-4-5-7-----5--4-5-7-|--8-----------------------------|
|-------------------------5---|--------------------------------|


  G5
   Q  E. S S S E E E   +E  Q  E +Q   S S E
|--5--5--5-5-5-5-5-5-|-(5)-5--5-(5)--5-5-5-|
|--5--5--5-5-5-5-5-5-|-(5)-5--5-(5)--5-5-5-|
|--7--7--7-7-7-7-7-7-|-(7)-7--7-(7)--7-7-7-|
|--5--5--5-5-5-5-5-5-|-(5)-5--5-(5)--5-5-5-|
|--5--5--5-5-5-5-5-5-|-(5)-5--5-(5)--5-5-5-|
|--5--5--5-5-5-5-5-5-|-(5)-5--5-(5)--5-5-5-|
|
| Gtr IV
|  H       H            W
|-10-----------------|---------------------|
|--------------------|---------------------|
|--7-----------------|-(7)-----------------|
|--5-----------------|-(5)-----------------|
|--------------------|---------------------|
|--------------------|---------------------|
   W                   +W


  A5
  Q  E. S S S E +E  E      E  E Q  +Q   E S S
|-7--7--7-7-7-7-(7)-7---|--7--7-7--(7)--7-7-7-||
|-7--7--7-7-7-7-(7)-7---|--7--7-7--(7)--7-7-7-||
|-9--9--9-9-9-9-(9)-9---|--9--9-9--(9)--9-9-9-||
|-7--7--7-7-7-7-(7)-7---|--7--7-7--(7)--7-7-7-||
|-7--7--7-7-7-7-(7)-7---|--7--7-7--(7)--7-7-7-||
|-7--7--7-7-7-7-(7)-7---|--7--7-7--(7)--7-7-7-||
|
| Gtr III
| H       Q      E  S S   +H.           Q
|-----------------------|---------------------||
|-------------------5-5-|-(5)-----------------||
|-------------------6-6-|-(6)-----------------||
|-------------------7-7-|-(7)-----------------||
|-----------------------|---------------------||
|-----------------------|---------------------||
|
| Gtr IV
| W                       +W
|-----------------------|---------------------||
|-----------------------|---------------------||
|-9---------------------|-(9)-----------------||
|-----------------------|---------------------||
|-7---------------------|-(7)-----------------||
|-----------------------|---------------------||


   Outro
    G5
    Q   E.   S  S  S E E E   +E  Q   E +Q      S S  E
||--5---5----5--5--5-5-5-5-|-(5)-5---5-(5)-----5-5--5-|
||o-5---5----5--5--5-5-5-5-|-(5)-5---5-(5)-----5-5--5-|
||--7---7----7--7--7-7-7-7-|-(7)-7---7-(7)-----7-7--7-|
||--5---5----5--5--5-5-5-5-|-(5)-5---5-(5)-----5-5--5-|
||o-5---5----5--5--5-5-5-5-|-(5)-5---5-(5)-----5-5--5-|
||--5---5----5--5--5-5-5-5-|-(5)-5---5-(5)-----5-5--5-|
|
|   Gtr IV
|   Q.     E   +E    E Q      Q    Q    E   E  E    E
||--3----------------------|--------------------------|
||o------------------------|--------------------------|
||-------------------3-5---|--7----9---10--12-14---16-|
||--5------7---(7)---------|--------------------------|
||o------------------1-3---|--5----7----8--10-12---14-|
||--3------5---(5)---------|--------------------------|


  A5
   Q     E.       S   S  S E +E   E       E     E    Q     +Q   E   S S  8x
|--7-----7--------7---7--7-7-(7)--7----|--7-----7----7-----(7)--7---7-7--||
|--7-----7--------7---7--7-7-(7)--7----|--7-----7----7-----(7)--7---7-7-o||
|--9-----9--------9---9--9-9-(9)--9----|--9-----9----9-----(9)--9---9-9--||
|--7-----7--------7---7--7-7-(7)--7----|--7-----7----7-----(7)--7---7-7--||
|--7-----7--------7---7--7-7-(7)--7----|--7-----7----7-----(7)--7---7-7-o||
|--7-----7--------7---7--7-7-(7)--7----|--7-----7----7-----(7)--7---7-7--||
|
| Gtr III
|  H                  Q       E   S  S   +H.                    Q        8x
|--------------------------------------|---------------------------------||
|---------------------------------5--5-|-(5)----------------------------o||
|---------------------------------6--6-|-(6)-----------------------------||
|---------------------------------7--7-|-(7)-----------------------------||
|--------------------------------------|--------------------------------o||
|--------------------------------------|---------------------------------||
|
| Gtr IV
|  E  E  S   S  E    +Q       E   S  S    S   S S  S S S E +Q   S S E    8x
|--------------------------------------|---------------------------------||
|-14-17-14--11-10---(10)---------10-11-|-10--11-8-10-6-8-5-(5)----------o||
|--------------------------------------|------------------------6-7-9----||
|-11-14-11---8--7----(7)----------7--8-|--7---8-5--7-3-5-2-(2)-----------||
|--------------------------------------|------------------------4-5-7---o||
|--------------------------------------|---------------------------------||


Duration Legend
---------------
W - whole; H - half; Q - quarter; E - 8th; S - 16th; T - 32nd; X - 64th; a - acciaccatura
+ - note tied to previous; . - note dotted; .. - note double dotted
Uncapitalized letters represent notes that are staccato (1/2 duration)
Irregular groupings are notated above the duration line
Duration letters will always appear directly above the note/fret number it represents the
duration for.  Duration letters with no fret number below them represent rests.  Multi-
bar rests are notated in the form Wxn, where n is the number of bars to rest for.  Low
melody durations appear below the staff

Tablature Legend
----------------
 h   - hammer-on
 p   - pull-off
 b   - bend
 pb  - pre-bend
 r   - bend release (if no number after the r, then release immediately)
 /\  - slide into or out of (from/to "nowhere")
 s   - legato slide
 S   - shift slide
<n>  - natural harmonic
[n]  - artificial harmonic
n(n) - tapped harmonic
 ~   - vibrato
 tr  - trill
 T   - tap
 TP  - trem. picking
 PM  - palm muting
\n/  - tremolo bar dip; n = amount to dip
 \n  - tremolo bar down
 n/  - tremolo bar up
/n\  - tremolo bar inverted dip
 =   - hold bend; also acts as connecting device for hammers/pulls
 <>  - volume swell (louder/softer)
 x   - on rhythm slash represents muted slash
 o   - on rhythm slash represents single note slash

Misc Legend
-----------
 |  - bar
||  - double bar
||o - repeat start
o|| - repeat end
*|  - double bar (ending)
 :  - bar (freetime)
 $  - Segno
 &  - Coda
Tempo markers - <E/E./Q/Q./H/H.> = BPM(8/16=s8/s16), where s8 = swing 8ths, s16 = swing 16ths

enjoy! 
comments
print report bad tab
5 comments total. Showing first comments.
0 reply
matt..m wrote on March 8 2006, 05:45 pm

wow..this is really awesome...please tab disc 2 of this album too!

0 reply
hippieboy444 wrote on July 27 2006, 09:49 pm

good tab... should of tabbeed out ten yars gone :(

0 reply
DitatDeus wrote on February 1 2007, 12:32 pm

no kidding. ----------------^

I want to post or [tab]
guest
You may want to rate the tab now too:
select rating
Please do not post tabs as comments. Select "correction" instead!