Oops, an error
Loading. Please wait.

Presence Bass Tab

1,654 views 3 this week
2 commentsread comments
1 2 3 4 5
worth learning
x 1
add to favorites launch autoscroll
font size
0
reset
Autoscroll
+/-
esc
set tempo
stop
Contributor
WARNING: You are trying to view
                                    content from Ultimate-Guitar.com
                                    in an unauthorized application,
                                    which is prohibited.

                                    Please use an official Ultimate
                                    Guitar Tabs application for iPhone,
                                    iPad or Android to access legitimate
                                    chords, guitar, bass, and drum tabs
                                    from Ultimate-Guitar.com database.

                                    Type "ultimate guitar tabs" in Apple
                                    App Store's or Android Market's
                                    search to find the application.
1.Achilles Last Stand

When bass comes in at approx. 00:19
G|----------------|----------------|----------------|----------------|
D|----------------|----------------|----------------|----------------|
A|----------------|----------------|----------------|----------------|
E|----------------|----------------|----------------|----------------|

G|----------------|----------------|----------------|----------------||
D|----------------|----------------|----------------|----------------||
A|----------------|----------------|----------------|----------------||
E|----------------|----------------|----------------|----------------||

G|----------------|----------------|----------------|----------------|
D|----------------|----------------|----------------|----------------|
A|----7---7---7---|7-777-777-777-77|----7---7---7---|7-777-777-777-77|
E|0-00--00--00--0-|----------------|0-00--00--00--0-|----------------|

G|----------------|----------------|----------------|----------------||
D|----------------|----------------|----------------|----------------||
A|----7---7---7---|7-777-7755-5-567|----7---7---7---|7-777-777-777-77||
E|0-00--00--00--0-|----------------|0-00--00--00--0-|----------------||

G| ----------------|----------------|----------------|----------------|
D|o----------------|----------------|----------------|----------------|
A|o----7---7---7---|7-777-7755-5-567|----7---7---7---|7-777-777-777-77|
E| 0-00--00--00--0-|----------------|0-00--00--00--0-|----------------|

G|----------------|----------------|----------------|----------------|
D|----------------|----------------|----------------|----------------|
A|----7---7---7---|7-777-7755-5-567|----7---7---7---|7-777-777-777-77|
E|0-00--00--00--0-|----------------|0-00--00--00--0-|----------------|

G|----------------|----------------|----------------|----------------|
D|----------------|----------------|----------------|----------------|
A|------5-----2---|----------------|------7-7-777-77|7-777-777-777-77|
E|0---------------|0-000-000-000-00|0---------------|----------------|
  It was an April morning....
  To the sun,the south, the north....

G|----------------|----------------|----------------|----------------|
D|----------------|----------------|----------------|----------------|
A|------5-----2---|----------------|------7-7-777-77|7-777-777-777-77|
E|0---------------|0-000-000-000-00|0---------------|----------------|

G|----------------|----------------|----------------|----------------|
D|----------------|----------------|----------------|----------------|
A|------5-----2---|----------------|------7-7-777-77|7-777-777-777-77|
E|0---------------|0-000-000-000-00|0---------------|----------------|

G|----------------|----------------|----------------|----------------|
D|----------------|----------------|----------------|----------------|
A|------5-----2---|----------------|------7-7-777-77|7-777-777-777-77|
E|0---------------|0-000-000-000-00|0---------------|----------------|

G|----------------|----------------|----------------|----------------|
D|----------------|----------------|----------------|----------------|
A|----7---7---7---|7-777-7755-5-567|----7---7---7---|7-777-777-777-77|
E|0-00--00--00--0-|----------------|0-00--00--00--0-|----------------|

G|----------------|----------------|----------------|----------------|
D|----------------|----------------|----------------|----------------|
A|----7---7---7---|7-777-7755-5-567|----7---7---7---|----------------|
E|0-00--00--00--0-|----------------|0-00--00--00--0-|0-000-000-000-00|

G|----------------|----------------|----------------|----------------|
D|----------------|----------------|----------------|----------------|
A|------5-----2---|----------------|------7-7-777-77|7-777-777-777-77|
E|0---------------|0-000-000-000-00|0---------------|----------------|

G|----------------|----------------|----------------|----------------|
D|----------------|----------------|----------------|----------------|
A|------5-----2---|----------------|------7-7-777-77|7-777-777-777-77|
E|0---------------|0-000-000-000-00|0---------------|----------------|

G|----------------|----------------|----------------|----------------|
D|----------------|----------------|----------------|----------------|
A|------5-----2---|----------------|------7-7-777-77|7-777-777-777-77|
E|0---------------|0-000-000-000-00|0---------------|----------------|

G|----------------|----------------|----------------|----------------||
D|----------------|----------------|----------------|----------------||
A|------5-----2---|----------------|------7-7-777-77|7-777-777-777-77||
E|0---------------|0-000-000-000-00|0---------------|----------------||

G|----------------|----------------|----------------|----------------||
D|----------------|----------------|----------------|----------------||
A|7-5-6-7---5-7-5-|7-5-7-8---------|7-5-6-7---5-7-5-|7-5-7-8---------||
E|----------------|----------------|----------------|----------------||
  ___________________________________________________________________
 |1.
G|----------------|----------------|----------------|----------------|
D|----------------|----------------|----------------|----------------|
A|----------------|--0-----2-------|3---------------|(0)-------------|
E|0-----2-----3---|----------------|----------------|----------------|
  ____________________________________________________________________
                                                                      |
G|----------------|----------------|----------------|---------------- |
D|----------------|----------------|----------------|----------------o|
A|----------------|--0-----2-------|3---------------|(0)-------------o|
E|0-----2-----3---|----------------|----------------|---------------- |

G|----------------|----------------|----------------|----------------|
D|----------------|----------------|----------------|----------------|
A|7-5-6-7---5-7-5-|7-5-7-8---------|7-5-6-7---5-7-5-|7-5-7-8---------|
E|----------------|----------------|----------------|----------------|

  Guitar Solo
G|----------------|----------------|----------------|----------------|
D|----------------|----------------|----------------|----------------|
A|----------------|--0-----2---2---|3---------------|(3)-------------|
E|0-----2-----3---|----------------|----------------|----------------|

G|----------------|----------------|----------------|----------------|
D|----------------|----------------|----------------|----------------|
A|----------------|--0-----2---2---|3---------------|(3)-------------|
E|0-----2-----3---|----------------|----------------|----------------|

G|----------------|----------------|----------------|--------0---2---|
D|----------------|----------------|------0-----2---|--4-------------|
A|----------------|--0-----2---2---|3---------------|----------------|
E|0-----2-----3---|----------------|----------------|----------------|

G|----------------|----------------|----------------|--------0---2---||
D|----------------|----------------|------0-----2---|--4-------------||
A|----------------|--0-----2---2---|3---------------|----------------||
E|0-----2-----3---|----------------|----------------|----------------||

  5/4 time
G|--------------------|--------------------|--------------------|--------------------||
D|2222-2222-2222-2222-|--------------------|2222-2222-2222-2222-|--------------------||
A|--------------------|3333-3333-3333-3333-|--------------------|3333-3333-3333-3333-||
E|--------------------|--------------------|--------------------|--------------------||
  \3/  \3/  \3/  \3/   \3/  \3/  \3/  \3/   \3/  \3/  \3/  \3/   \3/  \3/  \3/  \3/

  4/4 time
G|----------------|----------------|----------------|--------0---2-4-|
D|----------------|----------------|------0-----2---|--4-------------|
A|----------------|---0-----2---2-0|3---------------|----------------|
E|0-----2-----3---|----------------|----------------|----------------|

G|----------------|----------------|----------------|--------0---0-2-|
D|----------------|----------------|------0-----2---|2-4-2-4---4-----|
A|----------------|--0-----2---2-0-|3---------------|----------------|
E|0-----2-----3---|----------------|----------------|----------------|

G|----------------|----------------|----------------|--------0-2-3-4-|
D|----------------|----------------|------0---0-2---|2-4---4---------|
A|----------------|--0-----2---2---|3---3-----------|----------------|
E|0-----2-----3---|----------------|----------------|----------------|

G|----------------|----------------|----------------|--------0---2-0-||
D|----------------|----------------|------0-----2---|--4-------------||
A|----------------|--0-----2---2-0-|3---------------|----------------||
E|0-----2-----3---|----------------|----------------|----------------||

  5/4 time
G|------------------------|------------------------|
D|2222-2222-2222-2222-----|----------------------0-|
A|--------------------7-5-|3333-3333-3333-3333-3---|
E|------------------------|------------------------|
  \3/  \3/  \3/  \3/       \3/  \3/  \3/  \3/

G|------------------------|------------------------|
D|2222-2222-2222-2222-----|----------------------0-|
A|--------------------7-5-|3333-3333-3333-3333-3---|
E|------------------------|------------------------|
  \3/  \3/  \3/  \3/       \3/  \3/  \3/  \3/

  4/4 time
G|----------------|----------------|----------------|--------0-------|
D|----------------|----------------|------0-----2---|--4---------2---|
A|----------------|--0-----2-------|3---------------|----------------|
E|0-----2-----3---|------------3---|----------------|----------------|

G|----------------|----------------|----------------|--------0-------||
D|----------------|----------------|------0-----2---|--4-------------||
A|----------------|--0-----2-------|3---------------|----------------||
E|0-----2-----3---|----------------|----------------|----------------||

G|----------------|----------------|----------------|----------------|
D|----2---0-------|----------------|----------------|----------------|
A|------------2---|----------------|------7-7-777-77|7-777-777-777-77|
E|0---------------|0-000-000-000-00|0---------------|----------------|
  Days went by when you and I....

G|----------------|----------------|----------------|----------------|
D|----2---0-------|----------------|----------------|----------------|
A|------------2---|----------------|------7-7-777-77|7-777-777-777-77|
E|0---------------|0-000-000-000-00|0---------------|----------------|

G|----------------|----------------|----------------|----------------|
D|----2---0-------|----------------|----------------|----------------|
A|------------2---|----------------|------7-7-777-77|7-777-777-777-77|
E|0---------------|0-000-000-000-00|0---------------|----------------|

G|----------------|----------------|----------------|----------------|
D|----2---0-------|----------------|----------------|----------------|
A|------------2---|----------------|------7-7-777-77|7-777-777-777-77|
E|0---------------|0-000-000-000-00|0---------------|----------------|

G|----------------|----------------|----------------|----------------|
D|----------------|----------------|----------------|----------------|
A|----7---7---7---|7-777-7755-5-567|----7---7---7---|7-777-777-777-77|
E|0-00--00--00--0-|----------------|0-00--00--00--0-|----------------|

G|----------------|----------------|----------------|----------------|
D|----------------|----------------|----------------|----------------|
A|----7---7---7---|7-777-7755-5-567|----7---7---7---|----------------|
E|0-00--00--00--0-|----------------|0-00--00--00--0-|0-000-000-000-00|

G|----------------|----------------|----------------|----------------|
D|----------------|----------------|----------------|----------------|
A|------5-----2---|----------------|------7-7-777-77|7-777-777-777-77|
E|0---------------|0-000-000-000-00|0---------------|----------------|
  Wandering and wondering....

G|----------------|----------------|----------------|----------------|
D|----------------|----------------|----------------|----------------|
A|------5-----2---|----------------|------7-7-777-77|7-777-777-777-77|
E|0---------------|0-000-000-000-00|0---------------|----------------|

G|----------------|----------------|----------------|----------------|
D|----------------|----------------|----------------|----------------|
A|------5-----2---|----------------|------7-7-777-77|7-777-777-777-77|
E|0---------------|0-000-000-000-00|0---------------|----------------|

G|----------------|----------------|----------------|----------------|
D|----------------|----------------|----------------|----------------|
A|------5-----2---|----------------|------7-7-777-77|7-777-777-777-77|
E|0---------------|0-000-000-000-00|0---------------|----------------|

G|----------------|----------------|----------------|--------0-2-3-4-|
D|----------------|----------------|------0-----2---|--4-------------|
A|----------------|--0-----2---2---|3---------------|----------------|
E|0-----2-----3---|----------------|----------------|----------------|

G|----------------|----------------|----------------|--------0-2-3-4-|
D|----------------|----------------|------0-----2---|--4-------------|
A|----------------|--0-----2---2---|3---------------|----------------|
E|0-----2-----3---|----------------|----------------|----------------|

G|----------------|----------------|----------------|--------0---2-4-|
D|----------------|----------------|------0-----2---|--4-------------|
A|----------------|--0-----2---2---|3---------------|----------------|
E|0-----2-----3---|----------------|----------------|----------------|

G|----------------|----------------|----------------|--------0---2-4-||
D|----------------|----------------|------0-----2---|--4-------------||
A|----------------|--0-----2---2---|3---------------|----------------||
E|0-----2-----3---|----------------|----------------|----------------||

  5/4 time
G|------------------------|------------------------|
D|2222-2222-2222-2222-----|----------------------0-|
A|--------------------7-5-|3333-3333-3333-3333-3---|
E|------------------------|------------------------|
  \3/  \3/  \3/  \3/       \3/  \3/  \3/  \3/

G|------------------------|------------------------|
D|2222-2222-2222-2222-----|----------------------0-|
A|--------------------7-5-|3333-3333-3333-3333-3---|
E|------------------------|------------------------|
  \3/  \3/  \3/  \3/       \3/  \3/  \3/  \3/

  4/4 time
G|----------------|----------------|----------------|--------0-2-3-4-|
D|----------------|----------------|------0-----2---|--4-------------|
A|----------------|--0-----2-------|3---------------|----------------|
E|0-----2-----3---|------------3---|----------------|----------------|

G|----------------|----------------|----------------|--------0---4---|
D|----------------|----------------|------0-----2---|--4-------------|
A|----------------|--0-----2-------|3---------------|----------------|
E|0-----2-----3---|------------3---|----------------|----------------|

G|----------------|----------------|----------------|----------------|
D|----------------|----------------|----------------|----------------|
A|----7---7---7---|7-777-7755-5-567|----7---7---7---|7-777-777-777-77|
E|0-00--00--00--0-|----------------|0-00--00--00--0-|----------------|

G|----------------|----------------|----------------|----------------||
D|----------------|----------------|----------------|----------------||
A|----7---7---7---|7-777-7755-5-567|----7---7---7---|7-777-777-777-77||
E|0-00--00--00--0-|----------------|0-00--00--00--0-|----------------||

G| ----------------|----------------|----------------|---------------- |
D|o----------------|----------------|----------------|----------------o|
A|o--------0---2---|----------------|--------0---2---|----------------o| Play 6
E| 00000--0--------|00000-0---0-0---|00000--0--------|00000-0---0-0--- | times

G|----------------|----------------|------------2---|--4-----0-2-3-4-|
D|----------------|----------------|------0---------|----------------|
A|----------------|--0-----2---2---|3---------------|----------------|
E|0-----2-----3---|----------------|----------------|----------------|

G|----------------|----------------|------------2---|--4-----0-2-3-4-|
D|----------------|----------------|------0---------|----------------|
A|----------------|--0-----2---2---|3---------------|----------------|
E|0-----2-----3---|----------------|----------------|----------------|

G|----------------|----------------|----------------|--------0-2-3-4-|
D|----------------|----------------|------0---0-2---|2-4---4---------|
A|----------------|--0-----2---2---|3---3-----------|----------------|
E|0-----2-----3---|----------------|----------------|----------------|

G|----------------|----------------|----------------|--------0-2-3-4-||
D|----------------|----------------|------0---0-2---|2-4---4---------||
A|----------------|--0-----2---2---|3---3-----------|----------------||
E|0-----2-----3---|----------------|----------------|----------------||

  5/4 time
G|------------------------|------------------------|
D|2222-2222-2222-2222-----|----------------------0-|
A|--------------------7-5-|3333-3333-3333-3333-3---|
E|------------------------|------------------------|
  \3/  \3/  \3/  \3/       \3/  \3/  \3/  \3/

G|------------------------|------------------------|
D|2222-2222-2222-2222-----|----------------------0-|
A|--------------------7-5-|3333-3333-3333-3333-3---|
E|------------------------|------------------------|
  \3/  \3/  \3/  \3/       \3/  \3/  \3/  \3/

G|------------------------|------------------------|
D|2222-2222-2222-2222-----|----------------------0-|
A|--------------------7-5-|3333-3333-3333-3333-3---|
E|------------------------|------------------------|
  \3/  \3/  \3/  \3/       \3/  \3/  \3/  \3/

G|------------------------|------------------------||
D|2222-2222-2222-2222-----|----------------------0-||
A|--------------------7-5-|3333-3333-3333-3333-3---||
E|------------------------|------------------------||
  \3/  \3/  \3/  \3/       \3/  \3/  \3/  \3/

  4/4 time
G|----------------|----------------|----------------|----------------|
D|----------------|----------------|----------------|----------------|
A|----7---7---7---|7-777-7755-5-567|----7---7---7---|7-777-777-777-77|
E|0-00--00--00--0-|----------------|0-00--00--00--0-|----------------|

G|----------------|----------------|----------------|----------------||
D|----------------|----------------|----------------|----------------||
A|----7---7---7---|7-777-7755-5-567|----7---7---7---|7-777-777-777-77||
E|0-00--00--00--0-|----------------|0-00--00--00--0-|----------------||

G| ----------------|----------------|----------------|---------------- |
D|o----------------|----------------|----------------|----------------o|
A|o--------0---2---|----------------|--------0---2---|----------------o| Play 4
E| 00000--0--------|00000-0---0-0---|00000--0--------|00000-0---0-0--- | Times

G|----------------|----------------|----------------|----------------|
D|----------------|----------------|----------------|----------------|
A|----7---7---7---|7-777-7755-5-567|----7---7---7---|7-777-777-777-77|
E|0-00--00--00--0-|----------------|0-00--00--00--0-|----------------|

G|----------------|----------------|----------------|----------------||
D|----------------|----------------|----------------|----------------||
A|----7---7---7---|7-777-7755-5-567|----7---7---7---|7-777-777-777-77||
E|0-00--00--00--0-|----------------|0-00--00--00--0-|----------------||

G|----------------|----------------|----------------|----------------|
D|----------------|----------------|----------------|----------------|
A|2---------------|(2)-------------|----------------|----------------| Repeat
E|----------------|--------------0-|(0)-------------|----------------| to fade
****************************************************************************

2.For Your Life

G|--|----------------|----------------|----------------|----------------|
D|--|----------------|----------------|----------------|----------------|
A|--|----------3-13--|----------------|----------3-13--|----------------|
E|3-|(3)-3---------3-|(3)-3---------3-|(3)-3---------3-|(3)-----------3-|

G|----------------|----------------|----------------|----------------|
D|----------------|----------------|----------------|----------------|
A|----------3-13--|----------------|----------3-13--|----------3-113-|
E|(3)-----------3-|(3)-----------3-|(3)-----------3-|(3)-------------|

G|----------------|----------------|----------------|----------------|
D|----------------|----------------|----------------|----------------|
A|-31133--33----3-|-33113313-------|----------3-13--|----------3-103-|
E|----------------|--------------3-|(3)-3---------3-|(3)-------------|
  You said I was the only....

G|----------------|----------------|----------------|----------------|
D|----------------|----------------|----------------|----------------|
A|(3)-33--33----3-|(3)-3313--------|----------3-13--|----------3-103-|
E|----------------|--------------3-|(3)-----------3-|(3)-------------|

G|----------------|----------------|----------------|----------------|
D|----------------|----------------|----------------|----------------|
A|(3)-33--33----3-|(3)-3313--------|----------3-13--|----------3-10--|
E|----------------|--------------3-|(3)-----------3-|(3)-----------3-|

G|----------------|----------------|----------------|----------------|
D|1--11---13-3----|----------------|1--11---13-3----|----------------|
A|------------01--|13-3------------|------------01--|13-3------------|
E|----------------|----33----------|----------------|----33--------3-|

G|----------------|----------------|----------------|----------------|
D|----------------|----------------|----------------|----------------|
A|----------3-13--|----------------|----------3-13--|----------------|
E|(3)-----------3-|(3)-----------3-|(3)-----------3-|(3)-----------3-|

G|----------------|----------------|----------------|----------------|
D|----------------|----------------|----------------|----------------|
A|----------3-13--|----------------|----------3-13--|------------313-|
E|(3)-----------3-|(3)-----------3-|(3)-----------3-|(3)-3-----3-----|

G|----------------|----------------|----------------|----------------|
D|----------------|----------------|----------------|----------------|
A|(3)-33--33----3-|(3)-3--3--------|----------3-13--|----------3-103-|
E|----------------|-----03-------3-|(3)-----------3-|(3)-------------|

G|----------------|--3-2-0---------|----------------|----------------|
D|----------------|----------------|----------------|----------------|
A|(3)-33--33----3-|-3-3-3-3--------|----------3-13--|----------3-103-|
E|----------------|--------------3-|(3)-----------3-|(3)-------------|

G|----------------|----------------|----------------|----------------|
D|----------------|----------------|----------------|----------------|
A|3---33--33----3-|-3---013--------|----------3-13--|----------3-10-1|
E|----------------|--0-3---------3-|(3)-----------3-|(3)-----------3-|

                                    5/4 time
G|----------------|----------------|--------------------|
D|1--11---13-3----|----------------|1--11---13-3--------|
A|------------01--|13-3------------|------------1---13-3|
E|----------------|----33----------|--------------------|

  4/4 time
G|----------------|----------------|----------------|----------------|
D|------5-3-32----|--53--2---------|------5-3-32----|--53--2---------|
A|0-------------0-|--------------0-|--------------0-|--------------0-|
E|----------------|----------------|----------------|----------------|

G|----------------|----------------|----------------|-----------5----|
D|------5-3-32----|--53--2---------|------5-3-32----|--53--2-567-7567|
A|--------------0-|--------------0-|--------------0-|----------------|
E|----------------|----------------|----------------|----------------|
                                                             3/ 3/

  3/4 time     4/4 time
G|5-----------|----------------|----------------|----------------|
D|--7---------|------------3--2|--0-------------|------------3--2|
A|------------|----------------|-----3--10------|----------------|
E|------3-----|(3)-------------|----------313333|13--------------|

                                                                      3/4 time
G|----------------|----------------|----------------|----------------|------------|
D|--0-------------|------------3--2|--0-------------|------------3--2|--0---------|
A|-----3--10------|----------------|-----3--10------|----------------|-----3--10--|
E|----------313333|13--------------|----------313333|13--------------|----------31|

  4/4 time
G|----------------|----------------|----------------|----------------|
D|----------------|----------------|----------------|----------------|
A|----------------|----------------|----------------|----------------|
E|3---3---5-53--3-|(3)-----------3-|(3)-----5-53--3-|(3)-----------3-|

                                    2/4 time 4/4 time
G|----------------|-----------3----|3-------|----------------|
D|----------------|--------345-5345|--5-----|----------------|
A|----------------|----------------|--------|----------------|
E|(3)-----5-53--3-|(3)-------------|------3-|(3)-----5-53--3-|
                           3/  3/

G|----------------|----------------|----------------|----------------|
D|----------------|----------------|----------------|----------------|
A|----------------|----------------|----------------|----------------|
E|(3)-----------3-|(3)-----5-53--3-|(3)-----------3-|(3)-----5-53--3-|

                                                     2/4 time
G|----------------|----------------|-----------3----|3-------|
D|----------------|----------------|--------345-5345|--5-----|
A|----------------|----------------|----------------|------0-|
E|(3)-----------3-|(3)-----5-53--3-|(3)-------------|--------|
                                            3/  3/

  4/4 time
G|----------------|----------------|----------------|----------------|
D|------5-3-32----|--53-2----------|------5-3-32----|--53--2---------|
A|(0)-----------0-|--------------0-|(0)-----------0-|--------------0-|
E|----------------|----------------|----------------|----------------|

                                                                      3/4 time
G|----------------|----------------|----------------|-----------5----|5-----------|
D|------5-3-32----|--53--2---------|------5-3-32----|-53--32-567-7567|--7---------|
A|(0)-----------0-|--------------0-|(0)-----------0-|----------------|------------|
E|----------------|----------------|----------------|----------------|------3-----|
                                                             3/  3/

  4/4 time
G|----------------|----------------|----------------|----------------|
D|------------3--2|--0-------------|------------3--2|--0-------------|
A|----------------|-----3--10------|----------------|-----3--10------|
E|(3)-------------|----------313333|13--------------|----------313333|

                                                     3/4 time
G|----------------|----------------|----------------|------------||
D|------------3--2|--0-------------|------------3---|--0---------||
A|----------------|-----3--10------|----------------|-----3--10--||
E|13--------------|----------313333|13--------------|----------30||

  Guitar Solo
  4/4 time
G|----------------|----------------|----------------|----------------|
D|----------------|----------------|----------------|----------------|
A|----------------|----------------|----------------|----------------|
E|3---3---5-53--3-|(3)-----------3-|(3)-----5-53--3-|(3)-----------3-|

G|----------------|----------------|----------------|----------------|
D|----------------|----------------|----------------|----------------|
A|----------------|----------------|----------------|----------------|
E|(3)-----5-53--3-|(3)-----------3-|(3)-----5-53--3-|(3)-------------|

                   5/8 time   4/4 time
G|-------3----3---|---3------|----------------|----------------|
D|----345-5345--5-|345-5-----|----------------|----------------|
A|----------------|----------|----------------|----------------|
E|----------------|--------3-|(3)-----5-53--3-|(3)-----------3-|
      3/  3/     3/

G|----------------|----------------|----------------|----------------|
D|----------------|----------------|----------------|----------------|
A|----------------|----------------|----------------|----------------|
E|(3)-----5-53--3-|(3)-----------3-|(3)-----5-53--3-|(3)-----------3-|

                                    2/4 time 4/4 time
G|----------------|-----------3----|3-------|----------------|
D|----------------|--------345-5345|--5-----|----------------|
A|----------------|----------------|--------|----------3-13--|
E|(3)-----5-53--3-|(3)-------------|------3-|(3) 3---------3-|
                           3/  3/

G|----------------|----------------|----------------|----------------|
D|----------------|----------------|----------------|----------------|
A|----------------|----------3-13--|----------------|----------3-13--|
E|(3)-----------3-|(3)-----------3-|(3)-----------3-|(3)-----------3-|

G|----------------|----------------|----------------|----------------|
D|----------------|----------------|----------------|----------------|
A|----------------|----------3-13--|----------3-103-|3---33--33----3-|
E|(3)-----------3-|(3)-----------3-|(3)-------------|----------------|

G|----------------|----------------|----------------|----------------|
D|----------------|----------------|----------------|----------------|
A|(3)-3313--------|----------3-13--|----------3-103-|(3)-33--33----3-|
E|--------------3-|(3)-----------3-|(3)-------------|----------------|

G|----------------|----------------|----------------|----------------|
D|----------------|----------------|----------------|----------------|
A|(3)-3--3--------|----------3-13--|----------3-10--|3---33--33----3-|
E|-----03-------3-|(3)-----------3-|(3)-------------|----------------|

G|----------------|----------------|----------------|----------------|
D|----------------|----------------|----------------|1--11---13-3----|
A|-3---013--------|----------3-13--|----------3-10--|------------01--|
E|--0-3---------3-|(3)-----------3-|(3)-----------31|----------------|

G|----------------|----------------|----------------|----------------|
D|----------------|1--11---13-3----|----------------|1--11---13-3----|
A|13-3------------|------------01--|13-3------------|------------01--|
E|----33----------|----------------|----33----------|----------------|

G|----------------|----------------|----------------|----------------||
D|----------------|1--11---13-3----|----------------|----------------||
A|13-3------------|------------0---|13-3------------|----------------||
E|----33----------|----------------|----13----------|(3)-------------||
****************************************************************************

3.Royal Orleans

G---------0-------0-----0---------------0-------0-----0-----------|
D---2-4-2---2-4-2---2-4---4-2-----2-4-2---2-4-2---2-4---4-2-------|
A-----------------------------4-0---------------------------4-0---|
E-----------------------------------------------------------------|

VERSES
G-------------------------------------------------------------|
D---4p2-2-2-2-2-0-4p2-2-2-2-2-0-4p2-2-2-2-2-0-4p2-2-2-2-2-0---|
A-------------------------------------------------------------|
E-------------------------------------------------------------|

G-------------------------------------------------------------|
D---4p2-2-2-2-2-0-4p2-2-2-2-2-0-4p2-2-2-2-2-0-4p2-2-2-2-2-0---|
A-------------------------------------------------------------|
E-------------------------------------------------------------|
****************************************************************************

4.Nobody's Fault But Mine

This comes after the intro:

G|----------------------------------------|--------------------------|
D|--2p0-0--------------2p0-0--------------|--------------------------|
A|--------2p0-0--------------2p0-0----0---|--5p0-0-5p0-0-5-------7-7-|repeat
E|--------------3b-0---------------3b-----|----------------0-0-0-----| |--|

Main Riff:

G|------------------------------------------------------------------------|
D|------------------------------------------------------------------------|
A|--5p0-0-5p0-0-5-------7-7---5p0-0-5p0-0-5-------7-7---------------------|
E|----------------0-0-0---------------------0-0-0------2-3--3/5-5--555555-|
 nobody's fault but mine    nobody's fault but mine    try...soul tonight
****************************************************************************

5. Candy Store Rock

Intro:
G|----------------|----------------|----------------|----------------|
D|----------------|----------------|----------------|----------------|
A|----------------|----------------|----------------|----------------|
E|----------------|----------------|----------------|----------------|
 
G|----------------|----------------||
D|----------------|----------------||
A|----------------|----------------||
E|----------------|----------------||
 
  D.S.
G|----------------|----------------|----------------|----------------|
D|----------------|----------------|----------------|-----------7-77-|
A|-----------3-55-|-----------5-53-|-----------3-35-|----------------|
E|--3-5-3-5-------|--3-5-3-5-------|--3-5-3-5-------|--3-5-----------|
  Oh baby.....
 
G|----------------|----------------|----------------|----------------|
D|----------------|----------------|----------------|----------------|
A|-----------3-35-|-----------5-53-|-----------3-35-|----------------|
E|5-3-5-3-5-------|--3-5-3-5-------|--3-5-3-5-------|--3-5-----------|
 
G|----------------|----------------|----------------|----------------|
D|----------------|----------------|----------------|----------------|
A|------3--32-----|------3-332-----|------3-332-----|------3-332-----|
E|--3-5-------5-3-|5-3-5-------5-3-|5-3-5-------5-3-|5-3-5-------5-3-|
 
G| ----------------|----------------|----------------|----------------|
D|o----------------|----------------|----------------|-----------7-77-|
A|o-----------3-55-|-----------5-53-|-----------3-35-|----------------|
E| --3-5-3-5-------|--3-5-3-5-------|--3-5-3-5-------|--3-5-----------|
 
                                                              to Coda
G|----------------|----------------|----------------|----------------|
D|----------------|----------------|----------------|----------------|
A|-----------3-35-|-----------5-53-|-----------3-35-|----------------|
E|5-3-5-3-5-------|--3-5-3-5-------|--3-5-3-5-------|--3-5-----------|
                                                     _________________ ________________
                                                    |1.               |2.              |
G|----------------|----------------|----------------|---------------- |----------------||
D|----------------|----------------|----------------|----------------o|----------------||
A|------3--32-----|------3-332-----|------3-332-----|------3-332-----o|------3--32-----||
E|--3-5-------5-3-|5-3-5-------5-3-|5-3-5-------5-3-|5-3-5-------5-3- |5-3-5-------5-3-||
 
 
G|----------------|----------------|----------------|----------------|
D|----------------|----------------|----------------|-----------7-77-|
A|-----------3-55-|-----------5-53-|-----------3-35-|----------------|
E|--3-5-3-5-------|--3-5-3-5-------|--3-5-3-5-------|--3-5-----------|
 
G|----------------|----------------|----------------|----------------|
D|----------------|----------------|----------------|----------------|
A|-----------3-35-|-----------5-53-|-----------3-35-|----------------|
E|5-3-5-3-5-------|--3-5-3-5-------|--3-5-3-5-------|--3-5-----------|
 
G|----------------|----------------|----------------|----------------|
D|----------------|----------------|----------------|----------------|
A|------3--32-----|------3-332-----|------3-332-----|------3-332-----|
E|--3-5-------5-3-|5-3-5-------5-3-|5-3-5-------5-3-|5-3-5-------5-3-|
 
G|----------------|----------------|----------------|----------------|
D|----------------|----------------|----------------|----------------|
A|----------------|----------------|----------------|----------------|
E|33-3133---------|13-33133--------|-33-3133--------|13-33133--------|
 
                                                                          D.S. al Coda
G|----------------|----------------|----------------|----------------|----------------||
D|----------------|----------------|----------------|----------------|----------------||
A|----------------|----------------|----------------|----------------|----------------||
E|33-3133---------|13-33133--------|-33-3133--------|13-33133--------|13-33133----013-||
 
  CODA
G|----------------|----------------|----------------|----------------|
D|----------------|----------------|----------------|----------------|
A|------3--32-----|------3-332-----|------3-332-----|------3-332-----|
E|--3-5-------5-3-|5-3-5-------5-3-|5-3-5-------5-3-|5-3-5-------5-3-|
 
G|----------------|----------------|----------------|----------------|
D|----------------|----------------|----------------|----------------|
A|----------------|----------------|----------------|----------------|
E|33-3133---------|13-33133--------|-33-3133--------|13-33133--------|
 
G|----------------|----------------|----------------|----------------||
D|----------------|----------------|----------------|----------------||
A|----------------|----------------|----------------|----------------||
E|33-3133---------|13-33133--------|-33-3133--------|13-33133--------||
 
G| ----------------|----------------|----------------|---------------- |
D|o-----33---------|-3-3--3----232--|----------------|----------------o|
A|o---3------------|--------------30|-----------3-35-|-----------5-53-o| Repeat
E| 11--------------|----------------|553-5-3-5-------|--3-5-3-5------- | 5 times
 
G|----------------|----------------|----------------|----------------||
D|-----33---------|-3-3--3----232--|----------------|----------------||
A|---3------------|-----3--------30|-----------3-35-|----------------||
E|11--------------|----------------|553-5-3-5-------|--3-5-3-5-------||
****************************************************************************

6.Hots On For Nowhere

G|----------------|----------------|----------------|----------------|
D|----------------|------2---------|------2---------|------2---------|
A|----------------|5-4424----------|5-4424----------|5-4424-5-7---242|
E|----------------|-------0--------|-------0--------|-----------34---|
                                                                I was
                                                                
G|----------------|----------------|----------------|----------------|
D|------2---------|------2---------|------2---------|------2---------|Repeat
A|5-4424----------|5-4424-5-7---242|5-4424----------|5-4424-5-7---242| twice
E|-------0--------|-----------34---|-------0--------|-----------34---|
  burned in the.....

G|----------------|----------------|----------------|
D|---245---245---2|42-----24----245|---245---24-----|
A|-34----34----34-|--34034--0-34---|-34----34--03403|
E|----------------|----------------|----------------|

G|----------------|----------------|----------------|----------------|
D|------2---------|------2---------|------2---------|------2---------|Repeat
A|5-4424----------|5-4424-5-7---242|5-4424----------|5-4424-5-7---242| twice
E|-------0--------|-----------34---|-------0--------|-----------34---|
  Corner of Bleeker.....

G|----------------|----------------|----------------|
D|---245---245---2|42-----24----245|---245---24-----|
A|-34----34----34-|--34034--0-34---|-34----34--03403|
E|----------------|----------------|----------------|

G|----------------|----------------|----------------|----------------|
D|------2---------|------2---------|------2---------|------2---------|Repeat
A|5-4424----------|5-4424-5-7---242|5-4424----------|5-4424-5-7---242| twice
E|-------0--------|-----------34---|-------0--------|-----------34---|

G|----------------|----------------|----------------|----------------|
D|----------------|----------------|----------------|----------------|
A|7------5--------|----0--00-2-4567|(7)----5--------|----0--00-2-4567|
E|---------------5|(5)-------------|---------------5|(5)-------------|

G|----------------|----------------|----------------|----------------|
D|----------------|-------45-452---|----------------|-------4554-----|
A|(7)----5--------|----0--------447|(7)----5--------|----0-------7-6-|
E|---------------5|(5)-------------|---------------5|(5)-------------|

G|----------------|----------------|----------------|----------------|
D|------2---------|------2---------|------2---------|------2---------|Repeat
A|5-4424----------|5-4424-5-7---242|5-4424----------|5-4424-5-7---242| twice
E|-------0--------|-----------34---|-------0--------|-----------34---|
  (Guitar Solo)

G|----------------|----------------|----------------|
D|---245---245---2|42-----24----245|---245---24-----|
A|-34----34----34-|--34034--0-34---|-34----34--03403|
E|----------------|----------------|----------------|

G|----------------|----------------|----------------|----------------|
D|------2---------|------2---------|------2---------|------2---------|Repeat
A|5-4424----------|5-4424-5-7---242|5-4424----------|5-4424-5-7---242| twice
E|-------0--------|-----------34---|-------0--------|-----------34---|
  Lost on the path to attainment.....

G|----------------|----------------|----------------|----------------|
D|----------------|----------------|----------------|----------------|Repeat
A|7------5--------|----0--00-2-4567|(7)----5--------|----0--00-2-4567| twice
E|---------------5|(5)-------------|---------------5|(5)-------------|

                   3/4 time     4/4 time         3/4 time     4/4 time
G|----------------|------------|----------------|------------|----------------|
D|----------------|------------|----------------|------------|----------------|
A|----------------|-----------0|(0)-------------|------------|0--------------7|
E|----------------|------------|----------------|------------|----------------|

G|----------------|----------------|----------------|----------------|
D|----------------|-------45-4-22--|----------------|---------2-42---|Repeat
A|(7)----5--------|--------------47|(7)----5--------|-------4-----447| twice
E|---------------5|(5)-------------|---------------5|(5)-------------|

  4/4 time         3/4 time         4/4 time         3/4 time
G|----------------|------------|----------------|------------|
D|----------------|------------|----------------|------------|
A|----------------|-----------0|(0)-------------|------------|
E|----------------|------------|----------------|------------|

  4/4 time
G|----------------|
D|----------------|
A|0---------------|
E|----------------|

****************************************************************************

7.Tea For One

4/4 time
G|----------------|----------------|
D|----------------|----------------|
A|----------------|----------------|
E|----------------|----------------|

G|----------------|----------------|----------------|----------------|
D|--03----03------|----03----03----|------03----03--|--------03----03|
A|01----01----010-|--01----01----01|0---01----01----|010---01----01--|
E|---------------3|13--------------|-313------------|---313----------|

                   7/8 time
G|----------------|--------------|
D|----------03----|03----------0-|
A|--010---01----01|----010---01--|
E|-----313--------|-------313----|

  12/8 time
G|------------------------|------------------------|
D|------------------------|------------------------|
A|------------------------|------------1-----------|
E|3-----------3---------3-|3-----------------------|

G|------------------------|------------------------|
D|------------------------|------------------------|
A|3-----------3-----------|3-----------3-----3-3---|
E|----------3-------------|----------------------3-|

G|------------------------|------------------------|
D|------------3-----------|3-----------3-----------|
A|----------3-------------|----------3-------------|
E|1-----------------------|------------------------|

G|------------------------|------------------------|
D|------------------------|------------------------|
A|3-----------3-----------|3-----------3-----------|
E|----------3-------------|----------3-------------|

G|------------------------|------------------------|
D|------------------------|------------------------|
A|----------5-------5-----|------------1---------2-|
E|1---3-------3-------3-2-|1-----------------------|

G|------------------------|------------------------|
D|------------------------|------------------------|
A|3-----------3-----------|3-----3---------------1-|
E|----------------------3-|------------3-------3---|

G|------------------------|------------------------|
D|------------------------|------------------------|
A|3-----3-----3-----0-----|3---3-------3-----------|
E|------------------------|------------------------|
  How come twenty-four.....

G|------------------------|------------------------|
D|------------------------|------------------------|
A|3---3-------3-----------|3---3-------3-----------|
E|------------------------|----------------------3-|

G|------------------------|------------------------|
D|----3-------------------|------------------------|
A|----------------3-35----|3---3-------------5-----|
E|1-----------1-----------|------------1-----------|

G|------------------------|------------------------|
D|------------------------|------------------------|
A|3---3-------------5-----|3---3-------3-----------|
E|------------------------|------------------------|

G|------------------------|------------------------|
D|------------------------|------------------------|
A|------------------------|--------3-2-1---------1-|
E|1---3-----------------3-|1-----------------------|

G|------------------------|------------------------|
D|------------------------|------------------------|
A|3-----------3-----------|3-----------3-----------|
E|----------------------3-|------------------3-----|

G|------------------------|--------------3-5-------|
D|------------------------|------------------3-5-1-|
A|1---3-------------------|1---3-------------------|
E|------------------------|------------------------|
  Sitting looking at the clock.....

G|------------------------|--------------3-5-------|
D|------------------------|------------------3-5-1-|
A|1---3-------------------|1---3-------------------|
E|------------------------|------------------------|

G|------------------------|--------------3-5-------|
D|1---3-------------------|1---3-------------3-5-1-|
A|------------------------|------------------------|
E|------------------------|------------------------|

G|------------------------|--------------3-5-------|
D|------------------------|------------------3-5-1-|
A|1---3-------------------|1---3-------------------|
E|------------------------|------------------------|

G|------------------------|------------------------|
D|------------------5-----|------------------------|
A|------------------------|-----------1----------2-|
E|1---3---------------3-2-|1--------1--------------|

G|------------------------|------------------------|
D|------------------------|------------------------|
A|3-----------3---------1-|3-----3-------------1-2-|
E|----------3---------3---|------------3-----3-----|

G|------------------------|------------------------|
D|------------------------|------------------------|
A|3-----3-----3-----3-----|------------------------|
E|------------------------|1-----------------------|

G|------------------------|------------------------|
D|------------------------|------------------------|
A|3-----3-----3-----3-----|3-----------------------|
E|------------------------|------------------------|

G|------------------------|------------------------|
D|------------------------|3---3-------------------|
A|------------------5-----|------------------------|
E|1-----------------------|------------1-----35----|

G|------------------------|------------------------|
D|------------------------|------------------------|
A|3---3-------------35----|3---3-------------3---3-|
E|------------------------|------------------------|
  (Guitar Solo)

G|------------------------|------------------------|
D|------------5-----------|------------------------|
A|------------------------|------------1-----------|
E|1---3-------------3-----|1-----1-----------------|

G|------------------------|------------------------|
D|------------------------|------------------------|
A|3-----------3-----------|3---------------------1-|
E|----------3-------3-----|------------3-------3---|

G|------------------------|------------------------|
D|------------------------|------------------------|
A|3---3-------------35----|3---3-------------35----|
E|------------------------|------------------------|

G|------------------------|------------------------|
D|------------------------|------------------------|
A|3---3-------3-----35----|3---3-------3-----35----|
E|----------3-------------|----------3-------------|

G|------------------------|------------------------|
D|------------3-----35----|3---3-------3-----35----|
A|----------3-------------|----------3-------------|
E|1---1-------------------|------------------------|

G|------------------------|--------------------5---|
D|------------------------|------------------------|
A|3---3-------3-----35----|3---3-------3-----3-----|
E|----------3-------------|----------3-----------5-|

G|------------------------|------------------------|
D|------------5-----------|------3-----------------|
A|----------5-------------|-----------31-----------|
E|1---3-------------3---2-|1---1-------------------|

G|------------------------|------------------------|
D|------------------5-----|------------------------|
A|3-----3-----3-----------|3-----------------------|
E|----------3-----------3-|------------3-----3---3-|

G|------------------------|--------------3-5-------|
D|------------------------|------------------3-5-1-|
A|1---3-------------------|1---3-------------------|
E|------------------------|------------------------|
  To sing a song for you.....

G|------------------------|--------------3-5-------|
D|------------------------|------------------3-5-1-|
A|1---3-------------------|1---3-------------------|
E|------------------------|------------------------|

G|------------------------|--------------3-5-------|
D|1---3-------------------|1---3-------------3-5-1-|
A|------------------------|------------------------|
E|------------------------|------------------------|

G|------------------------|--------------3-5-------|
D|------------------------|------------------3-5-1-|
A|1---3-------------------|1---3-------------------|
E|------------------------|------------------------|

G|------------------------|------------------------|
D|------------5-----------|------------------------|
A|------------------------|--------------1-----1-2-|
E|1---3-------------3-----|1-----------------------|

G|------------------------|------------------------|
D|--------------------5---|------------------------|
A|3-----------3-----------|3---------3-----------1-|
E|----------3-----------3-|------------3-----3-----|

G|------------------------|------------------------|
D|------------------------|------------------------|
A|3-----3-----------35--5-|3---3-------------------|
E|------------------------|------------------------|

G|------------------------|--------------3-5-------|
D|------------------------|------------------3-5-1-|
A|3---3-------------35----|3---3-------------------|
E|------------------------|------------------------|

G|------------------------|--------------3-5-------|
D|3---3-------------35----|------------------3-5-1-|
A|----------------------3-|------------------------|
E|------------------------|1---1-------------------|

G|------------------------|--------------3-5-------|
D|------------------------|------------------3-5-1-|
A|3---3-------------35----|3---3-------------------|
E|------------------------|------------------------|

G|------------------------|------------------------|
D|------------5-----------|------------------------|
A|-----------------5------|--------3-2-1---------2-|
E|1---3-------------3----2|1-----------------------|

G|------------------------|------------------------|
D|------------------------|------------------------|
A|3-------3---3-----3-3---|3-----------3-----3-1---|
E|----------3-----------3-|----------3-----------1-|

G|------------------------|------------------------|
D|------------5-------5---|------------------------|
A|----------5-------------|-----------01-------1-2-|
E|1---3-------------3---2-|1-----1-----------------|

G|--------------------3---|------------------------|
D|----------------------5-|------------------------|
A|3-----3-----3-----------|3-------3---3----03-----|
E|----------3-------------|----------3---------1-3-|

G|------------------------|------------------------|
D|------------5-----------|------------------------|
A|-----------5-----5--5---|----------321-----1---1-|
E|1---3-------------3---2-|1-----1-----------------|

G|------------------------|------------------------|
D|------------------------|------------------------|
A|3-----3-----5---3-----3-|5---3-5----3------------|
E|------------------------|------------------------|

G|------------------------|
D|------------------------|
A|------------------------|
E|------------------------|
comments
We did not receive enough feedback on this tab! Please rate:
1 2 3 4 5
2 comments total.
0 reply
Maitinin wrote on December 3 2008, 11:52 am

Okay dude, I'll make the same comment here as I did for your newly posted Houses of the Holy tab.

0 reply
frenchabortion wrote on December 3 2008, 11:32 pm

again cpoypasta from the 5 star tabs

I want to post or [tab]
guest
You may want to rate the tab now too:
select rating
Please do not post tabs as comments. Select "correction" instead!