Oops, an error
Loading. Please wait.

Presence Tab

11,945 views 12 this week
3 commentsread comments
1 2 3 4 5
accurate
x 6
add to favorites launch autoscroll
font size
0
reset
Autoscroll
+/-
esc
set tempo
stop
Contributor
Difficulty
advanced
WARNING: You are trying to view
                                    content from Ultimate-Guitar.com
                                    in an unauthorized application,
                                    which is prohibited.

                                    Please use an official Ultimate
                                    Guitar Tabs application for iPhone,
                                    iPad or Android to access legitimate
                                    chords, guitar, bass, and drum tabs
                                    from Ultimate-Guitar.com database.

                                    Type "ultimate guitar tabs" in Apple
                                    App Store's or Android Market's
                                    search to find the application.
Tabbed by Taz Mckell.
For Mark Dalgarno.


ACHILLES LAST STAND
Led Zeppelin
"Presence"

(Page, Plant)

INTRO:(Let bottom note ring throughout, and open G (when it is played))
e:-------------2p0----------|--------------2p0--------------------|
B:----------3------3p0------|-----------3-------3p0---------------|
G:-0------0-------------0---|--0------2--------------0------------|
D:------4-------------------|-------4-----------------------------|
A:----2---------------------|-----4-------------------------------|
E:-0------------------------|--2----------------------------------|

[Intro2]
e:----------------0--------------------------------------------------|
B:------------0--(0)-------------------------------------------------|
G:--0------2---------------------------------------------------------|
D:-------4-----------------------------------------------------------|
A:-------------------------------------------------------------------|
E:--2----------------------------------------------------------------|

[Riff 1]
e:----9.-------7----7~-----------------------------7~----------------|
B:---10.-------8----8~-----------------------------7~----------------|
G:---11.-------9----9~-----------------------------7~----------------|
D:------------------------7-7--7-7-8-9--7-7--------7~----------------|
A:------------------------------------------7-7----------------------|
E:----------------------------------------------0--------------------|

[Riff 2a]
e:---------9------7~----------------5~-------------------------------|
B:--------10------8~-----------7----7~-------------------------------|
G:--------11------9~-----------7----7~-------------------------------|
D:-----------------------------7-------------------------------------|
A:-------------------------------------------------------------------|
E:---0~--------------------0~----------------------------------------|

[Riff 2b]
e:---------9------7~----------------7~-------------------------------|
B:--------10------8~-----------7----7~-------------------------------|
G:--------11------9~-----------7----7~-------------------------------|
D:-----------------------------7-------------------------------------|
A:-------------------------------------------------------------------|
E:---0~--------------------0~----------------------------------------|

[Riff 3]
e:---------------------------------------|---------|-----------------|
B:--9---7--8--9--------------------------|---------|-----------------|
G:--9---7--8--9---7-8-9-9--7-8-9--7-9----|--10~----|--10~~\----------|
D:--9---7--8--9---7-8-9-9--7-8-9--7-9----|--10~----|--10~~\----------|
A:---------------------------------------|---------|-----------------|
E:---------------------------------------|---------|-----------------|

[Ascending octave progression 1]
e:-------------------------------------------------------------------|
B:-------------------------------------------------------------------|
G:-------------------------------------------------------------------|
D:--4s5----5s7---7s9-----10-----10s12--------------------------------|
A:------7------9-----10------12--------14----------------------------|
E:-------------------------------------------------------------------|

[Ascending octave progression 2]
e:-------------------------------------------------------------------|
B:-------------------------------------------------------------------|
G:--7s9-----11----12-----12s14-----14s16-----------------------------|
D:------10-----12----14---------16--------17s12----------------------|
A:-------------------------------------------------------------------|
E:-------------------------------------------------------------------|

[Ascending octave progression 3]
e:-------------------------------------------------------------------|
B:-------------------------------------------------------------------|
G:-2s4----5----5s7---7s9-----9s11------------------------------------|
D:-----5----7------9-----10-------12s9-------------------------------|
A:-------------------------------------------------------------------|
E:-------------------------------------------------------------------|

[Ascending octave progression 4]
e:-------------------------------------------------------------------|
B:--7s8----10----10s12------13------15--------17s19---17--17~~~------|
G:------9-----11---------12------14-----16---------------------------|
D:-------------------------------------------------------------------|
A:-------------------------------------------------------------------|
E:-------------------------------------------------------------------|

[Riff 4a]
e:---(9.)---(7)-(7~)----'12--9---------------------------------------|
B:--(10.)---(8)-(8~)---'10-----10--10(b12)--10--8~-------------------|
G:--(11.)---(9)-(9~)---11--------------------------------------------|
D:-------------------------------------------------------------------|
A:-------------------------------------------------------------------|
E:-------------------------------------------------------------------|

[Riff 4b]                   rake
e:--------------------(7~)----'10---7--------------------------------|
B:--------------------(7~)---'7-------8--8s10--7---------------------|
G:--------------------(7~)---7--------------------7~-----------------|
D:--(7)-(7)-----------(7~)-------------------------------------------|
A:----------(7)-(7)--------------------------------------------------|
E:-----------------(0)-----------------------------------------------|

[Riff 4c]             rake
e:---(9.)---(7)-(7~)----'12--9-----9(b10)--9--7~---------------------|
B:--(10.)---(8)-(8~)---'10-----10------------------------------------|
G:--(11.)---(9)-(9~)---11--------------------------------------------|
D:-------------------------------------------------------------------|
A:-------------------------------------------------------------------|
E:-------------------------------------------------------------------|

[Riff 4d]                    rake
e:---------------------(7~)----'10--7----7s9--------|----------------|
B:---------------------(7~)---'7------8------10-----|----------------|
G:---------------------(7~)---7-----------------11--|--9(b11r9)--9~--|
D:--(7)-(7)------------(7~)-------------------------|----------------|
A:----------(7)-(7)---------------------------------|----------------|
E:-----------------(0)------------------------------|----------------|

[Riff 5a]
e:-------------------------------------------------------------------|
B:---------8--------7--5---7(b8)-------------------------------------|
G:--11-------9--------------------7(b9r7)----------------------------|
D:----11-------9-9------------------------9--------------------------|
A:-------------------------------------------------------------------|
E:-------------------------------------------------------------------|

[Riff 5b]
e:-------------------------------------------------------------------|
B:--8-8--------7-----------------------------------------------------|
G:------9-9-------7------9--7--9(b11)--7(b9)-------------------------|
D:----------9-------7-7-----------------------7----------------------|
A:-------------------------------------------------------------------|
E:-------------------------------------------------------------------|

[Riff 5c]
e:-9---9--------7----------------------------------------------------|
B:-------10---------8-------10------10(b12)---8(b10r8)---------------|
G:----------11--------9-9-------9----------------------9-------------|
D:-------------------------------------------------------------------|
A:-------------------------------------------------------------------|
E:-------------------------------------------------------------------|

[Riff 5d]
e:--7-7--------5-5---------------------------------------------------|
B:------8-8--------7-------8--7--8(b10)--8(b10)----------------------|
G:----------9--------7-7-------------------------11------------------|
D:-------------------------------------------------------------------|
A:-------------------------------------------------------------------|
E:-------------------------------------------------------------------|

[Riff 6a]                     [Riff 6b]
e:-------------------------|-----------------------|-----------------|
B:--8-8--------8(b10r8)----|--7-7--------7(b8r7)---|-----------------|
G:------9-9----------------|------7-7--------------|--9(b11)--9--9---|
D:----------9--------------|----------7------------|-----------------|
A:-------------------------|-----------------------|-----------------|
E:-------------------------|-----------------------|-----------------|

[Riff 7a]
e:-------0------0------0-----0---------------------------------------|
B:-----0------0------0-----0-----------------------------------------|
G:--------------------------------0----------------------------------|
D:--2------4------5------7------5----4p2-----------------------------|
A:-------------------------------------------------------------------|
E:-------------------------------------------------------------------|

[Riff 7b]
e:----------2p0-------2p0--------------------------------------------|
B:-------3------3----------3-----------------------------------------|
G:-----0----------------------0--0-----------------------------------|
D:-------------------------------------------------------------------|
A:--3--------------3-------------------------------------------------|
E:-------------------------------------------------------------------|

[Riff 7c]                          [Riff 7d]
e:---------------0------2p0-----0-|----------2p0---------------0-----|
B:-------3----------3--------3----|--------3-----3---------------3---|
G:-----0---0--0-------------------|------0-------------------0-----0-|
D:--------------------------------|----2-------------4--2--4---------|
A:--3-----------------------------|--3-------------------------------|
E:--------------------------------|----------------------------------|

[Riff 8]
e:-7-7-7-7--7-7-7-7--7-7-7-7--7-7-7-7---7----------------------------|
B:-8-8-8-7--8-8-8-7--8-8-8-7--8-8-8-7---8--7-------------------------|
G:-9-9-9-9--9-9-9-9--9-9-9-9--9-9-9-9---9--7-------------------------|
D:-----------------------------------------7-------------------------|
A:-------------------------------------------------------------------|
E:-------------------------------------------------------------------|

e:-8-8-8-7--8-8-8-7--8-8-8-7--8-8-8-7---8----------------------------|
B:-8-8-8-7--8-8-8-7--8-8-8-7--8-8-8-7---8--7-------------------------|
G:-9-9-9-7--9-9-9-7--9-9-9-7--9-9-9-7---9--7-------------------------|
D:-----------------------------------------7-------------------------|
A:-------------------------------------------------------------------|
E:-------------------------------------------------------------------|

[Riff 9]
e:-------------------------------------------------------------------|
B:--5s7--5--5~~----7s8--7--5---3---5---------------------------------|
G:------------------------------------5~~~---------------------------|
D:-------------------------------------------------------------------|
A:-------------------------------------------------------------------|
E:-------------------------------------------------------------------|

[Riff 10]
              Repeat 4x
e:---------|--9s12--12~--|---12ss15~~--------------------------------|
B:---------|-10s12--12~--|---12ss17~~--------------------------------|
G:-5sssss9-|-------------|-------------------------------------------|
D:---------|-------------|-------------------------------------------|
A:---------|-------------|-------------------------------------------|
E:---------|-------------|-------------------------------------------|

[Riff 11a]                      [Riff 11b]
e:----------------------------|--------------------------------------|
B:--------------8~---7--8--x--|------------7-------------------------|
G:--------------9~---7--9--x--|------------7-------------------------|
D:--------7-9-----------------|-------7-9--7---9-9-7-7---------------|
A:--7-9-9---------------------|-7-9-9------------------9-------------|
E:----------------------------|--------------------------------------|

[Riff 12]
e:--0-(0)~-----------------------------0-(0)~--------------0---------|
B:--0-(0)~-----------------------------3-(3)~-----------------3--3p0-|
G:--0--0-------------------------------0-(0)~------0--(0)------------|
D:--2-(2)----4~---5~---7~--5~---4p2----x-------2~--------------------|
A:--2-(2)------------------------------3-(3)~----------3-------------|
E:--0-(0)~-----------------------------------------------------------|

[Riff 13] the "random panning" section
e:-------------------------------------------------------------------|
B:-13--12---15(b17)~~----------------------------------12--13--12----|
G:-----------------------12(b14r12)~~~---14(b16r14)~-----------------|
D:-------------------------------------------------------------------|
A:-------------------------------------------------------------------|
E:-------------------------------------------------------------------|

e:-------------15(b17)--15-------------------------------------------|
B:-15(b17)~-----------------15(b17)~------12(b13)--12----------------|
G:-----------------------------------------------------14--12--------|
D:-------------------------------------------------------------------|
A:-------------------------------------------------------------------|
E:-------------------------------------------------------------------|

e:-----------------------------------15(b17)~----15--12------12------|
B:------------12--13(b15)--13.--12-----------------------15------15--|
G:--14(b16)~---------------------------------------------------------|
D:-------------------------------------------------------------------|
A:-------------------------------------------------------------------|
E:-------------------------------------------------------------------|

e:-----------------------------------------------15(b17r15)---12--12~|
B:-12--15~----12(b15r12)~~--10---------------------------------------|
G:-----------------------------12----12-14-12~~----------------------|
D:--------------------------------14---------------------------------|
A:-------------------------------------------------------------------|
E:-------------------------------------------------------------------|

Song progression:

 Fade into [Intro] x3

 [Intro] x1, replace last half with [Intro2]

 [Riff 1] x4

 [Riff 2a] x2 /w lyrics:

        It was an April morning when the told us we should go,
        And as I turned to you, you smiled at me, how could we say no?

 [Riff 2b] x2 /w lyrics:

        Woah the fun to have to live the dreams we always had.
        Woah the songs to sing when we at last return again.

 [Riff 1] x2

 [Riff 2b] x1 /w lyrics:

        Swept New York a glancing kiss to those who claim they know,

 [Riff 2a] x2 /w lyrics:

        Below the streets that steam and hiss, the devil's in his hold.
        Oh to sail away to sandy lands and holidays.

 [Riff 2b] x1 /w lyrics:

        Oh to touch the dream, hides inside and's never seen yeah.

 [Riff 3] x2, second time do 10th fret slide down

 [Ascending octave progression 1] x1
 [Ascending octave progression 2] x1
 [Ascending octave progression 3] x1
 [Ascending octave progression 4] x1

        [final two notes over [Riff 1] x2]

 [Riff 2a] x1 /w lyrics:

        Into the sun the South and on, at last the birds had flown,

 [Riff 2b] x1 /w lyrics:

        As shackles of commitment fell in pieces on the ground.

 [Riff 2a] x1 /w lyrics:

        Oh to ride the wind, to tread the air above the din,

 [Riff 2b] x1 /w lyrics:

        Oh to laugh aloud, with dancing eyes we court the crowd, yeah.

 [Riff 4a] x1
 [Riff 4b] x1
 [Riff 4c] x1
 [Riff 4d] x1

        [final two notes over [Riff 2a] x1 /w lyrics]:

        To seek the man whose pointing hand, the giant step unfolds,

 [Riff 2b] x1 /w lyrics:

        To guide us from the curling path that turns our face to stone.

 [Riff 2a] x1 /w lyrics:

        And if one bell should ring in celebration for a King,

 [Riff 2b] x1 /w lyrics:

        So fast the heart should beat as proud's the head with heavy
                feet, yeah.

 [Riff 3] x4 (at the end of the first time, sing "Ooh......")

 [Guitar Solo]

e:----------7---------------------------------------------------5----|
B:--------------7--5--5~~----8(b10r8)------------5--5~-------8-------|
G:-------7-----------------------------7(b9r7)---5--5~----5-(5)------|
D:--7s9------------------------------------------5--5~---------------|
A:-------------------------------------------------------------------|
E:-------------------------------------------------------------------|

e:--3h5p3----3~--------3------3h5p3-------3-----5~---------------7---|
B:--------5---------------------------5------5-(5)~------------------|
G:--------4--4~-----4----4------------5------5-(5)~-----------7------|
D:--------------------------------------------------------7s9--------|
A:-------------------------------------------------------------------|
E:-------------------------------------------------------------------|

e:-------------------------------------------10(b12r10)-------12.-14.|
B:--7--5--5~----7-8-10--8h10p8--7--8--7--8----------------12.--------|
G:-------------------------------------------------------------------|
D:-------------------------------------------------------------------|
A:-------------------------------------------------------------------|
E:-------------------------------------------------------------------|

e:--14(b15r14)p12--14(b15r14)p12---12--14--14(b15)p12---15(b17r15)---|
B:-------------------------------------------------------------------|
G:-------------------------------------------------------------------|
D:-------------------------------------------------------------------|
A:-------------------------------------------------------------------|
E:-------------------------------------------------------------------|

e:-------------------------------------------------------------------|
B:--13--13~~----12--13----12-----------------------------------------|
G:---------------------14------12------------------12--14------------|
D:---------------------------------14--14~~~----14-------------------|
A:-------------------------------------------------------------------|
E:-------------------------------------------------------------------|

e:-------------------------------------------------------------------|
B:---------------------------------------------12-13--15p13p12-13p12-|
G:--14(b16r14b16r14)p12-----------------12--14-----------------------|
D:----------------------14--14~~----14-------------------------------|
A:-------------------------------------------------------------------|
E:-------------------------------------------------------------------|

e:----------------------------------------12-14-15.-15p14p12---------|
B:----12-----12h13p12----12-----12-13-15-----------------------------|
G:-14----14-----------14---------------------------------------------|
D:-------------------------------------------------------------------|
A:-------------------------------------------------------------------|
E:-------------------------------------------------------------------|

e:-14~~~~p12-----12-------12-----------------------------------------|
B:------------15----15p12-13--12-----12------------------------------|
G:--------------------------------14----14-12----14-----12h14p12-----|
D:--------------------------------------------14----14---------------|
A:-------------------------------------------------------------------|
E:-------------------------------------------------------------------|

e:-----------------------------------15------15------17(b19)---------|
B:--------------------------------15----17.-----17-------------------|
G:----------12--------------14s16------------------------------------|
D:--14--14-----------------------------------------------------------|
A:-------------------------------------------------------------------|
E:-------------------------------------------------------------------|

e:-x--17.--x----12--12~~~~---15(b17r15)~---15p14p12h14~~---12h14p12~-|
B:-------------------------------------------------------------------|
G:-------------------------------------------------------------------|
D:-------------------------------------------------------------------|
A:-------------------------------------------------------------------|
E:-------------------------------------------------------------------|

e:-12h14p12---------------------------------------------------12-----|
B:-----------15(b17)---15-13----13--12-12-12~~~~--------12-15--------|
G:---------------------------14----------------------12--------------|
D:-------------------------------------------------------------------|
A:-------------------------------------------------------------------|
E:-------------------------------------------------------------------|

e:-14--15p14p12--14~---12-14-15-17-19-20(b22)~~~---20.--19.--17------|
B:-------------------------------------------------------------------|
G:-------------------------------------------------------------------|
D:-------------------------------------------------------------------|
A:-------------------------------------------------------------------|
E:-------------------------------------------------------------------|

e:-19~~~--x------17(b18)-----17--15--17--17(b19)~-----17(b19)--17----|
B:------------0.-----------------------------------------------------|
G:------------------------0.-----------------------0-----------------|
D:-------------------------------------------------------------------|
A:-------------------------------------------------------------------|
E:-------------------------------------------------------------------|

e:--15---17(b19)--17--15---14~~~~~-----14h15p14p12--14~~---12--14-15-|
B:-------------------------------------------------------------------|
G:-------------------------------------------------------------------|
D:-------------------------------------------------------------------|
A:-------------------------------------------------------------------|
E:-------------------------------------------------------------------|

e:--17p15~~---15--15~~----12--15s14~---------------------------------|
B:-----------------------------------------13s12~--------------------|
G:-------------------------------------14-------------14--12.--------|
D:--------------------------------------------------------------14---|
A:-------------------------------------------------------------------|
E:-------------------------------------------------------------------|

e:-------------------------------------------------------------------|
B:--------------------------------------------12---------------------|
G:--12-----12~~--------12~~~~--------------12------------------------|
D:-----14----------------------------12h14---------------------------|
A:-------------------------------------------------------------------|
E:-------------------------------------------------------------------|

[Ascending octave progression 1] x1
[Ascending octave progression 2] x1

then:

e:--17(b19r17)--15~--------------------------------------------------|
B:-------------------17~--15.----------------------------------------|
G:-----------------------------16--14---14(b16r14)--12---------------|
D:------------------------------------------------------14--12.------|
A:-------------------------------------------------------------------|
E:-------------------------------------------------------------------|

e:-------------------------------------------------------------------|
B:--------------17(b19)--17--17~~~-----------------------------------|
G:-------------------------------------------------------------------|
D:--9----12----------------------------------------------------------|
A:----10-------------------------------------------------------------|
E:-------------------------------------------------------------------|

 (last part of solo:  17(b19)  17  17~~~ over lyrics):

                                  [last half of Riff 2a]
        Days fly by and you and I bathed in eternal summer's glow

 [Riff 2a] x2 /w lyrics:

        As far away and distant, our mutual child did grow.
        Woah the sweet refrain soothes the soul and calms the pain,

 [Riff 2b] x2 /w lyrics:

        Oh Albion remain sleeping now to rise again.

 [Riff 5a] x1
 [Riff 5b] x1
 [Riff 5c] x1
 [Riff 5d] x1

 [Riff 6a] x2 /w lyrics:

        Wondering and wanderings,

 [Riff 6b] x2 /w lyrics:

        one place to rest the search,

 [Riff 6a] x2 /w lyrics:

        Where the mighty arms of Atlas

 [Riff 6b] x2 /w lyrics:

        hold the heavens from the earth.

 [Riff 6a] x2
 [Riff 6b] x2

 [Riff 6a] x2 /w lyrics:

        Oh the mighty arms of Atlas

 [Riff 6b] x2 /w lyrics:

        hold the heavens from the earth,

 last half of [Riff 6b] x1 /w lyrics:

        from the earth......

 last half of [Riff 7a] x1 (from 7)

 [Riff 7b] x1

 [Riff 7a] x1

 [Riff 7c] x1

 [Riff 7a] x1 /w lyrics:

        I'm gonna reign, gonna reign, gonna reign,

 [Riff 7d] x1 /w lyrics:

        gonna reign,

 [Riff 7a] x1 /w lyrics:

        I'm gonna reign, gonna reign, gonna reign, gonna

 [Riff 7c] x1 /w lyrics:

        reign.

 [Riff 8] x1

 [Ascending octave progression 1] x1
 [Ascending octave progression 2] x1

 [Riff 9] x2

 [Riff 10] x1

 [Riff 11a] x2 (beginning of each one sing "Aah..." along /w guitar)
 [Riff 11b] x2

 [Riff 11a] x2
 [Riff 11b] x2

 [Riff 11a] x2
 [Riff 11b] x2

 [Riff 11a] x2
 [Riff 11b] x2

 [Riff 11a] x2
 [Riff 11b] x2

 [Riff 12] x2  (first "Aahhh..." then "Oohhh...." /w guitar)

 "Aah..." (stops before next one)
 [Ascending octave progression 1] x1

 [Ascending octave progression 2] x1

 "oh..." (stops before next one)
 [Ascending octave progression 3] x1

 [Ascending octave progression 4] x1

 [Riff 13] x1

 [last part played over [Riff 1] x1]

 [Riff 1] x1 /w lyrics:

 Where the mighty arms of Atlas hold the heavens of the earth.

 [Riff 11a] x2 (sing "Oh.." x5 with increased force and pitch)
 [Riff 11b] x2

 [Riff 11a] x2
 [Riff 11b] x2 (sing "Aah" at start of each line /w guitar)

 [Riff 11a] x2
 [Riff 11b] x2

 [Riff 11a] x2
 [Riff 11b] x2

 [Riff 1] x2 (sing "Ooohhh... first time only)

 [Intro] reversed, at least 2 times, then begin fadeout


FOR YOUR LIFE
Led Zeppelin
"Presence"

(Page, Plant)

Intro to verses: (for intro to third verse, play the G majors as G minors)
--3---3-----------3---3------3---3-----------3---3----
--3---3-----------3---3------3---3-----------3---3----
--4---4---5-3-5---4---4------4---4---5-3-5---4---4----
--5---5---5-3-5---5---5------5---5---5-3-5---5---5----
--5---5---3-3-3---5---5------5---5---3-3-3---5---5----
--3---3-----------3---3------3---3-----------3---3----

--3---3-----------3---3------3---3-----------3---3------------
--3---3-----------3---3------3---3-----------3---3------------
--4---4---5-3-5---4---4------4---4---5-3-5---4---4----5-3-5---
--5---5---5-3-5---5---5------5---5---5-3-5---5---5----5-3-5---
--5---5---3-3-3---5---5------5---5---3-3-3---5---5----3-3-3---
--3---3-----------3---3------3---3-----------3---3------------


Verses: (repeat this bit three times)
----------------------------------------------------------------------
----------------------------------------------------------------------
--5--7-5-5-5-7-5----5--7-5-5-5-7-5------------------------------------
--5--7-5-5-5-7-5----5--7-5-5-5-7-5------------------------------------
--3--3-3-3-3-3-3----3--3-3-3-3-3-3------------------------------------
----------------------------------------------------------------------

--3---3-----------3---3------3---3-----------3---3---------------------
--3---3-----------3---3------3---3-----------3---3---------------------
--4---4---5-3-5---4---4------4---4---5-3-5---4---4----5-3-5---5-3------
--5---5---5-3-5---5---5------5---5---5-3-5---5---5----5-3-5---5-3-5-5--
--5---5---3-3-3---5---5------5---5---3-3-3---5---5----3-3-3---3-3-5-5--
--3---3-----------3---3------3---3-----------3---3----------------3-3--
                                                     <----->  <----->
                                                      first    third
                                                       two      time
                                                      times


Tail end to each verse:
----------------------------------------------------------------------
----------------------------------------------------------------------
--8---8--8----8--10--10-----------------------------------------------
--8---8--8----8--10--10---7--8----8--10--10---5-----------------------
--6---6--6----6---8---8---7--8----8--10--10---5-----------------------
--------------------------5--6----6---8---8---3-----------------------
                                         <----->
                                          first time only


After second verse: (repeat it a few times)
----------------------------------------------------------------------
----------------------------------------------------------------------
------------5----7--7--5------------5---------------------------------
---7--5-6-7---7--7--7--5---7--5-6-7---7-------------------------------
---7-------------5--5--5---7------------------------------------------
---5-----------------------5------------------------------------------


sometimes you go on with this:
----------------------------------------------------------------------
----------------------------------------------------------------------
--------5----------5----------5---------------------------------------
--5-6-7---7--5-6-7---7--5-6-7---7-------------------------------------
----------------------------------------------------------------------
----------------------------------------------------------------------


jingle-jangle bit: (repeat a few times)
---3------------------------------------------------------------------
---3-----------1------1------1------1---------------------------------
---4---------2------0------0------0-----------------------------------
---5-------3------2------0--------------------------------------------
---5----------------------------3------1-0----------------------------
---3---------------------------------------3-1-3-3-3-3-1-3------------


guitar solo: (chords under)
--3------------------------3------------------------------------------
--3--------------4--4--3---3------------------------------------------
--3---------3----5--5--3---4---------3--------------------------------
--5---3-4-5---5--5--5--3---5---3-4-5---5------------------------------
--5--------------3--3--3---5------------------------------------------
--3------------------------3------------------------------------------
                               <------->
                                this bit gets repeated every so often

...then repeat the above, but up two frets

guitar solo for "for your life"
by led zeppelin

-----------------------------------------12--------12--------12--------12-
-11~~--8-10-11-8-10-11-10~-10^r~---10-11-----10-11-----10-11-----10-11----
---------------------------------------------------------------------------
---------------------------------------------------------------------------
---------------------------------------------------------------------------
---------------------------------------------------------------------------

-------12~-----------8-10-12-10--8-10-8-10-8----------------------------
-10-11------10h11p10----------------------------11-10-10^-10---11p10\8~-
------------------------------------------------------------------------
------------------------------------------------------------------------
------------------------------------------------------------------------
------------------------------------------------------------------------

----------------------------------------------------------------
----------------------------------------------------------------
-10h11p10~------------------------------------------------------
-----------8----------------------------------------------------
-------------10-8-10~-10-9-8-------------1----------------------
-----------------------------10-10-9-8-3----1-3-1-3--1-3---3--1-

-------------------------------------------------------------------------
-----------------------------11-----11----13^----11-14---14---14---------
---------------------------------12----12-----------13^--13^--13^--------
--------8-10-8-10-8-----8-10---------------------------------------------
-8-9-10-------------10---------------------------------------------------
-------------------------------------------------------------------------

-------------------------------------------------------------------------
-14h15p14p13\11----------11-10h11p10p8-11-10-----------------------11----
----------------12~---10--------------------12-12---10-12-10-12-10----12-
-------------------------------------------------------------------------
-------------------------------------------------------------------------
-------------------------------------------------------------------------

----------------------------------------------------13----------------
-------------11----11----11-----------13---------15----13h14p13--11---
-12-10----------12----12----12/14~--14--14-12----------------------12-
-------8--------------------------------------------------------------
---------10-----------------------------------------------------------
----------------------------------------------------------------------
         *(slow bend)
-------13^----18-15----18-------18----------------------------------------------------15--
-13-15--------------18----18-18^---18^--18-15-----------------------------18----------18^-
----------------------------------------------15^-13-15~--13-15.--15-(15)^---15-(15)^-----
------------------------------------------------------------------------------------------
------------------------------------------------------------------------------------------
------------------------------------------------------------------------------------------



Then jingle-jangle bit, then back to intro to third verse.


ROYAL ORLEANS
Led Zeppelin
"Presence"

(Bonham, Jones, Page, Plant)

INTRO: 2X

 guitar1                                              H
|---------------------------------|----------------------------------|
|---5-7-5--/8-----5-7-5--/8-------|---5-7-5---8--7--5------5---------|
|---6-7-6--/9-----6-7-6--/9-------|---6-7-6---9--7--5^6----6---------|
|---------------------------------|---------------------7------------|
|---------------------------------|----------------------------------|
|---------------------------------|----------------------------------|
|                                                                    |
|guitar2                                                             |
|---------------------------------|----------------------------------|
|---------------------------------|----------------------------------|
|---------------------------------|----------/4--2-------------------|
|---------------------------------|-----------------4-2--------------|
|----------0-------------0--------|-------00------------4--0---------|
|---0-2-2---------0-2-2-----------|---0-2----------------------------|


VERSE1: 2X

|-------------------|-------------------|-------------------|-----------------|
|--9-9---9-9-9--7---|--9-9---9-9-9--7---|--9-9---9-9-9--7---|--9-9---9-9-9--7-|
|--9-9---9-9-9--7---|--9-9---9-9-9--7---|--9-9---9-9-9--7---|--9-9---9-9-9--7-|
|-------------------|-------------------|-------------------|-----------------|
|-------------------|-------------------|-------------------|-----------------|
|------0------------|------0------------|------0------------|------0----------|

INTRO: 2X

VERSE2: 4X

|-------------------10-101010-----|--------------------10-1010-------|
|--9-9-7---9-9-9-7---9--9-9-9-----|--9-9-7---9-9-9-7----9--9-9-------|
|--9-9(7)--9-9-9(7)---------------|--9-9(7)--9-9-9(7)----------------|
|---------------------------------|----------------------------------|
|---------------------------------|----------------------------------|
|---------------------------------|----------------------------------|
                                                        |  tail end for
                                                        V   last verse

                                                --------121212121212-|
                                                --------121212121212-|
                                                ---------------------|
                                                ---------------------|
                                                ---------------------|
                                                ---------------------|

INTRO: 4X

VERSE2:  4X

SOLO: 4X


|------------------------12--12-12-12--|------------------------12--12-12-----|
|--11-11-9--11-11-11-9---11--11-11-11--|--11-11-9--11-11-11-9---11--11-11-----|
|--11-11(9)-11-11-11(9)----------------|--11-11(9)-11-11-11(9)----------------|
|--------------------------------------|--------------------------------------|
|--------------------------------------|--------------------------------------|
|--------------------------------------|--------------------------------------|


INTRO: 2X

BRIDGE: 4X

      H     H                                H     H
|--------------------------------------|--------------------------------------|
|----------------------------(3)(3)----|----------------------------(3)-------|
|-----------------------------2--2-----|-----------------------------2--------|
|--------------/4--2----------0--0-----|--------------/4--2----------0--------|
|---------0-^2-------------------------|---------0-^2-------------------------|
|---0-^2--------------0-0-0------------|---0-^2--------------0-0-0------------|

VERSE2: 8X


NOBODY'S FAULT BUT MINE
Led Zeppelin
"Presence"

(Page, Plant)

[Intro] /w phaser (doubled by two guitars playing [Intro2])
e:-------------------------------|-------------------------------------|
B:-15p12-12-15p12-12-15-15(b17)~-|15p12-12-15p12-12--------------------|
G:-------------------------------|------------------12-14(b16)~--------|
D:-------------------------------|-------------------------------------|
A:-------------------------------|-------------------------------------|
E:-------------------------------|-------------------------------------|

e:----------------------------------|--------------------------------|
B:-15p12-12-15~--15(b17)-15-12------|--------------------------------|
G:-----------------------------14p12|-14p13-13-14p13-13-14-14(b16r14)|
D:----------------------------------|--------------------------------|
A:----------------------------------|--------------------------------|
E:----------------------------------|--------------------------------|

e:-------------------------------------------------------------------|
B:-------------------------------------------------------------------|
G:-13----------------------------------------------------------------|
D:----14~------------------------------------------------------------|
A:-------------------------------------------------------------------|
E:-------------------------------------------------------------------|

[Intro2] also /w phaser
e:-----------------------|----------------------|--------------------|
B:--3p0-0-3p0-0-3-3(b5)~-|-3p0-0-3p0-0----------|-3p0-0-3~-3(b5)-3-0-|
G:-----------------------|-------------0-2(b4)~-|--------------------|
D:-----------------------|----------------------|--------------------|
A:-----------------------|----------------------|--------------------|
E:-----------------------|----------------------|--------------------|

e:------|------------------------------------------------------------|
B:------|------------------------------------------------------------|
G:-2p0~-|-2p1-1-2p1-1-2--2(b4r2)-1--1~-------------------------------|
D:------|---------------------------2~-------------------------------|
A:------|---------------------------2~-------------------------------|
E:------|---------------------------0~-------------------------------|

[Riff 1]
e:-----------------------------|-------------------------------------|
B:-----------------------------|-------------------------------------|
G:----------7------------------|-----------7-------------------------|
D:--9p7-----7------------------|---9p7--7--7------------2~-----------|
A:--7p5--7--5p2--2-------------|---7p5--5--5----0-------0~-----------|
E:------------------3(b4)--0~--|------------------3(b4)--------------|

[Riff 2]
e:-------------------------|-----------------------------------------|
B:-------------------------|-----------------------------------------|
G:-------------------------|----------------------2~-----------------|
D:-2p0-0-------------------|--2p0-0---------------2~-----------------|
A:-------2p0---------------|--------2p0--0--------0~-----------------|
E:-----------0-3(b4)--0~---|---------------3(b4)---------------------|

[Riff 3] Freely
e:-----------------------|-------------------------------------------|
B:-----------------------|-------------------------9-9-10-10--9-10---|
G:-7-----7-7-----9-x-x-9-|--7-----7---7---------9--9-9--9--9--9--9---|
D:-7-----7-7---9-9-x-x-9-|--7-----7---7--------11--9-9-11-11--9-11---|
A:-5-0-0-5-0-0-7-7-x-x-7-|--5-0-0-5-0-0--10-11-----------------------|
E:-------------0---------|-------------------------------------------|

Song progression:

Fade into [Intro] and [Intro2] (/w phaser!) played FOUR times

Repeat lyrics two times, with [Intro] and [Intro2]

Aah aah aah aah,
Aah aah aah aah.
Aah aah, aah aah aah aah aah,
Aah aah aah ah ah ah aah.

[phaser off]

[Riff 1] x1

[Riff 3] x2

[Riff 3] x1 /w lyrics:

Oh, nobody's fault but mine,
oh, nobody's fault but mine, yeah,

[strum]
  E            F#5     G5    A5
    tryin' to save my soul Delilah.

Oh it's nobody's fault but mine.

[Riff 2] x1

[Riff 3] x2

[Riff 3] x1 /w lyrics:

Devil he taught me to roll,
the Devil he taught me to roll,

[strum]
  E        F#5       G5   A5
    how to roll the log Delilah.

[Riff 1] x1

Repeat lyrics *three* times, with [Intro] and [Intro2] (and phaser)

Aah aah aah aah,
Aah aah aah aah.
Aah aah, aah aah aah aah aah,
Aah aah aah ah ah ah aah.

[phaser off]

[Riff 1] x2

During Harmonica solo, guitar plays:

[Riff 3] x9 1/2 times freely

[Riff 3] x1 /w lyrics:

Brother he showed me the gong,
brother he showed me the ding dong ding dong,

[strum]
  E         F#5       G5     A5
    how to kick that gong Delilah.

Oh it's nobody's fault but mine.

[Riff 2] x1

[Riff 3] x2

[Riff 3] x1 /w lyrics:

Gotta monkey on my back,
a m-m-m-m-monkey on my back back back back.

[strum]
  E         F#5       G5    A5
    Vow to change my ways Delilah.

Nobody's fault but mine.

[Guitar Solo]

Rhythm for guitar solo is: [Riff 1] x2, then [Riff 3] x8

                               (bend the open note behind the nut)
                                            \/
e:-------------------------------------------------------------------|
B:---------------3~--------------------------------------------------|
G:--2(b4r3b4)~-------2(b3r2b3r2)p0----0~~---0(b2r0b2r0)--------------|
D:----------------------------------2-------------------2~-----------|
A:-------------------------------------------------------------------|
E:-------------------------------------------------------------------|

e:-------3-----3----5h6---5--3---5--3-----3--------------------------|
B:-----3---5~----5--------------------5------------------------------|
G:-2h4-------------------------------------------------------9~------|
D:------------------------------------------------------9h11---------|
A:-------------------------------------------------7h11--------------|
E:-------------------------------------------------------------------|

e:------------------------------------------12-9----9----------------|
B:-----------------------------------------------12---12-9--------12-|
G:-11(b13r11b13r11)p9--11--9----9~-------------------------11(b13)---|
D:---------------------------11----11--------------------------------|
A:-------------------------------------------------------------------|
E:-------------------------------------------------------------------|

e:-9----9------------------------------------------------------------|
B:---12---12~-9-------------------------------------12(b14r12b14)~---|
G:--------------11-11(b13)-11-9----9-9----9~-9-----------------------|
D:------------------------------11-----11------11--------------------|
A:-------------------------------------------------------------------|
E:-------------------------------------------------------------------|

e:-------------------------------------------------------------------|
B:-12--11(b12)-10---------10-------------------12(b14r12b14)~----12--|
G:----------------12(b14)----12-11-9-9~--9---------------------------|
D:-----------------------------------------11------------------------|
A:-------------------------------------------------------------------|
E:-------------------------------------------------------------------|

e:-------------------------------------------------------------------|
B:--9----9~--x--10------11(b12)----11(b12)---11(b12)----11(b12)------|
G:----11---------9--------------x----------x---------x----------x----|
D:-------------------------------------------------------------------|
A:-------------------------------------------------------------------|
E:-------------------------------------------------------------------|

e:-------------------------------------------------12----------------|
B:-11(b12)----11(b12)---------------------------12----15(b17)~~------|
G:---------x----------x--x---9----9----9--11h13----------------------|
D:-----------------------------11---11-------------------------------|
A:-------------------------------------------------------------------|
E:-------------------------------------------------------------------|

e:-15.--------15.--------15---------------15.---------15.------------|
B:----15(b17)----15(b17)----15----------------15(b17)-----15(b17r15)-|
G:-----------------------------14(b15r14)----------------------------|
D:-------------------------------------------------------------------|
A:-------------------------------------------------------------------|
E:-------------------------------------------------------------------|

e:------------------------------------12-----------------------------|
B:-12------------------------------------15~--------12-12-15---------|
G:----14(b15)--12-14-12(b13)----12h13---------12s13------------------|
D:---------------------------14--------------------------------------|
A:-------------------------------------------------------------------|
E:-------------------------------------------------------------------|

e:-------------------------------------------------------------------|
B:-------12-12-15~-----------------------------------------------9---|
G:-12s13------------14(b16r14b16r14)---------9--9----9---11(b13)-----|
D:-----------------------------------14-x---------11-----------------|
A:-------------------------------------------------------------------|
E:-------------------------------------------------------------------|

e:-9----------------------------------------------14(b16)--14--12~---|
B:----12p9-12p9----9---------------------------12--------------------|
G:--------------11---11p9-11p9----9----9-11s13-----------------------|
D:-----------------------------11---11-------------------------------|
A:-------------------------------------------------------------------|
E:-------------------------------------------------------------------|

e:-12------------12--14(b16)--14--12----12--------12--14(b16)--------|
B:----15------12---------------------15---------12-------------------|
G:---------13---------------------------------x----------------------|
D:-------------------------------------------------------------------|
A:-------------------------------------------------------------------|
E:-------------------------------------------------------------------|

e:-14(b16r14)-12---12~--12p9-----------------------------------------|
B:---------------x-----------12-9-----------------------10-----------|
G:------------------------------------9----11----9----9-11-9--9~~----|
D:---------------------------------11---11----11---11----------------|
A:-------------------------------------------------------------------|
E:-------------------------------------------------------------------|

Repeat lyrics *two and one half* times, with [Intro] and [Intro2] (and
   phaser )

Aah aah aah aah,
Aah aah aah aah.
Aah aah, aah aah aah aah aah,
Aah aah aah ah ah ah aah.

[phaser off]

[strum]
  E           F#5    G5     A5
  I will get down rollin' tonight.

 N-n-n-n-n-n-n nobody's fault...

e:----------------------|--------------------------------------------|
B:----------------------|--------------------------------------------|
G:--7-----7-7---7--9~---|--------------------------------------------|
D:--7-----7-7---7--9~---|--9s7--7--7s4--4--4s2--2--------------------|
A:--5-0-0-5-0-0-5--7~---|--7s5--5--5s2--2--2p0--0---5-5-5--2-2-2-2---|
E:----------------------|---------------------------3-3-3--0-0-0-0---|


NOTATION:

| - not a standard bar line; just used to separate music
~ - vibrato or held note
x - percussive note with no pitch; muted note
. - staccato; mute the note immediately after striking it
h - hammer on
p - pull off
s - slide
/ - slide up from infinity
\ - slide down into infinity
<5> - natural harmonic (or pinch harmonic)
3(b5) - bend note up from 3rd to 5th fret pitch
3(b5r3) - bend note from 3rd to 5th fret pitch, then return to 3rd fret
o  \_
o  /   repeat sign (always look for these!)


CANDY STORE ROCK
Led Zeppelin
"Presence"

(Jimmy Page & Robert Plant)

Intro (electric)
e|----------------------------|---------------------------------|
B|----------------------------|---------------------------------|
G|----------------------------|---------------------------------|
D|---------3---3----3---------|-----3-3--3-3-------3p2h3--------|
A|----------------------------|--------------------------3p2h3--|
E|-----1----------------------|--1-----------1--1---------------|

e||---------------------------------|---------------------------------||
B||------------------12ss17---------|---------------------------------||
G||----5---5p0---2---12ss17b18------|----5---0-----2---5-h7p5---------||
D||----5---5p0---2------------------|----5---0-----2---5-h7p5---------||
A||-0--------------------------0-0--|-0--------------------------0----||
E||---------------------------------|---------------------------------||


Verse Riff 1(electric)
e|---------------------------------|---------------------------------|
B|--X-X-0--2--0--2-----5----7------|--X-X-0--2--0--2-----7----5------|
G|--X-X-0--2--0--2-----5----7------|--X-X-0--2--0--2-----7----5------|
D|--X-X-0--2--0--2-----5----7------|--X-X-0--2--0--2-----7----5------|
A|---------------------------------|---------------------------------|
E|---------------------------------|---------------------------------|

Verse Riff 1(acoustic)
e|---------------------------------|---------------------------------|
B|--x-x-0--2--0--2-----5----7------|--x-x-0--2--0--2-x-x-7--x-5-x----|
G|--x-x-0--2--0- 2-----5----7------|--x-x-0--2--0--2-x-x-7--x-5-x----|
D|--x-x-0--2--0--2-----5----7------|--x-x-0--2--0--2-x-x-7--x-5-x----|
A|---------------------------------|---------------------------------|
E|---------------------------------|---------------------------------|

Verse Riff variation 1(electric)
e|---------------------------------|----------------------12---------|
B|--X-X-0--2--2--0--2---5-----7----|--X-X-0--2--0--2------13b14------|
G|--X-X-0--2--2--0--2---5-----7----|--X-X-0--2--0--2------------14---|
D|--X-X-0--2--2--0--2---5-----7----|--X-X-0--2--0--2-----------------|
A|---------------------------------|---------------------------------|
E|---------------------------------|---------------------------------|


Verse Ending(electric)
e|---------------------------------|
B|--------5---5--3--3---2--2--2----|
G|--------5---5--4--4---2--2--2----|
D|--------5---5--4--4---2--2--2----|
A|---------------------------------|
E|---------------------------------|

Verse Ending(acoustic)
e|---------------------------------|
B|--2--5---5---5--3--3---2--2--2---|
G|--2--5---5---5--4--4---2--2--2---|
D|--2--5---5---5--4--4---2--2--2---|
A|---------------------------------|
E|---------------------------------|

Verse Riff 2(electric)
e|---------------------------------|---------------------------------|
B|---------------------------------|---------------------------------|
G|------0--2--0--2-----5----7------|------0--2--0--2-----7----5------|
D|------0--2--0--2-----5----7------|------0--2--0--2-----7----5------|
A|---------------------------------|---------------------------------|
E|---------------------------------|---------------------------------|

Verse Riff 3(electric)
e|---------------------------------|---------------------------------|
B|---------------------------------|---------------------7----5------|
G|------0--2--0--2-----5----7------|------0--2--0--2-----7----5------|
D|------0--2--0--2-----5----7------|------0--2--0--2-----7----5------|
A|---------------------------------|---------------------------------|
E|---------------------------------|---------------------------------|

Verse Riff variation 2(electric)
e|---------------------------------|---------------------------------|
B|---------------------------------|---------------------------------|
G|------0--2--2--0--2---5-----7----|------0--2--0--2---16--16----14--|
D|------0--2--2--0--2---5-----7----|------0--2--0--2-------------14--|
A|---------------------------------|---------------------------------|
E|---------------------------------|---------------------------------|

Solo(electric)
e|---------------------------------|---------------------------------|
B|----------4b5--------------------|----------7b8--------------------|
G|----------4b5--------------------|----------7b9--------------------|
D|---------------------------------|---------------------------------|
A|---0---------------------0s10----|---0---------------------7s10----|
E|---------------------------------|---------------------------------|

e|---------------------------------|---------------------------------|
B|----------13b14------------------|----------16b17------------------|
G|----------13b14------------------|----------16b17------------------|
D|---------------------------------|---------------------------------|
A|---0---------------------7s10----|---0-----------------------------|
E|---------------------------------|---------------------------------|


e||-7---5--8---5--7---5--8----------||
B||-7---5--8---5--7---5--8----------||
G||--------------------------5s4s2--||
D||--------------------------5s4s2--||
A||---------------------------------||
E||---------------------------------||

e|-------------------------------------|---------------------------------|
B|5s7b8-7b8-7b8-7b8-7b8-7b8-7b8---8-7b8|r7-------------------------------|
G|5s7b9-7b9-7b9-7b9-7b9-7b9-7b9---9-7b8|r7----5-7p5---7---5h7-5----------|
D|-------------------------------------|------------7---7---------7------|
A|-------------------------------------|---------------------------------|
E|-------------------------------------|---------------------------------|

Bridge (electric)
e|---------------------------------|---------------------------------|
B|--2s3-3-3-2s3-3-3--3-------------|--2s3-3---2s3-3----6-6-6---6-8---|
G|--3s4-4-4-3s4-4-4----5---3h5-----|--3s4-4---3s4-4----5-5-5-7-------|
D|--4s5-5-5-4s5-5-5------5-----5-5-|--4s5-5---4s5-5------------------|
A|--4s5-5-5-4s5-5-5----------------|--4s5-5---4s5-5------------------|
E|---------------------------------|---------------------------------|
Bridge(acoustic)
e|--*---*-*-*---*-*-*--*-*-*-*-*-*-|--*---*-*-*---*-*-*--*-*-*-*-*-*-|
B|--*---*-*-*---*-*-*--*-*-*-*-*-*-|--*---*-*-*---*-*-*--*-*-*-*-*-*-|
G|--*---*-*-*---*-*-*--*-*-*-*-*-*-|--*---*-*-*---*-*-*--*-*-*-*-*-*-|
D|--*---*-*-*---*-*-*--*-*-*-*-*-*-|--*---*-*-*---*-*-*--*-*-*-*-*-*-|
A|--*---*-*-*---*-*-*--*-*-*-*-*-*-|--*---*-*-*---*-*-*--*-*-*-*-*-*-|
E|---------------------------------|---------------------------------|

Bridge ending(electric)
e|---------------------------------|---------------------------------|
B|--2s3-3-3-2s3-3-3--3-------------|--2s3-3-3-2s3-3-3--6-6-6-6-8-----|
G|--3s4-4-4-3s4-4-4----5---3h5-----|--3s4-4-4-3s4-4-4----------------|
D|--4s5-5-5-4s5-5-5------5-----5-5-|--4s5-5-5-4s5-5-5----------------|
A|--4s5-5-5-4s5-5-5----------------|--4s5-5-5-4s5-5-5----------------|
E|---------------------------------|---------------------------------|
Bridge ending(acoustic)
e|--*---*-*-*---*-*-*--*-*-*-*-*-*-|--*---*-*-*---*-*-*--*-*-*-*-*-*-|
B|--*---*-*-*---*-*-*--*-*-*-*-*-*-|--*---*-*-*---*-*-*--*-*-*-*-*-*-|
G|--*---*-*-*---*-*-*--*-*-*-*-*-*-|--*---*-*-*---*-*-*--*-*-*-*-*-*-|
D|--*---*-*-*---*-*-*--*-*-*-*-*-*-|--*---*-*-*---*-*-*--*-*-*-*-*-*-|
A|--*---*-*-*---*-*-*--*-*-*-*-*-*-|--*---*-*-*---*-*-*--*-*-*-*-*-*-|
E|---------------------------------|---------------------------------|

Outro(electric)
e|---------------------------------|---------------------------------|
B|---------------------------------|---------------------------------|
G|---------------------------------|---------------------------------|
D|---------3---3----3--------------|-----3-3--3-3-------3p2h3--------|
A|---------------------------------|--------------------------3p2h3--|
E|-----1---------------------------|--1-----------1--1---------------|

e|---------------------------------|---------------------------------|
B|---------------------------------|---------------------------------|
G|------0--2--0--2-----5----7------|------0--2--0--2-----7----5------|
D|------0--2--0--2-----5----7------|------0--2--0--2-----7----5------|
A|---------------------------------|---------------------------------|
E|---------------------------------|---------------------------------|

Outro (acoustic)
e|-----1-1--1--1-----1-------------|-1--1--1----1--1-----1-1-1-1-1-1-|
B|-----1-1--1--1-----1-------------|-1--1--1----1--1-----1-1-1-1-1-1-|
G|-----2-2--2--2-----2-------------|-2--2--2----2--2-----2-2-2-2-2-2-|
D|-----3-3--3--3-----3-------------|-3--3--3----3--3-----3-3-3-3-3-3-|
A|---------------------------------|---------------------------------|
E|---------------------------------|---------------------------------|

e|---------------------------------|---------------------------------|
B|--x-x-0--2--0--2-----5----7------|--x-x-0--2--0--2-x-x-7--x-5-x----|
G|--x-x-0--2--0- 2-----5----7------|--x-x-0--2--0--2-x-x-7--x-5-x----|
D|--x-x-0--2--0--2-----5----7------|--x-x-0--2--0--2-x-x-7--x-5-x----|
A|---------------------------------|---------------------------------|
E|---------------------------------|---------------------------------|




Song Progression
Intro(electric)  1x

Verse Riff 1(electric) and Verse Riff 1(acoustic) 1x
Verse Riff variation 1(electric) and Verse Riff 1(acoustic) 1x
Verse Riff 1(electric) and Verse Riff 1(acoustic) 1x
Verse Riff variation 1(electric) and Verse Riff 1(acoustic) 1x
Verse Ending(electric) and Verse Ending(acoustic) 4x

Verse Riff 2(electric) and Verse Riff 1(acoustic) 1x
Verse Riff 3(electric) and Verse Riff 1(acoustic) 1x
Verse Riff variation 2(electric) and Verse Riff 1(acoustic) 1x
Verse Riff variation 3(electric) and Verse Riff 1(acoustic) 1x
Verse Ending(electric) and Verse Ending(acoustic) 4x

Verse Riff 2(electric) and Verse Riff 1(acoustic) 1x
Verse Riff 3(electric) and Verse Riff 1(acoustic) 1x
Verse Riff variation 2(electric) and Verse Riff 1(acoustic) 1x
Verse Riff variation 3(electric) and Verse Riff 1(acoustic) 1x
Verse Ending(electric) and Verse Ending(acoustic) 4x

(Solo(electric) and (Verse Riff 1(acoustic) 4x)) 1x
Verse Ending(electric) and Verse Ending(acoustic) 2x
Bridge (electric) and Bridge (acoustic) 3x
Bridge ending(electric) and Bridge ending(acoustic) 1x


Verse Riff 2(electric) and Verse Riff 1(acoustic) 1x
Verse Riff 3(electric) and Verse Riff 1(acoustic) 1x
Verse Riff variation 2(electric) and Verse Riff 1(acoustic) 1x
Verse Riff variation 3(electric) and Verse Riff 1(acoustic) 1x
Verse Ending(electric) and Verse Ending(acoustic) 4x

Verse Riff 2(electric) and Verse Riff 1(acoustic) 1x
Verse Riff 3(electric) and Verse Riff 1(acoustic) 1x
Verse Riff variation 2(electric) and Verse Riff 1(acoustic) 1x
Verse Riff variation 3(electric) and Verse Riff 1(acoustic) 1x
Verse Ending(electric) and Verse Ending(acoustic) 4x

1st 1/2 Bridge (electric) and 1st 1/2 Bridge (acoustic) 2x
Bridge (electric) and Bridge (acoustic) 3x
Outro (electric) and Outro (acoustic) 6x


Lyrics
Well Oh baby baby. Don't you want a man like me?
Oh baby baby, I'm just as sweet as anybody could be
Oh baby baby, I want to look to your eyes, of blue
Oh baby baby, It's more than anybody else could do

Well... Oh baby baby. I wanna see you walkin down the street
Oh baby baby, Well you lookin good enough to eat
Oh baby baby, I dont believe I've tasted this before
Oh baby baby, I want it now
And evermore ho ho.

Yeah Talk about you. 
Yeah Talk about you.

Oh baby baby, You know that I wanted it more
Oh baby baby, How about a kiss good by the store
Oh baby baby, It ain't the wrapping that sells the good
Oh baby baby, I got a sweet tooth when my mouth is full.

Yeah Talk about you. 
Oh Yeah Talk about you.

Yeah Talk about you. 
Yeah Talk about you.


Ooh baby oh baby its alright, its alright
Ohh baby its alright..oh its alright well

Oh baby baby, Well now you sting me like a bee
oh baby baby, I like your honey; it sure likes me
Oh baby baby, I got the spoon inside your jar
Oh baby baby, Dont give me too much, don't make me starve

Oh baby baby, Sugar sittin on a silver plate huh
Oh baby baby, I'll eat 'em up, I just cant wait you know
Oh baby baby, You see me shakin my head
Oh baby baby, Dont give me clover ' it tastes so bad
Tastes so bad Tastes so bad Tastes so bad Tastes so bad 

Oh baby it's alright, oh it's alright
Ooh oh baby It's alright oh It's alright
Oooh Oooh It's alright it's alright
Oooh Oooh It's alright it's alright
Oooh Oooh It's alright it's alright
Oooh Oooh ooh It's alright it's alright
Oooh yeah Oooh yeah It's alright it's alright
Ooooh Ooooh yeah alright


NOTATION USED:
p=pull off 
h=hammer on
s=slide
ss=slide but pick both notes
b=bend
X=right hand palm mute
x=left hand palm mute
*=percusive mute
||-----||=play twice


HOTS ON FOR NOWHERE
Led Zeppelin
"Presence"

(Jimmy Page & Robert Plant)


  Intro(Electric 1)
e|----------------------------------|----------------------------------|
B|----------------------------------|----------------------------------|
G|----------------------------------|---0------------------------------|
D|--------------------------------4-|-------------2------------------4-|
A|----------------------------------|-5---4-4-0-2---2------------------|
E|----------------------------------|---------------0------------------|

  Main Riff (Electric 1)
e|----------------------------------|----------------------------------|
B|----------------------------------|----------------------------------|
G|----------------------------------|---------------7---9-------9-s7---|
D|-4-4---------2------------------4-|-4-4---------2-7---9-------9-s7-4-|
A|-5-5-4-4-0-2---2------------------|-5-5-4-4-0-2-2-5---7-10-11--------|
E|---------------0------------------|----------------------------------|

  Break Riff (Electric 1)
e|----------------------------------|----------------------------------|
B|----------------------------------|----------------------------------|
G|----------------------------------|---------------7---9--------------|
D|-4-4---------2------------------4-|-4-4---------2-7---9--------2-4---|
A|-5-5-4-4-0-2---2------------------|-5-5-4-4-0-2-2-5---7----3-4-----0-|
E|---------------0------------------|----------------------------------|

e|----------------------------------|----------------------------------|
B|----------------------------------|----------------------------------|
G|----------------------------------|----------------------------------|
D|-------2-4-5-------2-4-5-------2--|-4-2-----------2-4---------2-4-5--|
A|---3-4---------3-4---------3-4----|-----3-4-0-3-4-----0---3-4--------|
E|----------------------------------|----------------------------------|

e|----------------------------------|
B|----------------------------------|
G|----------------------------------|
D|-------2-4-5-------2-4---------3s4|
A|---3-4---------3-4-----0-3-4-0-4s5|
E|----------------------------------|

  Break Riff (Electric 2)
e|----------------------------------|----------------------------------|
B|----------------------------------|--------------------------------0-|
G|----------------------------------|------------------------4-4-4-2-0-|
D|----------------------------------|------------------------5-5-5-4-2-|
A|----------------------------------|----------------------------------|
E|----------------------------------|----------------------------------|

e|----------------------------------|----------------------------------|
B|-----------------------0----------|-------------------0--------------|
G|---0-0-0-------4-4-4-2-0---0---0--|-----------3s4-4-2-0---0-0-0------|
D|-----2-2-4-----5-5-5-4-2---2-2-2--|-4-0-------4s5-5-4-2-----2-2-4----|
A|---------5-3s4--------------------|-5---3-4-0-------------------5-3s4|
E|----------------------------------|----------------------------------|

e|----------------------------------|
B|----------------------------------|
G|---0-3s4-4-2-0---0-0-0------------|
D|-----4s5-5-4-2-----2-2-4----------|
A|-----------------------5-5-3-4-0-0|
E|----------------------------------|

  Main Riff Variation 1(Electric 1)
e|----------------------------------|----------------------------------|
B|----------------------------------|----------------------------------|
G|--------------------------------0-|-0-----------------9-------9-s2---|
D|---4---------2------------------4-|-4-4---------2-7---9-------9-s2---|
A|---5-4-4-0-2-2-2----------------5-|-5-5-4-4-0-2---5---7-10-11--------|
E|---------------0------------------|----------------------------------|

  Main Riff Variation 2(Electric 1)
e|----------------------------------|----------------------------------|
B|----------------------------------|----------------------------------|
G|----------------------------------|---------------7---9-------9-s2---|
D|---4-------2-2------------------4-|-4-4---------2-7---9-9--9--9-s2-2s|
A|-5---4-4-0----------------------5-|-5-5-4-4-0h2---5---7-10-11--------|
E|---------------0------------------|----------------------------------|

  Main Riff Variation 3(Electric 1)
e|----------------------------------|----------------------------------|
B|----------------------------------|---------------------------9-s7---|
G|----------------------------------|-------------------9-------9-s7---|
D|-4-4---------2------------------3s|-4-4---------*-7---9-9-----9-s7-4-|
A|-5---4-4-0-2---2----------------4s|-5-5-4-4-0-2---5---7-10-11--------|
E|---------------0------------------|----------------------------------|

  Main Riff Variation 4(Electric 1)
e|----------------------------------|----------------------------------|
B|----------------------------------|----------------------------------|
G|----------------------------------|-------------------9-------9s7----|
D|---x---------2------------------4-|-4-4---------2-7---9-------9s7--4-|
A|-----4-4-0h2---2------------------|-5-5-4-4-0-2-2-5---7-10-11--------|
E|---------------0------------------|----------------------------------|

  Main Riff Variation 5(Electric 1)
e|----------------------------------|----------------------------------|
B|----------------------------------|---------------------------9-s7---|
G|----------------------------------|---------------7---9-------9-s7---|
D|---4-------2-2------------------3s|-4-4---------2-7---9-------9-s7-3s|
A|-----4-4-0-----2----------------4s|-5---4---0h2---5---7-10h11------4s|
E|---------------0------------------|----------------------------------|

  Main Riff Variation 6(Electric 1)
e|----------------------------------|----------------------------------|
B|----------------------------------|------------------------9-9-s7----|
G|----------------------------------|---------------5---9--9-9-9-s7----|
D|-4-4-------2-2------------------3s|-4-4-------2-2-7---9--9-9-9-s7--3s|
A|-5---4-4-0-2-2-2----------------4s|-5---4-4-0-----5---7------------4s|
E|---------------0------------------|----------------------------------|

  Main Riff Variation 7(Electric 1)
e|----------------------------------|----------------------------------|
B|----------------------------------|---------------------------9-s7---|
G|----------------------------------|---------------7---9-------9-s7---|
D|-4-4-------2-2------------------3s|-4-4-------2-2-7---9-9--9--9-s7-3-|
A|-5---4-4-0-----2----------------4s|-5---4-4-0-----5---7-10-11------4-|
E|---------------0------------------|----------------------------------|

  Main Riff Variation 8(Electric 1)
e|----------------------------------|----------------------------------|
B|----------------------------------|----------------------------------|
G|----------------------------------|---------------7---9-------9------|
D|-4-4-------2-2------------------3s|-4-4---------2-7---9-------9------|
A|-5---4-4-0-----2----------------4s|-5---4-4-0-2---5---7-10h11--------|
E|---------------0------------------|--------------------------------0-|


  Break Riff Variation 1(Electric 1)
e|----------------------------------|----------------------------------|
B|----------------------------------|----------------------------------|
G|----------------------------------|---------------7---9--------------|
D|-4-4---------2------------------4-|-4-4-------2---7---9--------2-4---|
A|-5-5-4-4-0-2---2------------------|-5-5-4-4-0-2---5---7----3-4-----0-|
E|---------------0------------------|----------------------------------|

e|----------------------------------|----------------------------------|
B|----------------------------------|----------------------------------|
G|----------------------------------|----------------------------------|
D|-------2-4-5-------2-4-5-------2--|-4-2-----------2-4---------2-4-5--|
A|---3-4---------3-4---------3-4----|-----3-4-0-3-4-----0---3-4--------|
E|----------------------------------|----------------------------------|

e|----------------------------------|
B|----------------------------------|
G|-------------------------------3s4|
D|-------2-4-5-------2-4------------|
A|---3-4---------3-4-----0-3-4-0-4s5|
E|----------------------------------|

  Riff 2(Electric 1)Played with fingers and pick
e|----------------------------------|
B|----------------------------------|
G|-4-4s2-0-0-1---1---1-2-1---1-2-3s-|
D|-----------0---0-------0----------|
A|-5---4---2-----2---2-4-2---2-4-4s-|
E|---------------0------------------|

  Riff 2 variation 1(Electric 1)Played with fingers and pick
e|----------------------------------|
B|----------------------------------|
G|-4-4---0-0-1---1---1-2-1---1-2-2s-|
D|---------0------------------------|
A|-5---4---2-----2-----4-2-----4-4s-|
E|-------------0--------------------|

  Riff 2 variation 2(Electric 1)Played with fingers and pick
e|-------------0--------------------|
B|-------------0--------------------|
G|-4-4s2-0-0-1---1---1-2-1---1-2-2s-|
D|---------------0-------0----------|
A|-5---4---2-----2---2-4-2---2-4-4s-|
E|---------------0------------------|



  Riff 2 variation 3(Electric 1)Played with fingers and pick
e|----------------------------------|
B|-----------------------9-9-9s4----|
G|-4-4s2-0-0-1---7---9---9-9-9s4-3s-|
D|---------------7---9---9-9-9s4----|
A|-5---4---2-----5---7-----------4s-|
E|----------------------------------|

  Riff 2 variation 4(Electric 1)Played with fingers and pick
e|----------------------------------|
B|-----------------------------9----|
G|-4-4s2-0-0-1---7---9---------9----|
D|-------------2-7---9---------9----|
A|-5---4---2-----5---7---10s11------|
E|--------------------------------0-|

  
  Solo(Electric 3)with tremelo bar
e|----------------------------------|----------------------------------|
B|-----------9\7/9------------------|--------------5-------------------|
G|-----------9\7/9------------------|----------------7------------4-6--|
D|-----------9\7/9-----9-0~~~~~~~~~~|~~--------0s6------------5s6------|
A|-----------7\5/7------------------|----------------------------------|
E|----------------------------------|----------------------------------|

e|----------------------------------|----------------------------------|
B|-5-----7-b8-r7-b8-r7-b8-b9------8b|10-------8b12--8b12r8p7-----------|
G|----------------------------------|------------------------7---------|
D|----------------------------------|----------------------------------|
A|----------------------------------|----------------------------------|
E|----------------------------------|----------------------------------|

e|---------------------------12-----|---*------------------------------|
B|----11---b12--11b12r11p9----------|----*---------10b12r10b12----10b12|
G|----------------------------------|-----9h12-------------------------|
D|----------------------------------|----------------------------------|
A|----------------------------------|----------------------------------|
E|----------------------------------|----------------------------------|

e|----------------------------------|----------------------------------|
B|r10p8-----b9--10\8/10\8/10----8b10|r8p5-5---5---5---5h8p5------------|
G|----------------------------------|-------7---7---7-------7----------|
D|----------------------------------|----------------------------------|
A|----------------------------------|------------------------------0---|
E|----------------------------------|----------------------------------|

e|--------12----------0------15-----|-15------15-------0---------------|
B|------12--15-15b17--15b17----15b17|---15b17----15b17---15b17r15------|
G|-14b15----------------------------|-----------------------------14b16|
D|----------------------------------|----------------------------------|
A|----------------------------------|----------------------------------|
E|----------------------------------|----------------------------------|

e|----------------------------------|----------------------------------|
B|----------------------------------|--------------------12---12\!-----|
G|-14b16-14-13-14-12-14--14p12--b13-|--------------12-12-12---12\!-----|
D|----------------------------------|-----------12---------------------|
A-----------------------------------|-----12h14------------------------|
E|----------------------------------|----------------------------------|

e|----------------------------------|----------------------------------|
B|----------------------------------|------------12\10/12\10/12\10/12--|
G|----------------------------------|------------12\10/12\10/12\10/12--|
D|----------------------------------|----------------------------------|
A|----------------------------------|----------------------------------|
E|----------------------------------|----------------------------------|



  Riff 3(Electric 1)
e|----------------------------------|----------------------------------|
B|---------9---------------7-----7--|----------------------------------|
G|---------9-----9---------7-----7--|-------2---2-------------2-4------|
D|---9--9--9-----11---7-7--7-----9--|---2-2-2---2-4-2-2---4---2-4------|
A|---10-11------------8-9-----------|---3-4-----------------------*----|
E|----------------------------------|-------------------------------0--|

  Riff 3 Variation 1(Electric 1)
e|----------------------------------|----------------------------------|
B|---------9---------------7-----7--|----------------------------------|
G|---------9-----9---------7-----7--|-------2---2-------------2-4------|
D|---9--9--9-----11---7-7--7-----9--|---2-2-2---2-4p2-2---4---2-4------|
A|---10-11------------8-9-----------|---3-4----------------------------|
E|----------------------------------|-----------------------------0-0--|

  Riff 3 Variation 2(Electric 1)
e|----------------------------------|----------------------------------|
B|---------9---------------7-----7--|----------------------------------|
G|---------9-----9---------7-----7--|-------2---2-------------2-4------|
D|---9--9--9-----11---7-7--7-----9--|---2-2-2---2-4-2-2---4---2-4---4--|
A|---10-11------------8-9-----------|---3-4-----------------------0-5--|
E|----------------------------------|----------------------------------|

  Riff 3 Variation 3(Electric 1)
e|----------------------------------|----------------------------------|
B|---------9---------------7--------|----------------------------------|
G|---------9-----11--------7-----9--|-------2---2-------------2-4------|
D|---9--9--9-----11---7-7--7-----9--|-------2---2-4-*-2---4---2-4------|
A|---10-11------------8-9-----------|---3-4-----------------------0----|
E|----------------------------------|-------------------------------0--|

  Riff 3 Variation 4(Electric 1)
e|----------------------------------|----------------------------------|
B|---------9---------------7--------|----------------------------------|
G|---------9-----11--------7-----9--|-------2---2----------------------|
D|---9--9--9-----11---7-7--7-----9--|-------2---2-4-2-5---4---2-4------|
A|---10-11------------8-9-----------|---3-4-----------------------0----|
E|----------------------------------|-------------------------------0--|

  Riff 3 Variation 5(Electric 1)
e|----------------------------------|----------------------------------|
B|---------9---------------7--------|----------------------------------|
G|---------9-----11--------7-----9--|-------2---2----------------------|
D|---9--9--9-----11---7-7--7-----9--|-------2---2-4-2-5---4---2-4------|
A|---10-11------------8-9-----------|---3-4-----------------------0-0--|
E|----------------------------------|----------------------------------|

  Riff 3 Variation 6(Electric 1)
e|----------------------------------|----------------------------------|
B|---------9---------------7-----7--|-------------------------------2--|
G|---------9-----9---------7-----7--|-------2---2-----2---4---2-----2--|
D|---9--9--9-----11---7-7--7-----9--|---2-2-2---2-4-2-2---4---2-----2--|
A|---10-11------------8-9-----------|---3-4---------------------0---0--|
E|----------------------------------|-----------------------------0----|


  Riff 3(Electric 2)
e|----------------------------------|----------------------------------|
B|---------9---------------7-----7--|----------------------------------|
G|---------9-----9---------7-----7--|-------2---2-------------2-4------|
D|---9--9--9-----11---7-7--7-----9--|---2-2-2---2-4-2-2---4---2-4------|
A|---10-11------------8-9-----------|---3-4-----------------------0----|
E|----------------------------------|-------------------------------0--|

  Fill 1(Electric 2)
e|----------------------------------|----------------------------------|
B|----------------------------------|----------------------------------|
G|----------------------------------|----------------------------------|
D|----------------------------------|----------------------------------|
A|---------------2------------------|----------------------------------|
E|---------------0------------------|----------------------------------|
  
  Fill 2(Electric 2)
e|--------------------------------0-|----------------------------------|
B|----------------------------------|--5-5-3-3-2-2-3-3-2-2-------------|
G|----------------------------------|--6-6-4-4-2-2-4-4-2-2-------------|
D|----------------------------------|-------{0-0}----------4-4-2-------|
A|----------------------------------|----------------------------3-4---|
E|----------------------------------|--------------------------------0-|
  The notes inside these {} are played 
  only the first time this fill is played

  Fill 2 Variation 1(Electric 2)
e|--------------------------------0-|----------------------------------|
B|----------------------------------|--5-5-3-3-2-2-3-3-2-2-------------|
G|----------------------------------|--6-6-4-4-2-2-4-4-2-2-------------|
D|----------------------------------|----------------------4-4-2-------|
A|----------------------------------|----------------------------3-4-0-|
E|----------------------------------|----------------------------------|

  Fill 2 Variation 2(Electric 2)
e|--------------------------------0-|----------------------------------|
B|----------------------------------|--5-5-3-3-2-2-3-3-2-2-----------2-|
G|----------------------------------|--6-6-4-4-2-2-4-4-2-2-----------2-|
D|----------------------------------|----------------------4-4-2-----2-|
A|----------------------------------|----------------------------3-4-0-|
E|----------------------------------|----------------------------------|


  Riff 4(Electric 4)
e|---5-----5-------7-5--------------|-5-----------------------5------5-|
B|---5---5-5-8-7-5-----8-7-5-----5--|---8-7-5-----5-----------5------5-|
G|-----6---------------------5-6----|---------5h6-6-----------6------6-|
D|----------------------------------|-------------7-----------7------7-|
A|----------------------------------|-------------------------------{0}|
E|----------------------------------|----------------------------------|
the note inside the {} is played by Electric 1


  Riff 4(Electric 5)
e|----------------------------------|----------------------------------|
B|----------------------------------|----------------------------------|
G|---------2-------4-2--------------|-2--------------------------------|
D|-------2---5-4-2-----5-4-2-----2--|---5-4-2-----------------2------2-|
A|---3-4---------------------3-4----|---------3-4-0-----------0------0-|
E|----------------------------------|----------------------------------|

  Riff 4(Electric 1)
e|----------------------------------|----------------------------------|
B|----------------------------------|----------------------------------|
G|---------2-------4-2--------------|-2-----------2-----------2------*-|
D|-------2---5-4-2-----5-4-2-----2--|---5-4-2-----2-----------2------*-|
A|---3-4---------------------3-4----|---------3-4----------------------|
E|----------------------------------|----------------------------------|

 Riff 4 Variation 1(Electric 1)
e|----------------------------------|----------------------------------|
B|----------------------------------|----------------------------------|
G|---------2-------4-2--------------|-2--------------------------------|
D|-------2---5-4-2-----5-4-2-----2--|---5-4-2-----------------2------2-|
A|---3-4---------------------3-4----|---------3-4-0-----------0------0-|
E|----------------------------------|----------------------------------|

 Riff 4 Variation 1(Electric 1)
e|----------------------------------|----------------------------------|
B|----------------------------------|----------------------------------|
G|---------2-------4-2--------------|-2-----------2-----------2------2-|
D|-------2---5-4-2-----5-4-2-----2--|---5-4-2-----2-----------2------2-|
A|---3h4---------------------3h4----|---------3h4--------------------0-|
E|----------------------------------|----------------------------------|

 Riff 4 Variation 2(Electric 1)
e|----------------------------------|----------------------------------|
B|----------------------------------|----------------------------------|
G|---------2-------4-2--------------|-2-----------2-----------2--2-----|
D|-------2---5-4-2-----5-4-2-----2--|---5-4-2-----2-----------2--2-----|
A|---3h4---------------------3h4----|---------3h4----------------------|
E|----------------------------------|----------------------------------|

  Fill 3(Electric 1)
e|----------------------------------|
B|----------------------------------|
G|----------------------------------|
D|-2--------------------------------|
A|{0}-------------------------------|
E|--------------------------------0-|

The note inside {} is played by both Electric 1 and Electric 2



  Fill 4(Electric 6)
e|----------------------------------|----------------------------------|
B|--------------------------------8s|10-10-8-8-5-5-7-7-5-5-------------|
G|--------------------------------9s|11-11-9-9-6-6-7-7-6-6-4-4-2-------|
D|----------------------------------|----------------------------4-4-2-|
A|----------------------------------|----------------------------------|
E|----------------------------------|----------------------------------|

  Fill 4 variation 1(Electric 6)
e|----------------------------------|----------------------------------|
B|--------------------------------8s|10-10-8-8-*-----------------------|
G|--------------------------------9s|11-11-9-9-*-6-7p6-6-6-4---2-------|
D|----------------------------------|----------------------------2-----|
A|----------------------------------|------------------------------0---|
E|----------------------------------|----------------------------------|

  Fill 5(Electric 1)
e|----------------------------------|
B|----------------------------------|
G|-2--------------------------------|
D|-2--------------------------------|
A|-0--------------------------------|
E|----------------------------------|




Song Progresstion
Intro(Electric 1) 1x
Main Riff (Electric 1) 6x
Break Riff (Electric 1) and Break Riff (Electric 2)  1x

Main Riff Variation 1(Electric 1) 1x
Main Riff Variation 2(Electric 1) 1x
Main Riff Variation 3(Electric 1) 1x
Main Riff (Electric 1) 2x
Break Riff Variation(Electric 1) and Break Riff (Electric 2)  1x

Riff 2 variation 1(Electric 1) 1x
Riff 2 variation 2(Electric 1) 2x
Riff 2 (Electric 1) 6x
Riff 2 variation 3(Electric 1) 1x
Riff 2 (Electric 1) 1x
Riff 2 variation 4(Electric 1) 1x *
Riff 3 Variation 1(Electric 1) 1x
Riff 3(Electric 1) 2x @
Riff 3 Variation 2(Electric 1) and Riff 3(Electric 2)1x

Note Electric 2 doubles Electic 1 from the last note in * to the end of @

Solo(Electric 3) and 
Main Riff Variation 4(Electric 1) 1x then Main Riff (Electirc 1) 4x then
Break Riff (Electric 1) and Break Riff (Electric 2)  1x 

Main Riff Variation 5(Electric 1) and Fill 1(Electric 2) 1x
Main Riff Variation 6(Electric 1) and Fill 1(Electric 2) 1x
Main Riff Variation 7(Electric 1) and Fill 1(Electric 2) 3x
Main Riff Variation 8(Electric 1) and Fill 1(Electric 2) 1x

Riff 3 Variation 3(Electric 1) and Fill 2(Electric 2) 3x
Riff 3 Variation 4(Electric 1) and Fill 2(Electric 2) 1x
Riff 3 Variation 3(Electric 1) and Fill 2(Electric 2) 1x
Riff 3 Variation 5(Electric 1) and Fill 2 Variation 1(Electric 2) 1x
 
Riff 4(Electric 4) and Riff 4(Electric 5) 1x
Riff 4(Electric 1) doubled by Elecric 2 1x   
Fill 3(Electric 1) 1x

Riff 3(Electric 1) and Fill 2(Electric 2) and Fill 4(Electric 6) 5x

Riff 3 Variation 6(Electric 1) and 
        Fill 2 Variation 2(Electric 2) and Fill 4 Variation 1(Electric 6)
1x

Riff 4 Variation 1(Electric 1) doubled by Elecric 2 1x   
Riff 4 Variation 2(Electric 1) doubled by Elecric 2 1x  
Fill 5(Electric 1) doubled by Elecric 2 1x

Lyrics

I was burned in the heat of the moment,
No, it could've been the heat of the day
When I learned how my time had been wasted,
Dear fellows I turned away
Now I've got friends who will give me their shoulder,
When I should happen to fall
Time and his bride growing older
I've got friends who will give me fuck all 

La la la la la la yeah
La la la la la la na baby
La la la la la la yeah
La la la la la la 

Corner of Bleeker and nowhere
In the land of not quite day
A shiver runs down my backbone
Face in the mirror turns grey
So, looked around for a hitch from a reindeer
Search hard tryin' find in the day
I turned around to look for the snowman
To my surprise he'd melted away. Yeah 

La la la la la la yeah
La la la la la la na baby
La la la la la la yeah
La la la la la la 

The moon and the stars grow older
Sabotage stands to ebb and sway
The sun in my soul's sinking lower
While the hope in my hands turns to clay
I don't ask that my fists full of clover
I don't roam at opportunity's door
Why don't you ask my advice, take it slower 
Then your story'd be your finest reward.

La la la la la la yeah
La la la la la la na baby
La la la la la la yeah
La la la la la la Now do it

Oh, oh oh oh, oh oh oh, 
oh oh oh, oh oh oh, oh oh oh
oh oh oh, oh oh oh, oh oh oh
oh oh oh, oh oh oh, oh oh oh
oh oh oh, oh oh oh, oh oh oh

Lost on the path to attainment
Searchin' the eyes of the wise
When I bled from the heart of the matters 
I started bleeding without a disguise
Now that everything's finally heaven
Now and then you've got to take time to pose
Let you down on the ground, We'll have you messin' around
If you land in a boat without oars

La la la la la la yeah
La la la la la la na baby
La la la la la la yeah
La la la la la la 


Hey babe oh , Hey babe oh, Hey babe,
I lost my way.
Hey babe oh , Hey babe oh, Hey babe,
I lost my way.
Hey babe oh, Hey babe oh ,
I don't know where I'm gonna find it.
Hey babe oh , Hey babe oh,
Do you wanna know,
Do you really, really, wanna help me, yeah?
Let me tell you now, babe oh
Let me tell you oh
That it feels so good that it must be right
Now my babe oh , 
Let me tell you oh,
If it feels so good that it must be right
Now my babe oh , 
Let me tell you oh,
If it feels if it feels if it feels if it feels 
so good, so good, so good. Oh yes yeah.

NOTATION USED:
p=pull off 
h=hammer on
s=slide
b=bend
r=release
X=right hand palm mute
x=left hand palm mute
*=percusive mute
\ & /=use tremelo to lower & raise notes
\!=use tremelo to drop note far as possible
~tremelo vibrato 

TEA FOR ONE
Led Zeppelin
"Presence"

(Page, Plant)

3/4 blues in Cm


8 bars of Cm
8 bars of Fm
8 bars of Cm
4 bars of Gm (first bar is actually 2 beats of Fm and one beat of Gm)
2 bars of Fm
2 bars of Bb
back to Cm

--3----1----3----6--------
--4----1----3----6--------
--5----1----3----7--------
--5----3----5----8--------
--3----3----5----8--------
-------1----3----6--------
  Cm   Fm   Gm   Bb


------------------------------
-------6--(4)-----------------
------------------------------
---5s7---7s5------------------
------------------------------
------------------------------
riff played over Cm every so often
...let notes ring (that F has to go back down to Eb)

------------------------------
------------------------------
------3--(1)------------------
------------------------------
--3s5---5s3-------------------
------------------------------
same riff played over Fm


---6--8--10--10--8h10p8-------
------------------------------
---7--8--10--10--8h10p8-------
------------------------------
------------------------------
------------------------------
   Bb        Cm
riff played at the end of each verse



Every so often a verse is played like this:
---------------------------------------
---------------------------------------
--3--5-----3--5----3--5----------------
--3--5-----3--5----------3--5----------  Play twice
--1--3-----1--3----------------6-------
---------------------------------------


---------------------------------------
---------------------------------------
--8--10----8--10---3--5----------------  Play once, then the above bit
--8--10----8--10---------3--5----------
--6---8----6---8---------------6-------
---------------------------------------


---------------4-------4--------------6-----6--8--10--10--8h10p8--
-------------6---6-------6----------6---6-------------------------
-----------5-------5-------5------7---------7--8--10--10--8h10p8--
--3--5---3-----------3-------3--8---------------------------------
--3--5------------------------------------------------------------
--1--3------------------------------------------------------------
         This is an arpeggio bit            This is the familiar riff ...
         similar to what Pagey
         plays each time through


Took me a long time for this album tab, my first one actually. hope you liked it, please rate.
comments
print report bad tab
3 comments total.
+1 reply
hendrixyongpage wrote on November 5 2006, 01:39 pm

UR OUT OF UR MIND HOW LONG DID THIS TAKE U TO MAKE????? Great tab!!!!!!!

0 reply
ledzepGnRfan wrote on December 20 2006, 09:01 pm

sick Presence is the most underrated Zeppelin album!!
This tab, Zeppelin, and you rock! 5 stars

0 reply
lefthandguitar wrote on June 29 2009, 06:21 pm

He didn't make it he took the tabs from the other part of the Led Zeppelin tabs page, looked up lyrics, copied and pasted, then pasted where the parts go on the lyrics. I was expecting a good tab for at least half of these songs.

I want to post or [tab]
guest
You may want to rate the tab now too:
select rating
Please do not post tabs as comments. Select "correction" instead!