Oops, an error
Loading. Please wait.

Remasters Disc 1 Tab

14,804 views 15 this week
1 commentread comment
1 2 3 4 5
excellent!
x 3
Autoscroll
+/-
esc
set tempo
stop
Contributor
Difficulty
advanced
Hey! There's an official Ultimate Guitar app which is ideal
for learning songs when you're away from computer. Get the app
WARNING: You are trying to view
                                    content from Ultimate-Guitar.com
                                    in an unauthorized application,
                                    which is prohibited.

                                    Please use an official Ultimate
                                    Guitar Tabs application for iPhone,
                                    iPad or Android to access legitimate
                                    chords, guitar, bass, and drum tabs
                                    from Ultimate-Guitar.com database.

                                    Type "ultimate guitar tabs" in Apple
                                    App Store's or Android Market's
                                    search to find the application.
This is the tabs for Led Zeppelin's 1990 album "Rematers". This is only disc 1. i didn't
tab all these myself, i'm simply reposting them in the order of the remasters disc set. PLEASE RATE!!!!

Songs is order
1.Communication Breakdown
2.Babe I'm Gonna Leave You
3.Good Times Bad Times
4.Dazed And Confused
5.Whole Lotta Love
6.Heartbreaker
7.Ramble On
8.Immigrant Song
9.Celebration Day
10.Since I've Been Loving You
11.Black Dog
12.Rock N Roll
13.The Battle Of Evermore ( transcribed for guitar)
14.Misty Mountain Hop
15.Stairway To Heaven










-----------------------------------------------------------------------------
                Led Zeppelin - Commmunication Breakdown
-----------------------------------------------------------------------------
                                                                                    


Standard Tuning

E|----------------|----------------|----------------|----------------|
B|----------------|--7-----5---7---|----------------|--7-----5---7---|
G|----------------|--7-----6---7---|----------------|--7-----6---7---|
D|----------------|--7-----7---7---|----------------|--7-----7---7---|
A|----------------|--5-----7---5---|----------------|--5-----7---5---|
E|0-0-0-0-0-0-0-0-|0-------5-------|0-0-0-0-0-0-0-0-|0-------5-------| 6X

E|--------------5-|--------------5-|--------------5-|----------------|
B|--------------5-|--------------5-|--------------5-|----------------|
G|--------------6-|--------------6-|--------------6-|----------------|
D|--------------7-|--------------7-|--------------7-|----------------|
A|7-7-9-7-7-9---7-|--7-9-7-7-9---7-|---7-9-7-7-9--7-|--7-9-7-7-7-9-7-|
E|5-5-5-5-5-5---5-|--5-5-5-5-5---5-|---5-5-5-5-5--5-|--5-5-5-5-5-5-5-|

E|--------------7-|--------------7-|--------------7-|----------------|
B|--------------7-|--------------7-|--------------7-|----------------|
G|--------------8-|--------------8-|--------------8-|----------------|
D|--------------7-|--------------7-|--------------7-|----------------|
A|9-9-119-9-9-119-|--9-119-9-9-119-|--9-119-9-9-119-|--9-119-9-9-11--|
E|7-7-7-7-7-7-7-7-|--7-7-7-7-7-7-7-|--7-7-7-7-7-7-7-|--7-7-7-7-7-7-0-|

E|----------------|----------------|----------------|----------------|
B|----------------|--7-----5---7---|----------------|--7-----5---7---|
G|----------------|--7-----6---7---|----------------|--7-----6---7---|
D|----------------|--7-----7---7---|----------------|--7-----7---7---|
A|----------------|--5-----7---5---|----------------|--5-----7---5---|
E|0-0-0-0-0-0-0-0-|0-------5-------|0-0-0-0-0-0-0-0-|0-------5-------| 5X

E|--------------5-|--------------5-|--------------5-|----------------|
B|--------------5-|--------------5-|--------------5-|----------------|
G|--------------6-|--------------6-|--------------6-|----------------|
D|--------------7-|--------------7-|--------------7-|----------------|
A|7-7-9-7-7-9---7-|--7-9-7-7-9---7-|---7-9-7-7-9--7-|--7-9-7-7-7-9-7-|
E|5-5-5-5-5-5---5-|--5-5-5-5-5---5-|---5-5-5-5-5--5-|--5-5-5-5-5-5-5-|

E|--------------7-|--------------7-|--------------7-|--7-------------|
B|--------------7-|--------------7-|--------------7-|--7-------------|
G|--------------8-|--------------8-|--------------8-|--8-------------|
D|--------------7-|--------------7-|--------------7-|--7-------------|
A|9-9-119-9-9-119-|--9-119-9-9-119-|--9-119-9-9-119-|--9-119-9-----57|
E|7-7-7-7-7-7-7-7-|--7-7-7-7-7-7-7-|--7-7-7-7-7-7-7-|--7-7-7-7-----57|

                                     Rhythm part under Guitar Solo
E|----------------|----------------||----------------|----------------|
B|9---------------|----------------||----------------|--7-----5---7---|
G|9---------------|----------------||9-9-9-9-9-9-9-9-|--7-----6---7---|
D|9---------------|----------------||9-9-9-9-9-9-9-9-|--7-----7---7---|
A|7---------------|----------------||7-7-7-7-7-7-7-7-|--5-----7---5---|
E|7---------------|----------------||0-0-0-0-0-0-0-0-|--------5-------| 7X

  Rhythm part under Outro Guitar part
E|--------------5-|--------------5-|--------------5-|----------------|
B|--------------5-|--------------5-|--------------5-|----------------|
G|--------------6-|--------------6-|--------------6-|----------------|
D|--------------7-|--------------7-|--------------7-|----------------|
A|7-7-9-7-7-9---7-|--7-9-7-7-9---7-|---7-9-7-7-9--7-|--7-9-7-7-7-9-7-|
E|5-5-5-5-5-5---5-|--5-5-5-5-5---5-|---5-5-5-5-5--5-|--5-5-5-5-5-5-5-|

E|--------------7-|--------------7-|--------------7-|----------------|
B|--------------7-|--------------7-|--------------7-|----------------|
G|--------------8-|--------------8-|--------------8-|----------------|
D|--------------7-|--------------7-|--------------7-|----------------|
A|9-9-119-9-9-119-|--9-119-9-9-119-|--9-119-9-9-119-|--9-119-9-9-11--|
E|7-7-7-7-7-7-7-7-|--7-7-7-7-7-7-7-|--7-7-7-7-7-7-7-|--7-7-7-7-7-7-0-|

E|----------------|----------------|----------------|----------------|
B|----------------|--7-----5---7---|----------------|--7-----5---7---|
G|----------------|--7-----6---7---|----------------|--7-----6---7---|
D|----------------|--7-----7---7---|----------------|--7-----7---7---| 6X
A|----------------|--5-----7---5---|----------------|--5-----7---5---| then
E|0-0-0-0-0-0-0-0-|0-------5-------|0-0-0-0-0-0-0-0-|0-------5-------| fade

  Guitar Solo
E|---12------------14--------------------------12---------------------
B|12----151212-----12-1512121212-12-151212--12----151212--------------
G|16----------1416------------------------14------------14------------
D|--------------------------------------------------------------------
A|--------------------------------------------------------------------
E|--------------------------------------------------------------------

E|-------------------------12--------12--------------------------------
B|12-12-15----12-12-151212------12---12------------------------------12
G|---------14-----------------------------1412---14-13---------12-15---
D|--------------------------------------------14-------14-12-14--------
A|---------------------------------------------------------------------
E|---------------------------------------------------------------------

                                                    /---3--\/---3---\    
E|12----12----12---12---17---15---12----12----------12--------------------
B|---15----15------------------------15----------12-----------------------
G|-----------------------------------------14-16---------16-14-12----14-12
D|----------------------------------------------------------------14------
A|------------------------------------------------------------------------
E|------------------------------------------------------------------------

E|-----9----9----9----------------------------------------------------
B|---9-9-12-9-12-9----------------------------9--------------10-------
G|-----------------12-11911-11-9----9-9-11-12---119---11-9-9----------
D|12-----------------------------11----------------11-----------------
A|--------------------------------------------------------------------
E|--------------------------------------------------------------------

E|---10------10-----------------------------9-9-7-7-0-----------------
B|12-12---12----12-108--10-8----------------9-9-7-7-0-----------------
G|--------------------9------9-8-9----------9-9-7-7-0-----------------
D|--------------------------------------------------------------------
A|--------------------------------------------------------------------
E|---------------------------------12---0-----------------------------

  Outro Guitar solo
E|---------------------------------------------------------------------
B|9-9-9-10-10-10-11-11-12-12-13-13-14-14-15-15-16-16-17-17-201717-17-17
G|---------------------------------------------------------------------
D|---------------------------------------------------------------------
A|---------------------------------------------------------------------
E|---------------------------------------------------------------------

E|--------------------------19-22-------19-18-17----------------------
B|17-17-22---22-20-17----17----------------------20-19-17-------------
G|--------------------19------------------------------------18-17-21--
D|--------------------------------------------------------------------
A|--------------------------------------------------------------------
E|--------------------------------------------------------------------

E|---19----------------------24---24----------------------------------
B|------1917---17-17-19-17--------------------------------------------
G|----------18--------------------------------------------------------
D|--------------------------------------------------------------------
A|--------------------------------------------------------------------
E|--------------------------------------------------------------------

  Second outro solo at 02:18                    /---3---\
E|------------------------------------------------------------------------
B|12-----12---12---12------14-12----------------------20-----------20-----
G|-------------------1412--14-12----------12----19-21----2119-1921---21-19
D|-----------------------14------14-12-14-0-------------------------------
A|------------------------------------------------------------------------
E|------------------------------------------------------------------------

E|0-15-17-------------------------------------------------------------
B|------------------24-----------22---24-23-20-2223--21-22------------
G|--------------------------------------------------------------------
D|--------------------------------------------------------------------
A|--------------------------------------------------------------------
E|--------------------------------------------------------------------

             /--3-\   /--3-\     fade out
E|-----17---------------------------------------                       
B|--20-------172017---172017---17---------------                       
G|--------19-------19-------19------------------
D|----------------------------------------------
A|----------------------------------------------
E|----------------------------------------------





**************************
*Babe I'm Gonna Leave You*
**************************

There are four parts acoustic one and two and an electric guitar and a slide guitar.
Standard Tuning for all Guitars except slide. Tuning 1=D

KEY:
~=vribrato
()=optional note
/=slide up
\=slide down
%=eigth rest
h=hammer
D.S. :S: al Coda=Go back to :S:
(+)=Coda
P=pull off
T=use thumb
B=bend 1 step
R=Bend 1 step then return
X=mute
b=bend 1/2 step

Moderately slow with a halftime feel (A quarter note=138)
INTRO:Acoustic guitar 1
4/4 time.
|-------0---------|--------------------|--------------------|
|---------------1-|-------3----------1-|-------3----------1-|
|---2-2-------2---|-----0----------0---|-----2----------2---|
|---2-------2-----|---2----------2-----|---0----------0-----|
|0--------0-------|--------------------|--------------------|
|-----------------|-3----------3-------|-2----------2-------|

|--------------------|-------3----------0-|-------3----------0-|
|-------1----------0-|--------------------|--------------------|
|-----2----------1---|-----2----------2---|-----0----------0---|
|---3----------2-----|---2----------2-----|---2----------2-----|
|--------------------|-0----------0-------|--------------------|
|-1----------0-------|--------------------|-3----------3-------|

|--------------------|--------------------|
|-------3----------1-|-------1----------0-|
|-----2----------2---|-----2----------1---|
|---0----------0-----|---3----------2-----|
|--------------------|--------------------|
|-2----------2-------|-1----------0-------|

Verse 1
|-------3----------0-|--------------------|--------------------|
|--------------------|-------3----------1-|-------3----------1-|
|-----2----------2---|-----0----------0---|-----2----------2---|
|---2----------2-----|---2----------2-----|---0----------0-----|
|-0----------0-------|--------------------|--------------------|
|--------------------|-3----------3-------|-2----------2-------|
 Babe,                                                 ba - by,
|--------------------|-------3----------0-|--------------------|
|-------1----------0-|--------------------|-------3----------1-|
|-----2----------1---|-----2----------2---|----------------0---|
|---3----------2-----|---2----------2-----|---2-2--------2-----|
|--------------------|-0----------0-------|--------------------|
|-1----------0-------|--------------------|-3----------3-------|
  ba - by,___       I'm__ gon-na leave_you.___
|--------------------|--------------------|-------3----------0-|
|-------3----------1-|-------1----------0-|--------------------|
|-----2----------2---|-----2----------1---|-----2----------2---|
|---0----------0-----|---3----------2-----|---2----------2-----|
|--------------------|--------------------|-0----------0-------|
|-2----------2-------|-1----------0-------|--------------------|
                                    I said___  ba   _  by___
|--------------------|-------------------|--------------------|
|-------3----------1-|-------3---------1-|-------1----------0-|
|-----0----------0---|-----2---------2---|-----2----------1---|
|---2----------2-----|---0---------0-----|---3----------2-----|
|--------------------|-------------------|--------------------|
|-3----------3-------|-2---------2-------|-1----------0-------|
                                        you___ know___     I'm
|-------3----------1-|-------3----------1-|--------------------|
|--------------------|--------------------|-------3----------1-|
|-----2----------2---|-----0----------0---|-----2----------2---|
|---2----------2-----|---2----------2-----|---0----------0-----|
|-0----------0-------|--------------------|--------------------|
|--------------------|-3----------3-------|-2----------2-------|
  gon-na leave__ you.__
|--------------------|--------------------|--------------------|
|-------1----------1-|-------3----------1-|-------3----------0-|
|-----2----------1---|-----2----------2---|-----1----------1---|
|---3----------2-----|---3----------3-----|---2----------2-----|
|--------------------|--------------------|--------------------|
|-1----------0-------|-1----------1-------|-0----------0-------|
      I'll_____________ leave you_ when the  sum-mer time,___
|--------------------|--------------------|-------0----------0-|
|-------3----------1-|-------3----------0-|--------------------|
|-----2----------2---|-----1----------1---|-----2----------2---|
|---3----------3-----|---2----------2-----|---2----------2-----|
|--------------------|--------------------|-0----------0-------|
|-1----------1-------|-0----------0-------|--------------------|
    leave you when the  sum-mer  comes a rol  -   lin,__________
|-------3----------0-|--------------------|--------------------|
|--------------------|-------3----------1-|-------1----------0-|
|-----0------0-2hp0--|-----2----------2---|-----2----------1---|
|---2----------------|---0----------0-----|---3----------2-----|
|--------------------|--------------------|--------------------|
|-3---------3--------|-2----------2-------|-1----------0-------|
                         leave__ you when  the sum-mer comes a -
|0--0-0--0---0---0-|0-0-0-0-0-0-0--|
|1--1-1--1---8---6-|6-6-6-6-6-6-6-0|
|2--2-2--2-%-9-%-7-|7-7-7-7-7-7-7-0| Repeat 4 times
|2--2-2--2---9---7-|7-7-7-7-7-7-7-0|
|0--0-0--0---0---0-|0-0-0-0-0-0-0-0|
|------------------|---------------|
|long._______           :S:
|Acoustic 2                         To Coda (+) (second time through).
|0-------0---0----0--|--0--0--0--0--0--0---|
|5-------5---12---10-|--10-10-10-10-10-10-0|
|5--5-5--5-%-12-%-10-|--10-10-10-10-10-10-0| Repeat 4 times
|7--7-7--7---14---12-|--12-12-12-12-12-12-0|
|0--0-0--0---0----0--|--0--0--0--0--0--0---|
|--------------------|---------------------| To Coda (+)(+) (third time)

|------------------0|-------------------|-------------------|
|-------------------|-------3----------1|-------1----------1|
|-----2----------2--|-----0----------0--|-----2----------2--|
|---2----------2----|---2----------2----|---0----------0----|
|0----------0-------|-------------------|-------------------|
|-------------------|-3----------3------|-2----------2------|
 Ba  -  ba,__  ba,__    ba,___    ba,____  ba,______  ba  -
|-------------------|-------3----------0|-------------------|
|-------1----------1|-------------------|-------3----------1|
|-----2----------2--|-----2----------2--|-----0----------0--|
|---3----------3----|---2----------2----|---2----------2----|
|-------------------|-0----------0------|-------------------|
|-1----------0------|-------------------|-3----------3------|
    by,  mmm ba - by I don'twanna leave you___
|-------------------|-------------------|-------3----------0|
|-------3----------1|-------1----------0|-------------------|
|-----2----------2--|-----2----------1--|-----2----------2--|
|---0----------0----|---3----------2----|---2----------2----|
|-------------------|-------------------|-0----------0------|
|-2----------2------|-1----------0------|-------------------|
  I ain't__ jok-in'__  wo-man I've gor to____ ram  -  ble,
|-------------------|-------------------|-------------------|
|-------3----------1|-------1----------1|-------1----------0|
|-----0----------0--|-----2----------2--|-----2----------1--|
|---2----------2----|---0----------0----|---3----------2----|
|-------------------|-------------------|-------------------|
|-3----------3------|-2----------2------|-1----------0------|
                        oh_______ yeah,______________
|-------3----------0|-------------------|-------------------|
|-------------------|-------3----------1|-------3----------1|
|-----2----------2--|-----0----------0--|-----2----------2--|
|---2----------2----|---2----------2----|---0----------0----|
|-0----------0------|-------------------|-------------------|
|-------------------|-3----------3------|-2----------2------|
            Ba - by,  ba - by___ I won't|  be there,________
Acoustic two FILL                       |
                                        |------7h--10--12-----7h|
                                        |----8h-------------8h--|
                                        |--7h------------%-9----|
                                        |-9---------------------|
                                        |-----------------------|
                                        |-----------------------|
Acoustic 1
|-------------------|-------------------|-------------------|
|-------1----------1|-------3----------1|-------3----------0|
|-----2----------1--|-----2----------2--|-----1----------1--|
|---3----------2----|---3----------3----|---2----------2----|
|-------------------|-------------------|-------------------|
|-1----------0------|-1----------1------|-0----------0------|
|real - ly__ got to  ram  -  ble,_____
|Acoustic 2
|-10--12---8-10hp8\7--8---7-8hp7\|5~~~~~~~~~|~~~~~~~~~~~~|
|--------------------------------|----------|------------|
|--------%-----------------------|----------|------------|
|--------------------------------|----------|------------|
|--------------------------------|----------|------------|
|--------------------------------|----------|------------|

Acoustic 1
|-------------------|-------------------|
|-------3----------1|-------3----------0|
|-----2----------2--|-----1----------1--|
|---3----------3----|---2----------2----|
|-------------------|-------------------|
|-1----------1------|-0----------0------|
   I can hear it cal - lin' me the way it
|-------0-----------|-------------------|
|------------------3|-------1----------1|
|-----2----------2--|-----0----------2--|
|---2----------2----|---2----------3----|
|-0----------0------|-------------------|
|-------------------|-3----------3------|
  used  to do_____
|------------------0|-------------------|
|-------1-----------|-------1----------0|
|-----2----------2--|-----2----------1--|   D.S. :S: al Coda
|---3----------3----|---3----------2----|
|-------------------|-------------------|
|-3----------3------|-1----------0------|
   I can hear it cal - lin' me back home__
Coda 1 (+) Acoustic 1
|-------------------|-------------------|
|-------5----------9|-------8-------6---|
|-----4----------8--|-----7-------7-----|
|---2-----2/7--7----|---7-------7-------|
|0--------0(0)------|0--------0---------|
|-------------------|-------------------|
|Acoustic 2
|-------------------|-------------------|
|-----------------8-|-------8-------6---|
|-----4/5-------9---|-----7-------7-----|
|---2-------3/7-----|---7-------7-------|
|0--------0---------|0--------0---------|
|-------------------|-------------------|

|-------------------|-------------------|
|------------------8|-------8-------6---|
|-----4/5--------9--|-----7-------7-----|
|---2--------3/7----|---7-------7-------|
|0---------0--------|0--------0---------|
|-------------------|-------------------|
|                                         Repeat these two measures 2 times.
|-------------------|-------------------|
|------------------8|-------8-------6---|
|-----4/5--------9--|-----7-------7-----|
|---2-------3/7-----|---7-------7-------|
|0--------0---------|0--------0---------|
|-------------------|-------------------|

|-------------------|-------------------|-------------------|
|-------------------|-------------------|-------------------|
|9/14--14--9--14--14|9/12--12--9--12--12|9/11--11--9--11--11|
|9/14--14--9--14--14|9/12--12--9--12--12|9/11--11--9--11--11|
|7/12--12--7--12--12|7/10--10--7--10--10|7/9---9---7--9---9-|
|-------------------|-------------------|-------------------|
|Ba        -      by              C'mon,                Babe!
|Electric Guitar
|-------------------|-------------------|-------------------|
|-------------------|-------------------|-------------------|
|-------------------|-------------------|-------------------|
|---7--7-----7----7-|---5--5-----5----5-|---4--4-----4----4-|
|---7--7-----7----7-|---5--5-----5----5-|---4--4-----4----4-|
|0--5--5--0--5----5-|0--3--3--0--3----3-|0--2--2--0--2----2-|

|-------------------|
|-------------------|
|9/10--10--9--10--10|
|9/10--10--9--10--10|
|7/8---8---7--8---8-|
|-------------------|
|  I'm gonna leave you girl,__ oh,__ Ba  -  by,     you__ know,  I've real-ly got to leave_____ ya,____
|-------------------|
|-------------------|
|-------------------|
|---1--1-----2----2-|
|---1--1-----2----2-|
|0--3--3--0--0----0-|  Repeat these 4 measures 4 times.

|-------------------|-------------------|
|-------------------|-------------------|
|9/11--11--9--11-11-|-------------------|
|9/11--11--9--11-11-|9/10--10--9--10-10-|
|7/9---9---7--9---9-|7/8---8---7--8---8-|
|-------------------|-------------------|
| oh,                 I can hear it cal- lin' me,__
| I said don't you hear it__ cal-lin' me the way it used to do.__
|-------------------|-------------------|
|-------------------|-------------------|
|-------------------|-------------------|
|---3--3-----3----3-|---2--2-----2----2-|
|---3--3-----3----3-|---2--2-----2----2-| Repeat these 2 measures 2 times.
|0--1--1--0--1----1-|0--0--0--0--0----0-|  D.S. :S: al Coda

Coda (+)(+)
|-------0-----------|-------------------|-------------------|
|---------------1---|-------3----------1|-------3----------1|
|-----2-------2-----|-----0----------0--|-----2----------2--|
|---2-------2-------|---2----------2----|---0----------0----|
|0--------0---------|-------------------|-------------------|
|-------------------|-3----------3------|-2----------2------|
                              Acoustic 2|
                                        |
                                        |-------------------|
                                        |-----------5----6--|
                                        |-------------------|
                                        |-------------------|
                                        |-------------------|
                                        |-------------------|

|-------------------|-------3----------0|-------------------|
|-------1----------0|-------------------|-------3----------1|
|-----2----------1--|-----2----------2--|-----0----------0--|
|---3----------2----|---2----------2----|---2----------2----|
|-------------------|-0----------0------|-------------------|
|-1----------0------|-------------------|-3----------3------|
|
|-------------------|------------------|-------------------|
|8--6--5-6hp-5\3-5-3|1-3hp1p0----------|------1------------|
|-------------------|---------2--2~~~~~|-%--2---%-%------2-|
|-------------------|------------------|-------------------|
|-------------------|------------------|-------------------|
|-------------------|------------------|-------------------|

|-------------------|-------------------|
|-------3----------1|-------1----------0|
|-----2----------2--|-----2----------1--|
|---0----------0----|---3----------2----|
|-------------------|-------------------|
|-2----------2------|-1----------0------|
|
|---------0-------------|------------------------------|
|0--1--3-----3p1p0-1p0-0|------------------------------|
|---------------------2-|2p0---------------------------|
|-----------------------|----3p2p0-2p02p0--0--0--------|
|-----------------------|-----------------3--3-3-1-3hp1|
|-----------------------|------------------------------|

|-------3----------1|-------1----------0|-------0----------0|
|-------------------|-------------------|-------------------|
|-----2----------2--|-----0----------0--|-----2----------2--|
|---2----------2----|---2----------2----|---0----------0----|
|-0----------0------|-------------------|-------------------|
|-------------------|-3----------3------|-2----------2------|
|  I know_________     I know_________    I know I'm nev-er nev-
|-------------------|
|-------------------|
|-------------------|
|-------------------|
|0------------------|
|-------------------|

|-------0----------0|-------------------|-------------------|
|-------------------|-------1----------1|-------1----------1|
|-----2----------1--|-----2----------2--|-----0----------0--|
|---3----------2----|---2----------2----|---2----------2----|
|-------------------|-0----------0------|-------------------|
|-1----------0------|-------------------|-3----------3------|
er never never never gonna leave you, babe,___
|-------------------|-------------------|-------3----------1|
|-------1----------1|-------1----------0|-------------------|
|-----2----------2--|-----2----------1--|-----2----------2--|
|---0----------0----|---3----------2----|---2----------2----|
|-------------------|-------------------|-0----------0------|
|-2----------2------|-1----------0------|-------------------|
            I've got-ta go a-way form this place
|-------0----------1|-------0-----------|-------0----------0|
|-------------------|------------------3|-------------------|
|-----0----------0--|-----2----------2--|-----2----------1--|
|---2----------2----|---0----------0----|---3----------2----|
|-------------------|-------------------|-------------------|
|-3----------3------|-2----------2------|-1----------0------|
               I      got-ta quit___ you, yeah,    oh________
|-------------------|-------------------|-------------------|
|-------1----------1|-------1----------1|-------1----------1|
|-----2----------2--|-----0----------0--|-----2----------2--|
|---2----------2----|---2----------2----|---0----------0----|
|-0----------0------|-------------------|-------------------|
|-------------------|-3----------3------|-2----------2------|
  ___     Ba  -  by        ba  -  by            ba  -  by
|-------------------|0--0--0--0--0---0--|3--3--3P0---3---3--|
|-------1----------0|0--1--1--0--1---1--|1--1--1-----1---1--|
|-----2----------1--|0--2--2--0--2---2--|0--0--0-----0---0--|
|---3----------2----|0--2--2-----2---2--|2--2--2-----2---2--|
|-------------------|0--0--0-----0---0--|0--0--0-----0---0--|
|-1----------0------|-------------------|-------------------|
    ba  -  by,__    |   ba  -  by,___           ba  -  by,___
                    | Electric guitar
                    |-------------------|-------------------|
                    |-------------------|-------------------|
                    |-------------------|-------------------|
                    |---7--7-----7----7-|---5--5-----5----5-|
                    |---7--7-----7----7-|---5--5-----5----5-|
                    |0--5--5--0--5----5-|0--3--3--0--3----3-|

|0--2--2P0---2---2--|---0--0-----0---0--|0--0--0--0--0---0--|
|1--1--1-----1---1--|---1--1-----0---0--|1--1--1--0--1---1--|
|2--2--2-----2---2--|---2--2-----1---1--|2--2--2--0--2---2--|
|0--0--0-----0---0--|---3--3-----2---2--|2--2--2--0--2---2--|
|-------------------|------------2---2--|0--0--0-----0---0--|
|-------------------|1T----------0---0--|-------------------|
| ba  -  by,_____     oh,__________
|-------------------|-------------------|-------------------|
|-------------------|-------------------|-------------------|
|-------------------|-------------------|-------------------|
|---4--4-----4----4-|---3--3-----2----2-|---7--7-----7----7-|
|---4--4-----4----4-|---3--3-----2----2-|---7--7-----7----7-|
|0--2--2--0--2----2-|0--1--1--0--0----0-|0--5--5--0--5----5-|

|0--3--3P0---3---3--|0--2--2P0---2---2--|---0--0-----0---0--|
|1--1--1-----1---1--|1--1--1-----1---1--|---1--1-----0---0--|
|0--0--0-----0---0--|2--2--2-----2---2--|---2--2-----1---1--|
|2--2--2-----2---2--|0--0--0-----0---0--|---3--3-----2---2--|
|0--0--0-----0---0--|-------------------|------------2---2--|
|-------------------|-------------------|1T----------0---0--|
|                    don't you hear it  cal-lin' him?______
|-------------------|-------------------|-------------------|
|-------------------|-------------------|-------------------|
|-------------------|-------------------|-------------------|
|---5--5-----5----5-|---4--4-----4----4-|---3--3-----2----2-|
|---5--5-----5----5-|---4--4-----4----4-|---3--3-----2----2-|
|0--3--3--0--3----3-|0--2--2--0--2----2-|0--1--1--0--0----0-|

|-------0-----------|-------------------|-------------------|
|------------------3|-------1----------3|-------1----------1|
|-----2----------2--|-----0----------0--|-----2----------2--|
|---2----------2----|---2----------2----|---0----------0----|
|0-----------0------|-------------------|-------------------|
|-------------------|-3----------3------|-2----------2------|
                           oh,______          wo - man,______
|-------------------|-------3----------1|-------0-----------|
|-------1----------0|-------------------|------------------3|
|-----2----------1--|-----2----------2--|-----0----------0--|
|---3----------2----|---2----------2----|---2----------2----|
|-------------------|-0----------0------|-------------------|
|-1----------0------|-------------------|-3----------3------|
                    |  wo-man,              I  know,_____
                    | slide guitar  Tuning (1)= D
                    |---------19-19/17--|-17/19---19~~~~~~~~|
                    |-------------------|-------------------|
                    |-------------------|-------------------|
                    |-------------------|-------------------|
                    |-------------------|-------------------|
                    |-------------------|-------------------|

                                         Alternate fingering
|-------0-----------|-------0----------0|-------------------|
|------------------3|-------------------|-------8----------6|
|-----2----------2--|-----2----------1--|-----5----------5--|
|---0----------0----|---3----------2----|---7----------7----|
|-------------------|-------------------|-0----------0------|
|-2----------2------|-1----------0------|-------------------|
|              I     know,____       it feels good to have you back a-
|-------------------|-------------------|-------------------|
|-------------------|-10--10--10--10--10|-10~~~~~~~~~~~~~~~~|
|-------------------|-------------------|-------------------|
|-------------------|-------------------|-------------------|
|-------------------|-------------------|-------------------|
|-------------------|-------------------|-------------------|

|-------------------|-------------------|-------0----------0|
|-------6----------5|-------5----------3|-------------------|
|-----4----------4--|-----2----------2--|-----2----------1--|
|---5----------5----|---4----------4----|---3----------2----|
|-------------------|-------------------|-------------------|
|-3----------3------|-2----------2------|-1----------0------|
|gain and not know_ that one day baby,  it's real-ly gon-na
|-------------------|-------------------|-------------------|
|-------------------|---------------10-/|12-----12h\10/12---|
|-------------------|-------------------|-------------------|
|-------------------|-------------------|-------------------|
|-------------------|-------------------|-------------------|
|-------------------|-------------------|-------------------|

|-------------------|-------------------|-------------------|
|-------8----------6|-------5----------6|-------5----------3|
|-----5----------5--|-----4----------4--|-----2----------2--|
|---7----------7----|---5----------5----|---4----------4----|
|-0----------0------|-------------------|-------------------|
|-------------------|-3----------3------|-2----------2------|
| grow_ yes it is,_  we gonna go      walkin' through the park
|-------------------|-------------------|-------------------|
|10/12-\-10~~~~~~~~~|~~~~~~-------------|-------------------|
|-------------------|-------------------|-------------------|
|-------------------|-------------------|-------------------|
|-------------------|-------------------|-------------------|
|-------------------|-------------------|-------------------|

|------------------0|0--0--0--0--0---0--|3--3--3P0---3---3--|
|-----3-0----------0|0--1--1--0--1---1--|1--1--1-----1---1--|
|---2------------1--|0--2--2--0--2---2--|0--0--0-----0---0--|
|---3----------2----|0--2--2--0--2---2--|2--2--2-----2---2--|
|-------------------|0--0--0-----0---0--|0--0--0-----0---0--|
|-1----------0------|-------------------|-------------------|
| ev-ry' day.___    |                            Come what
|                   |Electric
|-------------------|-------------------|-------------------|
|--------10\8/10\8\5|-------------------|-------------------|
|-------------------|-------------------|-------------------|
|-------------------|---7--7-----7----7-|---5--5-----5----5-|
|-------------------|---7--7-----7----7-|---5--5-----5----5-|
|-------------------|0--5--5--0--5----5-|0--3--3--0--3----3-|
                                                  C
|0--2--2P0---2----2-|---0--0-----0---0--|0--0--0--0--0---0--|
|1--1--1-----1----1-|---1--1-----0---0--|0--1--1--0--1---1--|
|2--2--2-----2----2-|---2--2-----1---1--|0--2--2--0--2---2--|
|0--0--0-----0----0-|---3--3-----2---2--|0--2--2--0--2---2--|
|-------------------|------------2---2--|0--0--0---------0--|
|-------------------|1T----------0---0--|-------------------|
|    may____  every  day_____    oh_________      come what_
|-------------------|-------------------|-------------------|
|-------------------|-------------------|-------------------|
|-------------------|-------------------|-------------------|
|---4--4-----4----4-|---3--3-----2----2-|---7--7-----7----7-|
|---4--4-----4----4-|---3--3-----2----2-|---7--7-----7----7-|
|0--2--2--0--2----2-|0--1--1--0--0----0-|0--5--5--0--5----5-|

|3--3--3p0---3---3--|0--2--2p0---2---2--|---0--0-----0---0--|
|1--1--1-----1---1--|1--1--1-----1---1--|---1--1-----0---0--|
|0--0--0-----0---0--|2--2--2-----2---2--|---2--2-----1---1--|
|2--2--2-----2---2--|0--0--0-----0---0--|---3--3-----2---2--|
|0--0--0-----0---0--|-------------------|------------2---2--|
|-------------------|-------------------|1T----------0---0--|
|_ come__ what___  come what may__       I'm gonna leave you
|-------------------|-------------------|-------------------|
|-------------------|-------------------|-------------------|
|-------------------|-------------------|-------------------|
|---5--5-----5----5-|---4--4-----4----4-|---3--3-----2----2-|
|---5--5-----5----5-|---4--4-----4----4-|---3--3-----2----2-|
|0--3--3--0--3----3-|0--2--2--0--2----2-|0--1--1--0--0----0-|

Alternate back
|-------0-----------|-------------------|-------2-----------|
|------------------1|-------3----------1|------------------1|
|-----2----------2--|-----0----------0--|-----2----------2--|
|---2----------2----|---2----------2----|---0----------0----|
|0-----------0------|-------------------|-------------------|
|-------------------|-3----------3------|-2----------2------|
|go  a-way__________|___________________________
                    |Acoustic 2
			  |rake
                    |--7--10-8-8-7-8-7-----|-------------------|
                    |-8----------------10-8|7-8-7---7----------|
                    |9---------------------|------9------7-----|
                    |----------------------|-------------------|
                    |----------------------|-------------------|
                    |----------------------|-------------------|

|-------------------|`------3----------1|-------0----------1|
|-------1----------0|-------------------|-------------------|
|-----2----------1--|-----2----------2--|-----0----------0--|
|---3----------2----|---2----------2----|---2----------2----|
|-------------------|-0----------0------|-------------------|
|-1----------0------|-------------------|-3----------3------|
|     oh,______________
|-------------------|-------------------|-------------------|
|-------------------|-------------------|-------7B--7B------|
|-4-/-7-/5-4--5--4-2|-4-----------------|--------------8p7p5|
|-------------------|---2---------------|-------------------|
|-------------------|-------------------|-------------------|
|-------------------|-------------------|-------------------|

|-------0-----------|-------0----------0|-------3----------1|
|------------------3|-------------------|-------------------|
|-----2----------2--|-----2----------1--|-----2----------2--|
|---0----------0----|---3----------2----|---2----------2----|
|-------------------|-------------------|-0----------0------|
|-2----------2------|-1----------0------|-------------------|
|
|-------------------|---------------------|-------------------|
|-------------------|---------------------|-------------------|
|--7~~~~~~~---7R----|-7-7--7-5h-X-5h-5---7|-5-----------------|
|-------------------|---------------------|----7--------------|
|-------------------|---------------------|-------7-----------|
|-------------------|---------------------|-------------------|

|-------0----------1|-------0-----------|-------0-----------|
|-------------------|------------------3|------------------0|
|-----0----------0--|-----2----------2--|-----2----------1--|
|---2----------2----|---0----------0----|---3----------2----|
|-------------------|-------------------|-------------------|
|-3----------3------|-2----------2------|-1----------0------|
|                                           It was real - ly
|-------------------|-------------------|-------------------|
|-------------------|-------------------|-------------------|
|-------------0-----|0------------------|--------0-------0--|
|-------0-1/2---1/2-|--1/2~~~~~~~~~-----|-0-1/2-----1/2-----|
|-0-1/3-------------|-------------------|-------------------|
|-------------------|-------------------|-------------------|

|-------------------|-------------------|-------------------|
|-------1----------1|-------1----------1|-------1----------1|
|-----2----------2--|-----0----------0--|-----2----------2--|
|---2----------2----|---2----------2----|---0----------0----|
|-0----------0------|-------------------|-------------------|
|-------------------|-3----------3------|-2----------2------|
|        really good_                          you__ made me
|                   rake     rake   rake   rake   rake  rake   rake  rake
|-------------------|--7-10---7-10--7-10--7-|10--7-10---7-10---7-10---7-|
|-------------------|-8------8-----8-----8--|---8------8------8------8--|
|-------------------|9------9-----9-----9---|--9------9------9------9---|
|-0/2P---0----------|-----------------------|---------------------------|
|------3---3--0-----|-----------------------|---------------------------|
|-------------------|-----------------------|---------------------------|

         (ooh,)         (ooh,)______________________________
                    NOTE:really quietly, get louder
|-------------------|-------------------|-------3----------0|
|-------1----------0|-------1----------1|-------------------|
|-----2----------1--|-----2----------2--|-----0----------0--|
|---3----------2----|---2----------2----|---2----------2----|
|-------------------|-0----------0------|-------------------|
|-1----------0------|-------------------|-3----------3------|
|happy evry' single day,____
|10-8-7-8-7----7--------|---------------|-------------------|
|-----------10--10-8-7-8|--10-10\-------|-------------10--10|
|-----------------------|---------------|-------------------|
|-----------------------|---------------|-------------------|
|-----------------------|---------------|-------------------|
|-----------------------|---------------|-------------------|

|-------------------|-------------------|
|-------1----------1|-------1----------0|
|-----2----------2--|-----2----------1--|
|---0----------0----|---3----------2----|
|-------------------|-------------------|
|-2----------2------|-1----------0------|
|      But now,___    I've got to go a -
|-------------------|-------------------|
|10---/---3---1--10-|-10~~~~~~~--10--10b|
|-------------------|-------------------|
|-------------------|-------------------|
|-------------------|-------------------|
|-------------------|-------------------|

|0--0--0--0--0---0--|3--3--3P----3---3--|0--2--2P----2---2--|
|0--1--1--0--1---1--|1--1--1-----1---1--|1--1--1-----1---1--|
|0--2--2--0--2---2--|0--0--0-----0---0--|2--2--2-----2---2--|
|0--2--2--0--2---2--|2--2--2-----2---2--|0--0--0-----0---0--|
|0--0--0-----0---0--|0--0--0-----0---0--|-------------------|
|-------------------|-------------------|-------------------|
|way_______________                                   oh,___
|Electric                                                     Repeat these 4
|-------------------|-------------------|-------------------| measures 4x.
|-------------------|-------------------|-------------------|
|-------------------|-------------------|-------------------|
|---7--7-----7----7-|---5--5-----5----5-|---4--4-----4----4-|
|---7--7-----7----7-|---5--5-----5----5-|---4--4-----4----4-|
|0--5--5--0--5----5-|0--3--3--0--3----3-|0--2--2--0--2----2-|

|---0--0-----0---0--|
|---1--1-----1---1--|
|---2--2-----2---2--|
|---3--3-----2---2--|
|------------0---0--|
|1T-----------------|
|oh____
|-------------------|
|-------------------|
|-------------------|
|---3--3-----2----2-|
|---3--3-----2----2-|
|0--1--1--0--0----0-|
  Free Time                               Baby, baby, baby, baby.
|1------------------|-------------------|0-------------------|
|1------------------|-------------------|5-------------------|
|2------------------|-------------------|7-------------------|up stroke
|3------------------|-------------------|6-------------------|chord.
|3------------------|-------------------|7-------------------|
|1------------------|-------------------|0-------------------|
                    That's   when it's cal-lin' me.________
            up storke*  *snap
|1------------------|*------------------------------|-------------|
|1------------------|0--*---------------------------|-------------|
|2------------------|X--2-4-p2-4hp2-4hp2-4h---p---2-|--4hp2--4h~~~|
|3------------------|2------------------------------|-------------|
|3------------------|2------------------------------|-------------|
|1------------------|0------------------------------|-------------|
I said that's when it's callin'_____       me______   back___  home___
|---5--5-5----5--5-5|5--5--5-5-5--5--5-5|
|5--5--5-5-4--4--4-4|3--3--3-3-3--3--3-3|
|-------------------|-------------------|
|-------------------|-------------------|
|4--4--4-4-3--3--3-3|2--2--2-2-1--1--1-1|
|-------------------|-------------------|
_________________________________________
|------------------0|------------------0|-------------|0----|
|-------0--------1--|-------0--------1--|-------0-----|0----|
|-----5--------2----|-----5--------2----|-----5-------|5----|
|---2---------------|---2---------------|---2---------|2----|
|0-----------0------|-0----------0------|-0-----------|0----|
|-------------------|-------------------|-------------|-----|




Led Zeppelin
Good Times Bad Times



This is somewhat an easy song once you get the patern and speed right.
The 2 guitar lines will not be
completly lined up, but I'll do my best.
There are 3 guitars elctric 6-strings 1, 2, and 3
Standard tuning.

Key:
\=slide down
/=slide up
BB=bend 2 full steps
Bb=bend 1 and a half step
B=bend a full step
b=bend a half step
^=bend one-forth step
R=return bend
~=vibrato
x=finger mute
H=hammer
PM=palm mute
p=pull off
Intro:Guitar 1


|------------------------------------------------------------|
|9--9--------9--9--------9--9--------9--9--------9--9--------|
|9--9--------9--9--------9--9--------9--9--------9--9--------|
|9--9--------9--9--------9--9--------9--9--------9--9--------|
|7--7--------7--7--------7--7--------7--7--------7--7--------|
|------------------------------------------------------------|
|                                                      In the
|Guitar 2
|------------------------------------------------------------|
|------------------------------------------------------------|
|9--9--------9--9--------9--9--------9--9--------------------|
|9--9--------9--9--------9--9--------9--9--------9--9--------|
|7--7--------7--7--------7--7--------7--7--------7--7--------|
|0--0--------0--0--------0--0--------0--0--------0--0--------|

Verse 1:
|----------------------------------------------------|
|9--9\-----------7---7-------------------9--9\-------|
|9--9\-----------7---7-------------------9--9\-------|
|9--9\---------7---7---7---4-7-----------9--9\-------|
|7--7\-------5-----------5-----4~~~5--6--7--7\-------|
|----------------------------------------------------|
|days of my youth I was told what it means to be a man.__
|
|----------------------------------------------------|
|----------------------------------------------------|
|9--9------------7---7-------------------9--9\-------|
|9--9----------7---7---7---4-7-----------9--9\-------|
|7--7--------5-----------5-----4~~~5--6--7--7\-------|
|0--0------------------------------------0--0\-------|

PM-|
|--------------------------------------------------------------------|
|----7---7-------------------9--9\---------------7-------------------|
|----7---7-------------------9--9\-----------7---7-7-----------------|
|--7---7---7---4-7-----------9--9\---------7---7---7---4-7-----------|
|5-----------5-----4~~~5--6--7--7\-------5-----------5-----4~~~5--6--|
|--------------------------------------------------------------------|
| And now I've reached that age I've tried to do all those things the best I
|
|--------------------------------------------------------------------|
|----7---7-----------------------------------7---7-7-----------------|
|----7---7-------------------9--9\-----------7---7-7-----------------|
|--7---7---7---4-7-----------9--9\---------7---7-------4-7-----------|
|5-----------5-----4~~~5--6--7--7\-------5-----------5-----4~~~5--6--|
|----------------------------0--0------------------------------------|


|----------------------------------------------------------------------------------------|
|9--9^-----------------------------------9--9\-------------------------------------------|
|9--9^-----------7---7-------------------9--9\-----------7---7---------------------------|
|9--9^---------7---7---7---4-7-----------9--9\---------7---7---7---4-7-------------------|
|7--7^-------5-----------5-----4~~~5--6--7--7\-------5-----------5-----4~~~5/-6/-7~~~~~~-|
|----------------------------------------------------------------------------------------|
|can._                           No mat-ter how I try find my way in-to the same old jam.
|                         PM|
|---------------------------------------------------------------------------------------|
|--------------------------------------------------------7------------------------------|
|9--9^-----------7---7-------------------9--9^-----------7-----------------------9--9^--|
|9--9^---------7---7---7-----7-----------9--9^---------7---7---7---4-7-----------9--9^--|
|7--7^-------5-----------5-0---4~~~5--6--7--7^-------5-------5---5-----4~~~5--6--7--7^--|
|0--0------------------------------------0--0------------------------------------0--0---|

                            Chorus:
|------------------------------------------------------------------------------------------|
|------------------------------------------------------------------------------------------|
|-----7---7-----------------------2--------------------------------------------------------|
|-------7---7---4-7-------------------------------------------------------2-2--2----7\-5/7-|
|0-5H---------5-----4~~~5--6----------------------------------------------0-0--0--0--------|
|-----------------------------4/5---------------------------------------0------------------|
|                            Good times, bad times, you know I've had my share.___ Well, my
|
|----------------------------3/5--3--x-x----------------------------5\-x-x----10-----------|
|----------------------------3/5--5--x-x-7-12-12-10--10-10-0-3/5----5\-x-x-12-12----7-7-7\-|
|----7---7-------------------4/6--6--x-x-7-12-12-11--11-11-0-4/6----6\-x-x-12-12--7-7-7-7\-|
|0-7---7---7---4-7-----------5/7--7--x-x-7-12-12-12--12-12-0-5/7-7--7\-x-x-12-12--7-7-7-7\-|
|0-5---------5-----4~~~5--6--5/7--7--x-x-5-10-10-12--12-12-0-5/7-7--7\-x-x-10-10--5-5-5-5\-|
|----------------------------3/5--5------5-10-10-10--10-10---3/5-5--5\-----10--------------|


|----------------------------------------------------------|
|----------------------------------------------------------|
|--------------------------------------------------4\------|
|7/-9--9--9--9--9--9--9--7/9-9--9--9--7/9-9--9--9----------|
|--------------------------------------------------2\------|
|5/-7--7--7--7--7--7--7--5/7-7--7--7--5/7-7--7--7----------|
|woman left home for a brown eyed man But I still don't seem to care.___
|
|--------7-----------------------------7-------------------|
|--------7--14--14-14--12-12-12--------7-------------------|
|--------8--14--14-14--13-13-13--------8-------------------|
|--------9--14--14-14--14-14-14--------9----9--9--9--9--9\-|
|7--7----9--12--12-12--14-14-14--9--9--9----9--9--9--9--9\-|
|9--9-------12--12-12--12-12-12--7--7-------7--7--7--7--7\-|
           |__3__|
Guitars 1 & 2
|--------------------------------------------------|
|--------------------------------------------------|
|--------11p9-11-x-4p2-4----------11p9-11--4p2-4p2-|
|--------11p9-11-x-4p2-4----------11p9-11--4p2-4p2-|
|4--4--------------------------4-------------------|
|2--2-----------------------2--2-------------------|
Six-teen I fell in love with a girl as sweet as could be.  It

|----------------------------------------------------|
|----------------------------------------------------|
|--------11p9-11--4p2-4-x----------11p9-11--4p2--4p2-|
|--------11p9-11--4p2-4-x----------11p9-11--4p2--4p2-|
|---4---------------------------4--------------------|
|2--2------------------------2--2--------------------|
only took a couple of days 'till she was rid of me._   She

|---------------------------------------------------|
|---------------------------------------------------|
|--------11p9-11--4p2-4p2----------11p9-11--4p2-4p2-|
|--------11p9-11--4p2-4p2----------11p9-11--4p2-4p2-|
|---4---------------------------4-------------------|
|2--2------------------------2--2-------------------|
swore that she would be all mine and love me'till the end, but

|-----------------------------------------------------|
|-----------------------------------------------------|
|--------------------------------------------------*--|
|--------11p9-11--4-2-4-2----------11p9-11--4p2-4/(5)-|*Parenthesised notes
|--------11p9-11--4-2-4-2----------11p9-11--4p2-4/(5)-| are played by
|---4--------------------------4----------------------| Guitar 1 only.
|2--2-----------------------2--2----------------------|
when I whispered in her ear I lost another friend.  Oh!

Guitar 1
|-------------------------------------------------------|
|4----4--4----------------------------------------------|
|4----4--4---2--2---1-1-----------4-4-----2-2-2---1-1---|
|4----4--4-2-2--2---2-2-0-4--4--4-4-4-0-2-2-2-2---2-2-0-|
|2----2--2-0------0-2-2---2--2--2-----0-0---0-0-2-2-2-0-|
|-----------------2-----------------------------0-------|
|Good times, bad times, you know I've had my share.  Well, my
|Guitar 2
|-------------------------------------------0----0-0-0--|
|4-----4----4---2-2-2---0--------4----------2----0-0-0--|
|4-----4----4---2-2-2---1--------4-4-4-4----2----1-1-1--|
|4-----4----4---2-2-2---2--4--4--4-4-4-4----2----2-2-2--|
|2--2--2----2---0-0-0-2-2--2--2----2-2-2----0----2-2-2--|
|-------------0-------0-------------------0-----0-------|


|--------------7-7--------------------------------------------------------------|
|/6----6-------7-7----11-11-11-------------------------------------0------------|
|/6----6-------8-8----11-11-11--------------------------------------------------|
|/6----6----/9-9-9----11-11-11------------11--11--11--11----------------11------|
|/4----4----/9-9-9--9----9--9-----11--11--11--11--11--11--11--11\-------11------|
|-----------/7---7-------------9--9---9---9---9---9---9---9---9-\-------9-------|
|wo-man left home for a brown eyed man,__ but I still don't seem to care._____
|
|-------------------------------------------------------------------------------|
|4/6-6--6--6-6-12--x-10--10-10-10--------------------------------------------6--|
|4/6-6--6--6-6-11--x-11--11-11-11--------------------------------------------6--|
|4/6-6--6--6-6-11--x-11--11-11-11-9/11-11--11--11--11--11--11--11--11--11----6--|
|2/4-4--4--4-4-9---x-9---9--9--9--9/11-11--11--11--11--11--11--11--11--11----4--|
|---------------------------------7/9--9---9---9---9---9---9---9---9---9--------|

Solo:Guitar 1
|-------12--------12-12----12--------12-------------------|
|----12--------12-------12--------12----------------------|
|14B-------14B----------------14b-------14BR12H----14-12--|
|-----------------------------------------------14--------|
|---------------------------------------------------------|
|---------------------------------------------------------|
|
|Guitar 2
|--------------------------------------------------------|
|--------------------------------------------------------|
|----------------9-----------7--7--7---------------------|
|----------------9-----------7--7--7--7----7----7--------|
|7--------7------7---4/-5----5--5--5--7----7----7--------|
|0--------0---------------------------5----5----5--------|
|
|Guitar 3
|--------------------------------------------------------|
|*-------------------------------------------------------|
|9\------------------------------------------------------|
|9\------------------------------------------------------|
|7\------------------------------------------------------|
|--------------------------------------------------------|
*Gruadually slide on all of the guitar 3 parts.

|------------------------------------------------|
|---------------------------15-------------------|
|------12^----12-14-12-14b-----14--12H-14-12--0--|
|14-14-----14------------------------------------|
|------------------------------------------------|
|------------------------------------------------|
|
|
|------------------------------------------------|
|------------------------------------------------|
|----------9-----------7---7---7-----------------|
|----------9-----------7---7---7---7---7---------|
|7------7--7---4/----5-5---5---5---7---7---------|
|0------0--------------------------5---5---------|
|
|
|------------------------------------------------|
|------------------------------------------------|
|9\----------------------------------------------|
|9\----------------------------------------------|
|7\----------------------------------------------|
|------------------------------------------------|

   |_____*_______|
|--|-------------|------------------|
|20BB-------------17-17-17~~~20-17--|
|-----------------------------------| *hold the bend then evenly release it.
|-----------------------------------|
|-----------------------------------|
|-----------------------------------|
|
|
|-----------------------------------|
|-----------------------------------|
|------9-------7--7--7--------------|
|------9-------7--7--7--7--7--7--7--|
|7--7--7---4/5-5--5--5--7--7--7--7--|
|0--0-------------------5--5--5--5--|
|
|
|-----------------------------------|
|-----------------------------------|
|9\---------------------------------|
|9\---------------------------------|
|7\---------------------------------|
|-----------------------------------|

                |____3___|
|---------------|*--*-*--|-------------------|
|20B--20--17----17-20-17H----17--------------|
|------------19-----------19----19-19B~x-x-x-| *these 3 notes are
|--------------------------------------x-x-x-| thirdy second
|--------------------------------------------| notes
|--------------------------------------------|
|
|
|--------------------------------------------|
|--------------------------------------------|
|--------9--------7--7--7--------------------|
|--------9--------7--7--7---7---7---7---7----|
|7---7---7----4/5-5--5--5---7---7---7---7----|
|0---0----------------------5---5---5---5----|
|
|
|--------------------------------------------|
|--------------------------------------------|
|9\------------------------------------------|
|9\------------------------------------------|
|7\------------------------------------------|
|--------------------------------------------|


|-------------------------------------------------------------12----12-|
|-------------------------------------------12----12-15p12-15-12-15----|
|-------------------------12----12-14p12-14----14----------------------|
|------12----12-14p12-14H-12-14----------------------------------------|
|14-14----14-----------------------------------------------------------|
|----------------------------------------------------------------------|
|
|
|----------------------------------------------------------------------|
|----------------------------------------------------------------------|
|------------9------------7----7----7----------------------------------|
|------------9------------7----7----7----7----7----7----7--------------|
|7-----7-----7-------4/5--5----5----5----7----7----7----7--------------|
|0-----0---------------------------------5----5----5----5--------------|
|
|
|-----------------------------------------------------------------------|
|-----------------------------------------------------------------------|
|9\---------------------------------------------------------------------|
|9\---------------------------------------------------------------------|
|7\---------------------------------------------------------------------|
|-----------------------------------------------------------------------|

NOTE:The 2nd guitar is to be played
with guitar 1 evenly but the solo is
big and I can't fit all of guitar 1's
stuff to match the 2nd guitar.

|15B--15~15^~----------17b-17B-17b-17B-17b-17B-|
|------------17-15^-17-------------------------|
|----------------------------------------------|
|----------------------------------------------|
|----------------------------------------------|
|----------------------------------------------|
|
|
|----------------------------------------------|
|----------------------------------------------|
|---------9----------7---7---------------------|
|---------9----------7---7----7---7---7---7----|
|7----7---7----4/5---5---5----7---7---7---7----|
|0----0-----------------------5---5---5---5----|
|
|
|----------------------------------------------|
|----------------------------------------------|
|9\--------------------------------------------|
|9\--------------------------------------------|
|7\--------------------------------------------|
|----------------------------------------------|


|17B-15----15-17--17p16--17--16-17p16-17B-15b--|
|-------17-------------------------------------|
|----------------------------------------------|
|----------------------------------------------|
|----------------------------------------------|
|----------------------------------------------|
|
|
|----------------------------------------------|
|----------------------------------------------|
|-------------9----------------7--7------------|
|-------------9----------------7--7--7----7----|
|7------7-----7-------4-/-5----5--5--7----7----|
|0------0--------------------------------------|
|
|
|----------------------------------------------|
|----------------------------------------------|
|9\--------------------------------------------|
|9\--------------------------------------------|
|7\--------------------------------------------|
|----------------------------------------------|


|----------------------------------------|
|17~~17~17~17-15B-17BB--------15~~~~~~~~-|
|----------------------------------------|
|----------------------------------------|
|----------------------------------------|
|----------------------------------------|
|
|
|---------------------------------------|
|---------------------------------------|
|------9--------7--7--------------------|
|------9--------7--7---7----------------|
|7--7--7---4/5--5--5---7----------------|
|0--0------------------5----------------|
|
|
|---------------------------------------|
|---------------------------------------|
|9\-------------------------------------|
|9\-------------------------------------|
|7\-------------------------------------|
|---------------------------------------|

Guitar 1
|----------------------------------|
|----------------------------------|
|----------------------------------|
|7---7---7---7----------7---7/-5---|
|-------------------0--------------|
|----------------------------------|
|Good times, bad times,_____  you
|Guitar 2
|---5--5--x-x-----x-10------10-10--|
|---5--5--x-x-12--x-10------10-10--|
|---6--6--x-x-12--x-11------11-11--|
|---7--7--x-x-12--x-12------12-12--|
|7--7--7--x-x-10----12------12-12--|
|5--5--5------------10------10-10--|


|------------------------------------|
|------------------------------------|
|----------------------2---2---2--2--|
|5-7H---7---7--7-------2---2---2--2--|
|------------------0-----------0--0--|
|------------------------------------|
|know I've had my share.__  Well, my
|
|-----5-5-x-x------------------------|
|-----5-5-x-x-12-12-12-12-10-10--10--|
|-----6-6-x-x-12-12-12-12-11-11--11--|
|-----7-7-x-x-12-12-12-12-12-12--12--|
|7----7-7-----10-10-10-10-12-12--12--|
|5------------------------10-10--10--|


|-----------------------------|
|-----------------------------|
|-----------4~~~~~~4--4-4-4---|
|4--4-------4~~~~~~4--4-4-4---|
|2--2--2~~~~2~~~~~~2--2-2-2---|
|-----------------------------|
|woman left home for a brown eyed man,_ but I
|
|------7--x-x-------x-------x-|
|------7--x-x-14-14-x-12-12-x-|
|------8--x-x-14-14-x-13-13-x-|
|------9--x-x-14-14-x-14-14-x-|
|9--9--9------12-12---14-14---|
|7--7---------12-12---12-12---|

|----------------------------------|
|----------------------------------|
|4--4--4--4--4--4--4--4--4---------|
|4--4--4--4--4--4--4--4--4---------|
|2--2--2--2--2--2--2--2--2---------|
|----------------------------------|
|still don't seem to care._________
|
|----------------------------------|
|----------------------------------|
|----------------------------------|
|7/-9------------------------------|
|7/-9--9--9--9--9--9--9------------|
|5/-7--7--7--7--7--7--7--7---------|


|12-----------------------------------------------------------------------|
|---15p12----12----12-----------------------------------------------------|
|---------14----14----14-12-14Hp12----12----------------------------------|
|----------------------------------14----14p12-14p12----12----------------|
|----------------------------------------------------14----14p12-14p12p10-|
|-------------------------------------------------------------------------|
|
|
|-------------------------------------------------------------------------|
|-------------------------------------------------------------------------|
|9---9\-------------------------------------------------------------------|
|9---9\-------------------------------------------------------------------|
|7---7\-------------------------------------------------------------------|
|0---0--------------------------------------------------------------------|
    Gruadually slide down

|-----------------------------------|
|-----------------------------------|
|-----------------------------------|
|-----------------------------------|
|12p10------------------------------|
|------12-10~~~~10-10~~~~~~~~10/11--|
|
|
|-----------------------------------|
|-----------------------------------|
|----7---7-7------------------------|
|--7---7-7-7---4-7------------------|
|5-----------5-----4~~~~5---6-------|
|-----------------------------------|


|-------------------15B--15B--15B--15B--15B--15~~~~-|
|17~~~~~~-----------15B--15B--15B--15B--15B--15~~~~-|
|---------------------------------------------------|
|---------------------------------------------------|
|---------------------------------------------------|
|---------------------------------------------------|
|I don't care__ what the neigh-bors____  say,______
|
|--------------------------------------------------|
|--------------------------------------------------|
|9--9----------------------7-----------------------|
|9--9----------------7---7---7---7---4-7-----------|
|7--7------------------5-------5---5-----4~~~~5--6-|
|0--0----------------------------------------------|


|15~~~~~~~~~~~~~~~~~~~~~~--------------------------|
|15~~~~~~~~~~~~~~~~~~~~~~--------------------------|
|--------------------------------------------------|
|--------------------------------------------------|
|--------------------------------------------------|
|--------------------------------------------------|
|I'm gon-na love____ you each and ev-'ry day.______
|
|--------------------------------------------------|
|--------------------------------------------------|
|9--9----------------------7---7-------------------|
|9--9--------------------7---7---7---4-7-----------|
|7--7------------------5-----------5-----4~~~~5--6-|
|0--0----------------------------------------------|


|--------------------------------------------------------------|
|-----------------------------20B--20B-20b-20B-20b-20B-20b-20B-|
|--------------------------------------------------------------|
|--------------------------------------------------------------|
|--------------------------------------------------------------|
|12~~~~~~~~~~~-------------------------------------------------|
|I know what it means to be a-lone,____
|
|--------------------------------------------------------------|
|--------------------------------------------------------------|
|9--9-----------------------------7-----7----------------------|
|9--9-----------------------------7-7-7-----4-7----------------|
|7--7------------------------0-5H---------5-----4~~~~~~~5--6---|
|0--0----------------------------------------------------------|


|--------------------0------------19BB-----------20BB----------|
|20B--20~~~~~~~---0---------------19Bb---20BB------------------|
|--------------------------------------------------------------|
|--------------------------------------------------------------|
|--------------------------------------------------------------|
|--------------------------------------------------------------|
|I sure wish I was at home.____________
|
|--------------------------------------------------------------|
|--------------------------------------------------------------|
|9--9-------------------------------7--------------------------|
|9--9-----------------------------7---7---7---4-7--------------|
|7--7---------------------------5-------5---5-----4~~~~~5--6---|
|0--0----------------------------------------------------------|

Begin Fade
|14b---------------------14b-14b---14b-------------------------|
|----14B-14----14-14~~---14b-------14b--14~~~~~~~~~~~~~~~~-----|
|-----------14--------14----------------14~~~~~~~~~~~~~~~~14---|
|--------------------------------------------------------------|
|--------------------------------------------------------------|
|--------------------------------------------------------------|
|                       You can feel the beat__ with-in__ my
|
|--------------------------------------------------------------|
|--------------------------------------------------------------|
|9--9-----------------------7---7------------------------------|
|9--9---------------------7---7---7---4-7----------------------|
|7--7-------------------5-----------5-----4~~~~~~4--5---6------|
|0--0----------------------------------------------------------|


|-------------------------------------------------------------------|
|15-----------------------------------------------------------------|
|---14p12-------14p12-----------------------------------------------|
|---------14-12-------14p12-14p12----12-----------------------------|
|---------------------------------14----14p12\10-12p10----10-12Hp10-|
|------------------------------------------------------12-----------|
|heart._______
|
|-------------------------------------------------------------------|
|-------------------------------------------------------------------|
|9--9---------------------------------------------------------------|
|9--9---------------------------------------------------------------|
|7--7---------------------------------------------------------------|
|0--0---------------------------------------------------------------|


|-------------------------------------------------|
|-------------------------------------------------|
|-------------------------------------------------|
|-------------------------------------------------|
|-------------------------------------------------|
|10~~~~~~~5b---5~~~~~~~~~~~~~~~~~~~~~~~~~~~~~~~~~-|
|Realize sweet babe we ain't never gonna part.__
|
|------------------------------------------------|
|------------------------------------------------|
|----7---7-------------------9--9----------------|
|--7---7---7---4-7-----------9--9----------------|
|5-----------5-----4~~~5--6--7--7----------------|
|----------------------------0--0----------------|


|--------17B--17\15----17-15-17-15-17--15-15/16~~~~~~~---|
|-------------------17-----------------------------------|
|--------------------------------------------------------|
|--------------------------------------------------------|
|--------------------------------------------------------|
|--------------------------------------------------------|
|
|                                                Fade out
|--------------------------------------------------------|
|--------------------------------------------------------|
|-----7---7------------------------9---9-----------------|
|-------7---7---4-7----------------9---9-----------------|
|0-5H---------5-----4~~~~~~5---6---7---7-----------------|
|----------------------------------0---0-----------------|


********************
*Dazed and Confused*
********************

This song has 3 guitars.  Electric guitars 1, 2, and 3
Page uses a violin bow in this song and
I will tell you when to use and when to stop.
Standard tuning for all guitars.

Key:
BB=bend 2 step
bb=bend 1 1/2 step
B=bend 1 step
b=bend 1/2 step
^=bend 1/4 step
N=bend behind the nut 2 step
m=bend behind the nut 1 1/2 step
n=bend behind the nut 1 step
R=return bend
p=pull off
/=slide up
\=slide down
h=hammer
x=finger mute
D.S. :S: al coda=Go back to :S:
(+)=Coda
*=natural harmonics
(PM)=palm mute
(SM)=semi palm mute
~=vibrato
!=Look at side note

(use neck pickup)
Intro:Guitar 1   *    *    !     *  *
|--------------------12-------------5------------------------------|switch to
|----------------12--------------5---------------------------------| bridge
|--------------------------------------------12-B-R-B-R-B-R-B-R~~~~| pickup
|------------------------------------------------------------------|
|------------------------------------------------------------------|
|------------------------------------------------------------------|
        Use wah wah throughout                 Been dazed and con-
     *   *      *  *   *    *                            *
|--------12--------5----------------------------------------------|!8va
|----12---------5------5------------------------12------!12-------| higher
|---------------------------5-------------------12------!12-------|
|-----------------------------------------------------------------|
|-----------------------------------------------------------------|
|-----------------------------------------------------------------|
fused for so long it's not true.
Wanted a woman,never bargained for you.
Lots of people talkin' few of thme know____
                               :S:
|-----------------------------------------------------------| 
|-----------------------------------------------------------|
|-----------------------------------------------------------|
|--------------------------------------4b----4~~2b~~~~2~~---| stop using
|-----------------------------------------------------------| wah.
|-----------------------------------0--------------------0--| 
|soul of a woman was created below,__  yeah,
|Guitar 2                              !octave effect (8va higher)
|--------------------------------------14b---14~12b---12~---|
|-----------------------------------------------------------|
|-----------------------------------------------------------|
|-----------------------------------------------------------|
|--------------------------------------9b----9~~7b----7~~---|
|-------------------------------0------------------------0--|


|---------------------------------------------------------------|
|---------------------------------------------------------------|
|---------------------------------------------------------------|
|---------------------4b~~--4~~2b~~--2~~------------------------|
|4b~~~~4~~2b~~--2~~------------------------4b~~--4~~2b~~--2~~---|
|------------------0--------------------0--------------------0--|
|                                                      You hurt__
|
|---------------------14b---14~12b---12~------------------------|
|14b~~~14~12b~--12~------------------------14b~~~14~12b---12~---|
|---------------------------------------------------------------|
|---------------------------------------------------------------|
|4b~~~~4~~2b~~--2~~---9b~~--9~~7b----------4b----4~~2b----2~~---|
|------------------0--------------------0--------------------0--|

      (PM)                                                             To Coda (+) (second time through)
|------------------------------------------------------------------------------|
|------------------------------------------------------------------------------|
|------------------------------------------------------------------------------|
|4b~~--4~~2b~~--2~~------------*-----------4b~~--4~~2b~~--2~~------------------|
|---------------------4b~~--4~~2b----2~~------------------------4b~~--4~~2b~~--|
|------------------0--------------------0--------------------0-----------------|
|and abused tellin' all of your lies. Run 'round sweet baby,
|Lord, how they hipnotyze.
|Sweet little baby, I don't know where you been.
|Gonna love you baby, here I come a
|------------------------------------------------------------------------------|
|------------------------------------------------------------------------------|
|------------------------------------------------------------------------------|
|------------------------------------------------------------------------------|
|---------7b-~~~7~~---4b~~--4~~2b~~--2~~---9b-~~~9~~7b~~--7~~---4b~~--4~~2b~~--|
|------------------0--------------------0--------------------0-----------------|

Guitars 1 & 2 :S::S:     3x more times
|------------------------|
|o----------------------o|
|--4--4--4------2-4------|
|--4--4--4--2-4-----2-4--|
|o-2--2--2--------------o|
|------------------------|
|gain.__
|Guitar 3                 To Coda (+)(+)
|---------------5-7------|
|o----------5-7-----5-7-o|
|------------------------|
|--9--9--9---------------|
|o-9--9--9--------------o|
|--7--7--7---------------|

Guitar 1
|-----|
|-----|
|-----|D.S. :S: al Coda
|2----|
|2----|
|0----|
|Ev-ry' day I work so hard bringin' home my hard earned pay.
|Try to love you baby, but you push me away.
|Guitar 2
|-----|
|-----|
|9----|
|9----|
|7----|
|0----|

(+)
|-----------------------------------------|
|-----------------------------------------|
|-----------------------------------------|
|---4b~~--4~~2b-RbR-bR--------------------|
|--------------------------4b~~--4~~2b----|
|0----------------------0-----------------|
|Don't know wher you're goin', I don't know just where you've been; sweet |little baby,
|I want you a-
|            Hold bend
|---14b~--14~12b----12~-------------------|
|-------------------------14b~~-14~12b~~~-|
|-----------------------------------------|
|-----------------------------------------|  D.S. :S::S: al Coda
|---9b~~--9~~7b-----7~~---4b~~~-4~~2b~~~~-|
|0---------------------0------------------|

(+)(+)Guitar 1&2       Guitar 1
|-------------------------------------------------------|
|-------------------------------------------------------|
|4--4--2------2-4-----4--4--4--4--2---------------------|
|4--4--4--2-4---4-2-4-4--4--4--4--2-----5--5--5--5\2----|
|2--2--2--------------2--2--2--2--0-----5--5--5--5\2----|
|---------------------------------------3--3--3--3\0----|
|                    (SM............................) Ah,
|
|Guitar 3                 Guitar 2 with violin bow, echo and wah-wah
|-------------5-----------------------------------------|
|---------5-7---7-5-7-----------------------------------|
|-------------------------------------------------------|
|9--9--9------------------------------------------------|
|9--9--9------------------------------------------------|
|7--7--7--------------------------------3----\-----0----|

Guitar 2
|--------------------------------------------------------------|
|--------------------------------------------------------------|
|--------------------------------------------------------------|
|--------------------------------------------------------------|
|--------------------------------------------------------------|
|3--\--0------3--\--0------7--/--10-------7------7--/--10------|
          ah,          ah,           ah,                    ah,


|------------------------------------------------------------------------------|
|------------------------------------------------------------------------------|
|------------------------------------------------------------------------------|
|------------------------------------------------------------------------------|
|------------------------------------------------------------------------------|
|--------12/14\12-10-12-10--------12/14\12-10-12-10----------5B~~~~~~----------|
                                                      ah,__         ah_________


|x------------------------------------------------------|
|-------------------------------------------------------|
|-------------------------------------------------------|
|-------------------------------------------------------|
|-------------------------------------------------------|
|---x--9b-R-b-R-b-R-b-R-b-R-b-R-b-R-b-R-b--7----\----1--|
                    ah,_________________________________

 !
|14----10----12--------7----10----14--------7--------10----7----|
|14----10----12--------7----7-----12--------7--------7-----7----|!Tremelo
|---------------------------------------------------------------| W/bow
|---------------------------------------------------------------| and wah.
|---------------------------------------------------------------|
|14-------------------------------------------------------------|
                  ah,________________       ah,  ah,  ah,


|10----7----7----10----1----1----1----1-------------------------|
|7-----5----5----------1----1----1----1-------------------------|
|---------------------------------------------------------------|
|---------------------------------------------------------------|
|---------------------------------------------------------------|
|----------------------1----1----1----1----0--------------------|
                                                  Oh,___________
          solo
|12----------------------------------------------------------|
|12----------------------------------------------------------|stop tremelo
|-----------------------12-14-12-----------------12-14-12~~--| and bow
|----------!------12-14----------14--------12-14-------------| continue
|----------12^-14-------------------12^-14-------------------| wah
|------------------------------------------------------------|
yeah!__  Al-right!_____

|----------------------------------------------------------------------|
|----------------------------------------------15B--14-------12---10---|
|-------------12-14-12-----------------12-14-x-17B--16B------14B--12B--|
|-------12-14----------14--------12-14-------0-------------------------|
|12^-14-------------------12^-14---------------------------x-----------|
|----------------------------------------------------------------------|
                                               Ah,      ah,      ah,  ah,

|--------------------------------------------------------------------------------|
|8----7---5----8----7---3---2--------------12--12-15p12------12-15p12---------12-|
|10B--9B--7B~~~12B--9B--5B--4B--4/16-\-14--14B----------14B-----------14-14B-----|
|--------------------------------------------------------------------------------|
|--------------------------------------------------------------------------------|
|--------------------------------------------------------------------------------|
  ah,  ah,  ah,  ah,  ah, ah,  ah__________

|------------------------------15p12----15p12----15p12----15p12----15p12-|
|12-15p12--------12-15p12-x-12-------12-------12-------12-------12-------|
|---------14-14B---------------------------------------------------------|
|------------------------------------------------------------------------|
|------------------------------------------------------------------------|
|------------------------------------------------------------------------|


|------12-15B-15-12----12------------------------------------------|
|12-12-12-----------15-15-15p12------------------------------15----|
|-------------------------------14p12----12-14-12-14-12-14B-----14-|
|-------------------------------------14---------------------------|
|------------------------------------------------------------------|
|------------------------------------------------------------------|

				!It is possible to bend a harmonic
|------------------------------------------------!-------------------------|
|------------------------------------------------*-------------------------|
|14p12-14p12-------------------------------------9B-9B---7--9-7-7-7p6-6p5--|
|------------14-12-14-12-14hp12----12-14hp12--0----------------------------|
|-------------------------------14-----------------------------------------|
|--------------------------------------------------------------------------|


|-------------------------------------------------------------------------|
|-------------------------------------------------------------------------|
|6-7p6-4-6p4\3-4-2-2p0-4p2p0-0--0--0n---0--0n---0--0n---0-0n---0--0--0N~~-|
|-------------------------------------------------------------------------|
|-------------------------------------------------------------------------|
|-------------------------------------------------------------------------|


|--------------------------------------------------------15---|
|--------------------------------------------------12---------|
|0--0n-0--0N~~0N--0-0n---0--0N---0-0m---0-0N--~~~-------------|
|-------------------------------------------------------------|
|-------------------------------------------------------------|
|-------------------------------------------------------------|


|12-15-15p12----15p12----15p12----15--15p12----15-15B--15-15B---15B--~~15B--|
|---12-12----12-------12-------12-----------12------------------------------|
|---------------------------------------------------------------------------|
|---------------------------------------------------------------------------|
|---------------------------------------------------------------------------|
|---------------------------------------------------------------------------|


|15-12----12------------------------------------------------------------------|
|------15----15p12-----------------------15-----------------------------------|
|------------------14p12----12-14-12-14B----14-14p12-14p12--------------------|
|------------------------14--------------------------------14-12-14hp12----12-|
|-----------------------------------------------------------------------14----|
|-----------------------------------------------------------------------------|


|---------------------------------------------------------------------19B-|
|---------------------------------17bb----17B-17B--17B--15-15---17-17-----|
|-------------------------------------------------------------------------|
|12-----------------------------------------------------------------------|
|12-14hp12-14hp12----10-12-10~~~------------------------------------------|
|-----------------12------------------------------------------------------|


|19p18-17-------------------------------------------------------------------|
|---------20-20p17----17-20-17-20hp17----17-20-17-20hp17----17-20-17-20hp17-|
|------------------19-----------------19-----------------19-----------------|
|---------------------------------------------------------------------------|
|---------------------------------------------------------------------------|
|---------------------------------------------------------------------------|

!bend then add more to that bend
|----------------------------------------!-------------------------------------------|
|---17-20-17-20hp17----17-20-20B--19B-19B+bb--19b-19bR~~~-----20B+BBR~p17-17-17-20BB-|
|19-----------------19---------------------------------------------------------------|
|---------------------------------------------------------0-0------------------------|
|------------------------------------------------------------------------------------|
|------------------------------------------------------------------------------------|


|------------------19bbR----------19bbR----------------------------------------|
|R---17-17--17-17--------17-17-17--------17-17-17---17-20bb-R--17-17----17-----|
|--------------------------------------------------------------------0--17bb-R-|
|------------------------------------------------------------------------------|
|------------------------------------------------------------------------------|
|------------------------------------------------------------------------------|


|------------------------------------------------------------------------------|
|15-15~~~15--15BR--------------------------------------------------------------|
|------------------12-12~~---12BR--9-9~~9---9B-9BR-7--4BR-4~~--4p2p0-2-4p2p0-2-|
|--------------------------------------------------0---------------------------|
|------------------------------------------------------------------------------|
|------------------------------------------------------------------------------|

                          !Only use * on tagged note.
|-------------------------*!---------------------------------------|
|---------4p2p0----------<4>-2-4hp2p0------------------------------|
|4p2p0-2--4p2p0-2--2-4--2-4--2-4hp2p0--0--2p0-2hp0-2h--------------|
|-----------------------------------------------------4p2p0--------|
|-----------------------------------------------------------4p2p0--|
|------------------------------------------------------------------|


|---------------------------------------------------------------------------------|
|9--------------------9---------12--------------------9---------------------------|
|9------7----6--------9---------12--------------------9------7-------6------------|
|9------7----7--------9---------12--------------------9------7-------7------------|
|7------5----7--------7---------10--------------------7------5-------7------------|
|0-----------5-------------------------------------------------------5------------|
                                                                              oh___

|---------------------------------------------------------------------------------|
|9-------12----------------9--------------------------9-------12------------------|
|9-------12----------------9--------7-----6-----------9-------12------------------|
|9-------12----------------9--------7-----7-----------9-------12------------------|
|7-------10----------------7--------5-----7-----------7-------10------------------|
|-----------------------------------------5---------------------------------------|
don't leave me so confused,__ no!
Guitar 1
|------------------------------------------------------------------------------------|
|------------------------------------------------------------------------------------|
|4--4--4------2-4-----4--4--4------2-4-----4--4--4------x-4-----4--4--4------2-------|
|4--4--4--2-4-----2-4-4--4--4--2-4-----2-4-4--4--4--2-4-----2-4-4--4--4--2-4---4-2-0-|
|2--2--2--------------2--2--2--------------2--2--2--------------2--2--2----------2-0-|
|------------------------------------------------------------------------------------|
|Guitar 2                                           Oh,         ba   -   by!___
|------------------------------------------------------------------------------------|
|------------------------------------------------------------------------------------|
|------------------------------------------------------------------------------------|
|9--9--9------7-9-----9--9--9------7-9-----9--9--9------7-9-----9--9--9------7-------|
|9--9--9--7-9-----7-9-9--9--9--7-9-----7-9-9--9--9--7-9-----7-9-9--9--9--7-9---9-7-9-|
|7--7--7--------------7--7--7--------------7--7--7--------------7--7--7------------9-|


|--------------------------------------------------------------------------------------|
|--------------------------------------------------------------------------------------|
|--------------------------------------------------------------------------------------|
|2-----4b~~--4~~2b--R-2~~------------------------4b~~--4~~2b---------------------------|
|2--------------------------5~~---4~~2b----2~~------------------2~~---5~~~-4~~2b----2~-|
|0--0--------------------0--------------------0--------------------0-------------------|
|                                                             Been dazed
|
|------14b~--14~12b-R-14~------------------------14b~--14~12b~--12~---------------------|
|---------------------------14b~--14~12b~--12~------------------------14b~--14~12b---12-|
|---------------------------------------------------------------------------------------|
|2--------------------------------------------------------------------------------------|
|2-----9b~~--9~~7b--R-7~~---4b~~--4~~2b~~--2~~---9b~~--9~~7b~~--2~~---4b~~--4~~2b----2~-|
|0-----------------------0--------------------0--------------------0--------------------|


|------------------------------------------------------------------------------------------|
|------------------------------------------------------------------------------------------|
|------------------------------------------------------------------------------------------|
|------------------------------2b---------R2~~------------------------4b~~--4~~2b~~--2~~---|
|------------------------------------------------4b~~--4~~2b----2--------------------------|
|---------------------------------------------0--------------------0--------------------0--|
|and confused for so long, it's no true,__ want-ed a woman never bar-gained for you.
|Take it easy baby, let them say what they will.(Will you)
|------------------------------------------------------------------------------------------|
|12~---------------------------------------------------------------------------------------|
|------------------------------------------------------------------------------------------|
|------------------------------------------------------------------------------------------|
|2~~---9b-------R-9~~~~~------7b-R-b-R-bR(2)~~---4b~~--4~~--2bRbRbR---9B~~--9~~--7bRbRbR---|
|---0-----------------------------------------0--------------------0--------------------0--|

|------------------------------------------------------------------------------------------------|
|------------------------------------------------------------------------------------------------|
|------------------4--4--4------2-4-------4--4--4-------2--4------4--4--4------2----4h-----------|
|4b~~--4~~-4--2b-R-4--4--4--2-4-7-9-2---4-4--4--4--2--4-7--9-2--4-4--4--4--2-4-7-9h----7h-2----4-|
|------------------2--2--2--7-9-----7-9---2--2--2--7--9------7--9-2--2--2--7-9------------7-9----|
|------------------------------------------------------------------------------------------------|
|toungue wag so much when I send you the bill?Ooh,_ yeah!__  Al-right!
|                  Guitar 2 ends.
|------------------|
|------------------|
|------------------|
|------------------|
|4b--(4)~~-4--2b-R-|
|------------------|


|-------------------------------------------------------------------------------------|
|-------------------------------------------------------------------------------------|
|4--4--4------2-4-----9-9-9-9-7-------------------------------------------------------|
|4--4--4--2-4-7---2-4-9-9-9-9-7------7-7-7-7-5------9-9-9-9-7------12-12-12-12-9------|
|2--2--2--7-9---9-7-9-7-7-7-7-5-------------------------------------------------------|
|------------------------------------5-5-5-5-3------7-7-7-7-5------10-10-10-10-7------|
                                                                   Oh,

|---------------------------------------------------------------------------------|
|---------------------------------------------------------------------------------|
|9-9-9-9-7----------7p6p5---------7p6p5---------7p6p5---------7p6p5---------7p6p5-|
|-----------0-0-0-0-------0-0-0-0-------0-0-0-0-------0-0-0-0-------0-0-0-0-------|
|7-7-7-7-5------------------------------------------------------------------------|
|---------------------------------------------------------------------------------|
           (PM.....)     (PM.....)     (PM.....)     (PM.....)     (PM.....)
 oh,       oh,            oh,           oh,           oh,           oh,

|--------------------------------------------------------|
|--------------------------------------------------------|
|--------7p6p5---------7p6p5---------7p6p5---------7p6p5-|
|0-0-0-0-------0-0-0-0-----------------------------------|
|--------------------------------------------------------|
|--------------------------------------------------------|
(PM.....)     (PM.....)
 oh,          oh,            oh,           oh,
Guitar 1
|------------------------------------------------------------------|
|------------------------------------------------------------------|
|7-7-7-7-7--7-7-7-7-7--7-7-7-7-7--7-7-7-7-7--7-7-7-7-7--7-7-7-7-7--|
|7-7-7-7-7--7-7-7-7-7--7-7-7-7-7--7-7-7-7-7--7-7-7-7-7--7-7-7-7-7--|
|5-5-5-5-5--5-5-5-5-5--5-5-5-5-5--5-5-5-5-5--5-5-5-5-5--5-5-5-5-5--|
|------------------------------------------------------------------|
|oh,        oh,        oh,        oh,        oh,______  oh,______
|Guitar 2  These are played at the same time but the #s are different sizes.
|------------------------------------------------------------------------------------------------|
|------------------------------------------------------------------------------------------------|
|------------------------------------------------------------------------------------------------|
|10-12-12-12-12--12-12-12-12-12--12-12-12-12-12--12-12-12-12-12--12-12-12-12-12--12-12-12-12-12--|
|------------------------------------------------------------------------------------------------|
|8--10-10-10-10--10-10-10-10-10--10-10-10-10-10--10-10-10-10-10--10-10-10-10-10--10-10-10-10-10--|

Guitar 1
|-----------------------------------|
|-----------------------------------|
|7-7-7-7-7--7-7-7-7-9---------------|
|7-7-7-7-7--7-7-7-7-9---------------|
|5-5-5-5-5--5-5-5-5-7---------------|
|-------------------0---------------|
|oh,______  oh.________
|Guitar 2
|-----------------------------------|
|-----------------------------------|
|----------------------------9------|
|12-12-12-12-12--12-12-12-12--------|
|----------------------------7------|
|10-10-10-10-10--10-10-10-10-0------|
|
|Guitar 3
|-----------------------------------|
|-----------------------------------|
|-----------7-7-7-7-9---------------|
|-----------7-7-7-7-9---------------|
|-----------5-5-5-5-7---------------|
|-------------------0---------------|



******************
*Whole Lotta Love*
******************

There are 3 parts, Electric 1 and 2 and Slide Guitar.
Standard Tuning for all.

Key:
()=optional note(s)
/=slide up
\=slide down
(pm)=palm mute
~=vibrato
p=pull off
BB=bend 2 1/2 step
Bb=Bend 1 1/2 step
B=bend 1 step
b=bend 1/2 step
x=finger mute

Intro:
Electric 1 with distortion
*The 5/ is optional but is normally used in the song
|-----------------------------------------------------------------|
|--------------9--------------------------------------------------|
|--------------9------(9)-----(9)-----(9)-----(9)-----(9)----9-9\-|
|--------------9-------9-------9-------9-------9-------9-----9-9\-|
|--*---5----5--7-------7-------7-------7-------7-------7-----7-7\-|
|--5/7----7------0-0-0---0-0-0---0-0-0---0-0-0---0-0-0---0-0------|
               (pm...) (pm...) (pm...) (pm...) (pm...) (pm.)

|---------------------------------------------------------------|
|---------------------------------------------------------------|
|---------------------------------------------------------------|
|------------9-------9-------9-------9-------9-------9-------9\-|
|----5~~--5--7-------7-------7-------7-------7-------7-------7\-|
|5/7----7------0-0-0---0-0-0---0-0-0---0-0-0---0-0-0---0-0-0----|
              (pm...) (pm...) (pm...) (pm...) (pm...) (pm...)

|------------|
|------------|
|------------|
|------------|
|----5~~--5--|
|5/7----7----|
  You need

Verse 1
|----------------------------------------------------------------|
|----------------------------------------------------------------|
|----------------------------------------------------------------|
|9-------9-------9----------------9-------9-------9\-------------|
|7-------7-------7--5-----5~~--5--7-------7-------7\-----5~~--5--|
|--0-0-0---0-0-0------5/7----7------0-0-0---0-0-0----5/7----7----|
  (pm...) (pm...) (pm)             (pm...) (pm...)
 cool - in',       um, ba-by I'm not fool-in'           I'm gon-na

|--------------------------------------------------------------|
|--------------------------------------------------------------|
|--------------------------------------------------------------|
|9-------9-------9\-------------9-------9-------9\-------------|
|7-------7-------7\-----5~~--5--7-------7-------7\-----5~~--5--|
|--0-0-0---0-0-0----5/7----7------0-0-0---0-0-0----5/7----7----|
  (pm...) (pm...)                (pm...) (pm...)
send  ya______         back to school-in'.

|--------------------------------------------------------------|
|--------------------------------------------------------------|
|--------------------------------------------------------------|
|9-------9-------9----------------9-------9-------9------------|
|7-------7-------7--5-----5~~--5--7-------7-------7----5~~--5--|
|--0-0-0---0-0-0------5/7----7------0-0-0---0-0-0----7----7----|
  (pm...) (pm...) (pm)             (pm...) (pm...)
Way down_ in - side,_            uh,hon-ey you need_ it.

|--------------------------------------------------------------|
|--------------------------------------------------------------|
|--------------------------------------------------------------|
|9-------9-------9\-------------9-------9-------9\-------------|
|7-------7-------7\-----5~~--5--7-------7-------7\-----5~~--5--|
|--0-0-0---0-0-0----5/7----7------0-0-0---0-0-0----5/7----7----|
  (pm...) (pm...)                (pm...) (pm...)
I'm gon-na give you my_ love,_   I'm gonna give you my_ love._

|--------------------------------------------------------|
|----------------7--7--7--7-9----------------7--7--7--7--|
|9-----9---------7--7--7--7-9------9---------7--7--7--7--|
|9-----9-----9-9-7--7--7--7-9------9-----9-9-7--7--7--7--|
|7-----7-----7-7-5--5--5--5-7----7-7-----7-7-5--5--5--5--|
|--0-0---0-0-------------------0-0---0-0-----------------|
| (pm.) (pm.)                  (pm.) (pm...)
|Oh!   Wanna whole lotta love.      Wanna whole lotta love.
|
|Slide Guitar with backwards echo
|---------------------------------------------------------|
|---------------------------------------------------------|
|------------------------------9\-------------------------|
|------------------------------9\-------------------------|
|---------------------------------------------------------|
|---------------------------------------------------------|

|---------------------------------------------------------|
|9----------------7--7--7--7-9----------------7--7--7--7--|
|9------9---------7--7--7--7-9------9---------7--7--7--7--|
|9------9-----9-9-7--7--7--7-9------9-----9-9-7--7--7--7--|
|7----7-7-----7-7-5--5--5--5-7----7-7-----7-7-5--5--5--5--|
|---0-0---0-0-------------------0-0---0-0-----------------|
|  (pm.) (pm...)                (pm.) (pm...)
|       Wanna whole lotta love.      Wanna whole lotta love.
|
|----------------------------------------------------------|
|----------------------------------------------------------|
|9\-----------------------------9\-------------------------|
|9\-----------------------------9\-------------------------|
|----------------------------------------------------------|
|----------------------------------------------------------|

Verse 2:
|-----------------------------------------------------------|
|9----------------------------------------------------------|
|9------9-------9-------------9------9-------9\-------------|
|9------9-------9-------------9------9-----9-9\-------------|
|7------7-------7-----5~~--5--7------7-----7-7\-----5~~--5--|
|---0-0---0-0-0---5/7----7-------0-0---0-0------5/7----7----|
|  (pm.) (pm...)                (pm.) (pm.)
|                    You been learn-in',       and baby I mean_
|-----------------------------|
|-----------------------------|
|9\---------------------------|Slide Guitar ends
|9\---------------------------|
|-----------------------------|
|-----------------------------|


|-------------------------------------------------------------|
|-------------------------------------------------------------|
|-------------------------------------------------------------|
|9-------9-------9--------------9-------9-------9-------------|
|7-------7-------7------5~~--5--7-------7-------7-----5~~--5--|
|--0-0-0---0-0-0----0-7----7------0-0-0---0-0-0---5/7----7----|
  (pm...) (pm...) (pm)           (pm...) (pm...)
__ learn-in'           all__them_good times,_ ba-by, ba-by, I


|---------------------------------------------------------------|
|---------------------------------------------------------------|
|---------------------------------------------------------------|
|9-------9-------9---------------9-------9-------9\-------------|
|7-------7-------7-5-----5~~--5--7-------7-------7\-----5~~--5--|
|--0-0-0---0-0-0-----5/7----7------0-0-0---0-0-0----5/7----7----|
  (pm...) (pm...)                 (pm...) (pm...)
been a__yearn - in', ah.        Uh, way,__my   down in - side,__


|--------------------------------------------------------------|
|--------------------------------------------------------------|
|--------------------------------------------------------------|
|9-------9-------9\-------------9-------9-------9\-------------|
|7-------7-------7\-----5~~--5--7-------7-------7\-----5~~--5--|
|--0-0-0---0-0-0----5/7----7------0-0-0---0-0-0----5/7----7----|
  (pm...) (pm...)                (pm...) (pm...)
  uh,honey you need ah._        I'm gonna give you my love,_ ah!_


|------------------------------------------------------------|
|------------------------------------------------7--7--7--7--|
|-------------------------------9------9---------7--7--7--7--|
|9-------9-------9\-------------9------9-----9-9-7--7--7--7--|
|7-------7-------7\-----5~~--5--7----7-7-----7-7-5--5--5--5--|
|--0-0-0---0-0-0----5/7----7-------0-0---0-0-----------------|
  (pm...) (pm...)                 (pm.) (pm.)
I'm gonna give you my love, ah.__  Oh!       Whole lotta love._


|---------------------------------------------------------|
|9----------------7--7--7--7-9----------------7--7--7--7--|
|9----------------7--7--7--7-9----------------7--7--7--7--|
|9--------------9-7--7--7--7-9--------------9-7--7--7--7--|
|7--------------7-5--5--5--5-7--------------7-5--5--5--5--|
|---0-0-0-0-0-0-----------------0-0-0-0-0-0---------------|
|  (pm.........)                (pm.........)
|__       Wanna whole lotta love._     Wanna whole lotta love._
|Slide guitar
|----------------------------------------------------------|
|----------------------------------------------------------|
|--------------------------------9\------------------------|
|--------------------------------9\------------------------|
|----------------------------------------------------------|
|----------------------------------------------------------|


|-------------------------------------------------|
|9----------------7--7--7--7----------------------|
|9----------------7--7--7--7-9--------------------|
|9--------------9-7--7--7--7-9--------------------|
|7--------------7-5--5--5--5-7--------------------|
|---0-0-0-0-0-0--------------0--------------------|
|  (pm.........)
|__      Wanna whole lotta love._
|
|--------------------------------------------------|
|--------------------------------------------------|
|9\------------------------------------------------|
|9\------------------------------------------------|
|--------------------------------------------------|
|--------------------------------------------------|


|--------------------------------|
|--------------------------------|
||----------------------------|--|
|||||||||||||||37||||||||||||||--
||----------------------------|--|
|--------------------------------|
(Voice, Guitar with Theremin, percussion effects)

Guitar Solo:
Electric Guitar 2 Distorted
|-------------12------------------------------------------------------------------|
|----------12----15-14------------------------------3-----------------------------|
|------14B-------------15p14p12-14-12-14B--~~~~-2/4---4\2-0-2p0-0-2p0-------------|
|---------------------------------------------------------------------2p0-2p0-----|
|-----------------------------------------------------------------------------2p0-|
|---------------------------------------------------------------------------------|
|Guitar 1
|---------------------------------------------------------------------------------|
|---------------------------------------------------------------------------------|
|9---9-----------------------------------9---9------------------------------------|
|9---9-----------------------------------9---9------------------------------------|
|7---7-----------------------------------7---7------------------------------------|
|0---0-----------------------------------0---0------------------------------------|

                                         8va_________________________
                                            *Gruadually bend and release
|-------------12----------15----------------*-------------------------|
|----------12----15B-15B-----15-B~~------17-20BB-------17----20-p17~~-|
|------14B------------------------------------------------18----------|
|---------------------------------------------------------------------|
|---------------------------------------------------------------------|
|0--------------------------------------------------------------------|
|
|--------------------------------------------------------------------|
|--------------------------------------------------------------------|
|9---9-----------------------------9---9-----------------------------|
|9---9-----------------------------9---9-----------------------------|
|7---7-----------------------------7---7-----------------------------|
|0---0-----------------------------0---0-----------------------------|


 8va_______________________________________________________________________
|---------19B-19--18-17---------------------------------------------19------|
|------17---------------20p17-20-17~~----------17-19--19B-19B-19Bb-----17~~-|
|---------------------------------------------------------------------------|
|---------------------------------------------------------------------------|
|---------------------------------------------------------------------------|
|---------------------------------------------------------------------------|
|                                                                 You been_
|--------------------------------------------------------------------------|
|--------------------------------------------------------------------------|
|9---9-------------------------------9---9---------------------------------|
|9---9-------------------------------9---9---------------------------------|
|7---7-------------------------------7---7---------------------------------|
|0---0-------------------------------0---0---------------------------------|

Verse 3:
Guitar 1
|---------------------------------------------------------|
|---------------------------------------------------------|
|9------9-------------------------------------------------|
|9------9------------------9-------9-------9\-------------|
|7------7----------5~~--5--7-------7-------7\-----5~~--5--|
|---0-0--------5/7----7------0-0-0---0-0-0----5/7----7----|
   (pm.)                    (pm...) (pm...)
__ cool-in',_     and baby, I've been drool-in',___


|--------------------------------------------------------------|
|--------------------------------------------------------------|
|--------------------------------------------------------------|
|9-------9-------9\-------------9-------9-------9\-------------|
|7-------7-------7\-----5~~--5--7-------7-------7\-----5~~--5--|
|--0-0-0---0-0-0----5/7----7------0-0-0---0-0-0----5/7----7----|
  (pm...) (pm...)                (pm...) (pm...)
all__ the good time_ ba-by, I been__ mis - us - in'.


|--------------------------------------------------------------|
|--------------------------------------------------------------|
|--------------------------------------------------------------|
|9-------9-------9\-------------9-------9-------9\-------------|
|7-------7-------7\-----5~~--5--7-------7-------7\-----5~~--5--|
|--0-0-0---0-0-0----5/7----7------0-0-0---0-0-0----5/7----7----|
  (pm...) (pm...)                (pm...) (pm...)
Uh, way,_way_down__ in - side__ I'm gon-na give you my_ love.


|--------------------------------------------------------------|
|--------------------------------------------------------------|
|--------------------------------------------------------------|
|9-------9-------9\-------------9-------9-------9\-------------|
|7-------7-------7\-----5~~--5--7-------7-------7\-----5~~--5--|
|--0-0-0---0-0-0----5/7----7------0-0-0---0-0-0----5/7----7----|
  (pm...) (pm...)                (pm...) (pm...)
I'm gonna give evry' ich of my love. I'm gonna give you my love.


|--------------------------------------------------------------|
|--------------------------------------------------------------|
|--------------------------------------------------------------|
|--------------------------------------------------------------|
|9-------9-------9\-------------9-------9-------9\-------------|
|7-------7-------7\-----5~~--5--7-------7-------7\-----5~~--5--|
|--0-0-0---0-0-0----5/7----7------0-0-0---0-0-0----5/7----7----|
  (pm...) (pm...)                (pm...) (pm...)
           Hey!___                Al-right,____let's go!___


|----------------------------------------------------------|
|------------------7--7--7--7-------------------7--7--7--7-|
|9-------9---------7--7--7--7-9-------9---------7--7--7--7-|
|9-------9-----9-9-7--7--7--7-9-------9-----9-9-7--7--7--7-|
|7---(7)-7-----7-7-5--5--5--5-7---(7)-7-----7-7-5--5--5--5-|
|---0-0----0-0-------------------0-0----0-0----------------|
|  (pm.)  (pm...)               (pm.)  (pm...)
|     Wanna whole lotta love._      Wanna whole lotta love._
|Slide guitar
|----------------------------------------------------------|
|----------------------------------------------------------|
|------------------------------9\--------------------------|
|------------------------------9\--------------------------|
|----------------------------------------------------------|
|----------------------------------------------------------|


|----------------------------------------------------------|
|------------------7--7--7--7-------------------7--7--7--7-|
|9-------9--------------------9-------9---------7--7--7--7-|
|9-------9-----9-9------------9-------9-----9-9-7--7--7--7-|
|7---(7)-7-----7-7------------7---(7)-7-----7-7-5--5--5--5-|
|---0-0----0-0-------------------0-0----0-0----------------|
|  (pm.)  (pm...)               (pm.)  (pm...)
|_      Wanna whole lotta love.      Wanna whole lotta love.
|
|----------------------------------------------------------|
|----------------------------------------------------------|
|9\----------------------------9\--------------------------|
|9\----------------------------9\--------------------------|
|----------------------------------------------------------|
|----------------------------------------------------------|


|----------------------------------------------------------|
|------------------7--7--7--7-9----------------------------|
|9-------9---------7--7--7--7-9----------------------------|
|9-------9-----9-9-7--7--7--7-9----------------------------|
|7---(7)-7-----7-7-5--5--5--5-7----------------------------|
|---0-0----0-0----------------0----------------------------|
|  (pm.)  (pm...)
|__                                       Way  down__  in -
|
|-----------------------------|
|-----------------------------|
|--9\-----(x)-----------------|Slide guitar ends
|--9\-----(x)-----------------|
|-----------------------------|
|-----------------------------|


|-----------------------------------------------------------------|
|-----------------------------------------------------9------2----|
|-----------------------------------------------------9------2----|
|-----------------------------------------------------9------2----|
|-----------------------------------------------------7------0----|
|-----------------------------------------------------------------|
side,__        wom - an,            you__ need,_ yeah,


|----------------------------------------------------------|
|----------------------------------------------------------|
|----------------------------------------------------------|
|-------------------------------------------------------5--|
|--------------------------------------------------5~~--5--|
|----------------------------------------------5/7----7----|
love!_____________________________(Drum fill)


|--------------------------------------------------------------------|
|--------------------------------------------------------------------|
|--------------------------------------------------------------------|
|9------9-------9\-------------6-6-------9-------9-------------------|
|7------7-------7\-----5~~--5--7-7-------7-------7---------5~~--/12--|
|---0-0---0-0-0----5/7----7--------x--0----0-0-0----0--5/7----7/-----|
   (pm.) (pm...)                     (pm) (pm...)  (pm)
                               Ma,___  ma,___  ma,___  ma!


|------------------------------------------------------------------|
|------------------------------------------------------------------|
|---------9-------9------------------------------------------------|
|---------9-------9---------------9-------9-------9\---------------|
|10~~-----7-------7-------5~~--5--7-------7-------7\-----5~~--/12--|
|----0-0----0-0-0----7--7----7------0-0-0---0-0-0----5/7----7/-----|
    (pm.)  (pm...) (pm)            (pm...) (pm...)
          Ma,__ ma,__ ma,__ ma!   Whoa!__


|----------------------------------------------------------------------|
|----------------------------------------------------------------------|
|----------------9-----------------------------------------------------|
|--------9-----9-9-----------------9-------9-------9-------------------|
|11~~----7-----7-7---------5~~--5--7-------7-------7-------5~(5)/7/12--|
|----0-0---0-0-0----0--5/7----7------0-0-0---0-0-0----0--6-------------|
    (pm.) (pm...)  (pm)             (pm...) (pm...)  (pm)


|----------------------------------------------------------------|
|----------------------------------------------------------------|
|----------------------------------------------------------------|
|--------9-------9\--------------------------9-9-----------------|
|11------7-------7\-----5~~--5--7------7-----7-7-------5~~--/12--|
|0---0-0---0-0-0----5/7----7----0--0-0---0-0------7--7----7/-----|
    (pm.) (pm...)                 (pm.) (pm.)    (pm)
   Shake_ for me girl.            I wann be your back  door  man!


|-----------------------------------------------------------------------|
|-----------------------------------------------------------------------|
|-----------------------------------------------------------------------|
|----------9-------9\-----------------9------9-9-----9------------------|
|11-11-----7-------7\---------5~~--5--7------7-7-----7---------5~~7\12--|
|0--0--0-0---0-0-0-----0--5/7----7-------0-0-----0-0----0--5/7----------|
   (pm....) (pm...)   (pm)              (pm.)   (pm.)  (pm)
           Hey!               Oh!__          Hey!              Oh!


|----------------------------------------------------------------|
|----------------------------------------------------------------|
|----------------------------------------------------------------|
|--------9-------9---------------9------9------9-----------------|
|11------7-------7-------5~~--5--7------7------7-------5~~--5/6/-|
|----0-0---0-0-0----7--7----7-------0-0----0-0---0--7-----7------|
    (pm.) (pm...)  (pm)            (pm.)  (pm.)    (pm)
         Hey!            Oh!     Oo!____________________________


|----------------------------------------------------------------|
|----------------------------------------------------------------|
|----------------------------------------------------------------|
|--------9-------9---------------------9-----9-9-----------------|
|7-------7-------7-----5~~--12-11------7-----7-7---------5~~--5--|
|--0-0-0---0-0-0---5/7----0--------0-0---0-0------0--5/7----7----|
  (pm...) (pm...)                 (pm.) (pm.)    (pm)
_________________________________                      Ho!


|----------------------------------------------------------------------|
|----------------------------------------------------------------------|
|----------------------------------------------------------------------|
|9-------9-------9---------------------------9------9------------------|
|7-------7-------7---------5--/7-12--11------7------7---------5b----5--|
|--0-0-0---0-0-0----0--5/7---------------0-0-0--0-0----0--5/7----(7)---|
  (pm...) (pm...)  (pm)                 (pm........)  (pm)
 Oh!        Oh!__             Oh!       Whoa,_ma,         ma  head!_


|-----------------------------------------------------------------------|
|-----------------------------------------------------------------------|
|-----------------------------------------------------------------------|
|9-------9-------9----------------------------9-------9-----------------|
|7-------7-------7---------5~~/10-12--11------7-------7---------5~~--5--|
|--0-0-0---0-0-0----0--5/7----------------0-0---0-0-0----0--5/7----7----|
  (pm...) (pm...)  (pm)                  (pm.) (pm...)  (pm)
                                    Keep it cool - in', ba - by!


|------------------------------------------------------------------|
|------------------------------------------------------------------|
|------------------------------------------------------------------|
|9-------9-------9--------------------------9-------9\-------------|
|7-------7-------7---------5~~--12--11------7-------7\-----5~~--5--|
|--0-0-0-0-0-0-0----0--5/7----0---------0-0---0-0-0----5/7----7----|
  (pm...) (pm...)  (pm)                (pm.) (pm...)
Uh,keep it cool-in',ba-by!          Uh,keep it cool-in',ba-by!


|----------------------------------------------------------------------|
|----------------------------------------------------------------------|
|----------------------------------------------------------------------|
|---------------9----------------------------9-------9--------------5--|
|7------7-------7---------5--/7-12--11--\7-7-7-------7---------5----5--|
|0--0-0-0-0-0-0----0--5/7----------------0-0---0-0-0----0--5/7----7----|
   (pm.) (pm...)  (pm)                  (pm.) (pm...)  (pm)
Uh,keep it cool-in',ba-by!     Uh!___                Ah!_______________

										  Fade out
|---------------------------------------------------------------------|
|---------------------------------------------------------------------|
|---------------------------------------------------------------------|
|9-------9-------9--------------------------9-------9-----------------|
|7-------7-------7---------5~~--12--11------7-------7---------5~~--5--|
|--0-0-0---0-0-0----0--5/7----0---------0-0---0-0-0----0--5/7----7----|
  (pm...) (pm...)  (pm)                (pm.) (pm...)  (pm)
________  Ha! Ha! Ho!____________ Oh!________


| = not a standard bar line; just used to separate music
~ = vibrato or held note
x = percussive note with no pitch; muted note
h = hammer on
p = pull off
s = slide
b = bend string up to indicated pitch/fret
r = release bend to indicated string/fret
/ = slide up from infinity
\ = slide down into infinity
* = bend string behind nut

A5 : [x022xx]
D  : [x5777x]
A  : [x7765x]
E  : [x7999x]

[Riff 1]
e:-------|-----------------------|-----------------------------------|
B:-------|-----------------------|-----------------------------------|
G:-------|-----------------------|-----------------------------------|
D:-------|-----------0--1-2------|---------------0--1-2--------------|
A:-------|---0--3~---------------|---0-0-0-0-3~----------------------|
E:--3b---|------------------3b---|-----------------------3b----------|

[Riff 2]
e:--------------------|----------------------------------------------|
B:--------------------|----------------------------------------------|
G:--------------------|----------------------------------------------|
D:--------2--3-4------|-------------2--3-4---------------------------|
A:--2--5--------------|--2-2-2-2-5-----------------------------------|
E:----------------5b--|---------------------5b-----------------------|

[Riff 3]
e:------------------------|------------------------------------------|
B:------------------------|------------------------------------------|
G:------------------------|------------------------------------------|
D:------------3--4-5------|---------------3--4-5---------------------|
A:--3~---6~---------------|---3-3-3-3-6~-----------------------------|
E:--------------------6b--|-----------------------6b-----------------|

[Riff 4]
e:-----------------------|-------------------------------------------|
B:-----------------------|-------------------------------------------|
G:-----------------------|-------------------------------------------|
D:-----------5--6-7------|---------------5--6-7----------------------|
A:--5~---8~--------------|---5-5-5-5-8~------------------------------|
E:------------------8b---|----------------------8b-------------------|

[Riff 5]
e:---------------------------|---------------------------------------|
B:---------------------------|---------------------------------------|
G:---------------------------|---------------------------------------|
D:------------7--8-9---------|-------------------7--8-9--------------|
A:--7~--10~------------------|----7-7-7-7--10~-----------------------|
E:--------------------10b----|---------------------------10b---------|

[Fill 1]
e:-------------------------------------------------------------------|
B:-------------------------------------------------------------------|
G:------7---7---7---7-7-7--9-9-9-------------------------------------|
D:--7s9---9---9---9--------------------------------------------------|
A:-------------------------------------------------------------------|
E:-------------------------------------------------------------------|

Progression:

[Riff 1] x2
[Riff 2] x1
[Riff 1] x1

 A5				     D		    A
Hey fellas have you heard the ...
					D	  A
It won't take long until someone can ...
					D	A
Her style is new but the face's ....
				      D        A
But from her eyes a different smile like that of one who knows.....
	D  A  D  A  D  A

[Riff 1] x2
[Riff 2] x1
[Riff 1] x1

       A5			       D	  A
Well it's been ten years and maybe ....
				  D	   A
The best years of my life gone....
				D	A
Some people cry and some people ...
				     D	       A
But I'll just keep on rollin'....

	D  A  D  A  D  A

With [Riff 3] x2:

People talkin' all around 'bout ...
, I know where ...

With [Riff 4] x1:

One thing I do have on my mind, ...

With [Riff 5] x1:

It's the way you call me another ...

[Fill 1] x2

Wallop an E chord, then break into the solo:

e:--------------------|--------------------|-------------------------|
B:--------------------|--------------------|-------------------------|
G:--2~~~h5p2p0--------|--2~~~h5p2p0--------|-------------------------|
D:--------------2p0---|-------------2p0----|-------------------------|
A:------------------3-|-----------------3--|-------------------------|
E:--------------------|--------------------|-------------------------|

e:-------------------------------------------------------------------|
B:-------------------------------------------------------------------|
G:-2~~h5p2p0h5p2p0h5p2p0h5p2p0h5p2p0h5p2p0-h5b8r7p2p0-h5b8r7p2p0-----|
D:-------------------------------------------------------------------|
A:-------------------------------------------------------------------|
E:-------------------------------------------------------------------|
					     *		*

e:-------------------------------------------------------------------|
B:-------------------------------------------------------------------|
G:-h5b8r7p2p0-h5b8r7p2p0-h5b8r7p2p0-h5b8r7p2p0---5b9r5b9r5b9r5b9r5---|
D:-------------------------------------------------------------------|
A:-------------------------------------------------------------------|
E:-------------------------------------------------------------------|
     *		*	   *	      * 	  *   *   *   *

e:----------------|-----------------------|--------------------------|
B:----------------|-----------------------|--------------------------|
G:----5-7b9-7b9---|-----5--7b9-7b9r7-5----|----5-7b9r7b9r7b9r7b9~----|
D:--7-------------|--7-----------------7--|--7-----------------------|
A:----------------|-----------------------|--------------------------|
E:----------------|-----------------------|--------------------------|

e:-------------------------------------------------------------------|
B:------------------------------------------5-5--8p5-5---5-5--8p5----|
G:-7b9r7-5-----7b9r7-5-----7b9r7-5----5-7b-------------7----------7b9|
D:---------7-----------7-----------7---------------------------------|
A:-------------------------------------------------------------------|
E:-------------------------------------------------------------------|

e:-------------------------------------8p5-7---------8p5-7-----5h8p5-|
B:--5-8p5--5-5-5-5-8p5-------5--8p5-5--------5h7--5--------5h7-------|
G:---------------------7--7b-----------------------------------------|
D:-------------------------------------------------------------------|
A:-------------------------------------------------------------------|
E:-------------------------------------------------------------------|

e:------8p5-7p5--5------5---8--11--11p8---10p8-8---------------------|
B:-7-5-------------/10----------------------------8h10---------------|
G:-----------------------------------------------------8-9-8-8-9--6-7|
D:-------------------------------------------------------------------|
A:-------------------------------------------------------------------|
E:-------------------------------------------------------------------|

e:-------------------------------------------------------------------|
B:-------------------------------------------------------------------|
G:--7---4-5-4--------------4-5p4-------------------------------------|
D:------------6-5------4-5--------7----7-7--4h5p4---4h5p4------------|
A:----------------0-7---------------0-------------7-------7-0-0-4-3--|
E:-------------------------------------------------------------------|

e:-----------|------------------------5------------------------------|
B:-----------|---------------------5-----8p5-------------------------|
G:-----------|-------------2--4s6--------------7b9--8p7-5--7p5-------|
D:-----------|---------2-4-------------------------------------7p5---|
A:--5-3-4----|-0--2-4----------------------------------------------7-|
E:--------3~-|-------------------------------------------------------|

e:----------------------------------5--------------------------------|
B:--------------------------------5---8p5-8p5------------------------|
G:---------5--7--5h7p5---5-7--7b9-------------7-8-8b---5-5h7--5----5-|
D:--5h6h7--------------7----------------------------------------7----|
A:-------------------------------------------------------------------|
E:-------------------------------------------------------------------|

e:--------------5--5-------------------------------------------------|
B:------------5-------8~~-----------9-------7-------5-----4-----3~~\-|
G:--5--5h6--6--------------------------------------------------------|
D:---------------------------0---9------7-------6------5-----4~~~~~\-|
A:-------------------------------------------------------------------|
E:-------------------------------------------------------------------|

Repeat this 8 times:

    A7	 A13sus4  A7	  A6
e:-------------------------------------------------------------------|
B:---2------3------5-------7-----5------3----------------------------|
G:---0------0------0-------0-----0------0----------------------------|
D:---2------4------5-------7-----5------4----------------------------|
A:---0------0---------------------------0----------------------------|
E:-------------------------------------------------------------------|

After the above riff repeats 4 times, these riffs enter in tandem:

	e:--3~~--------------------5~~------------------|
	B:--1~~--------------------3~~------------------|
     -- G:--0~~--------------------0~~------------------| --
     |	D:--2~~--------------------4~~------------------|  |
     |	A:--0~~--------------------0~~------------------|  |
     |	E:----------------------------------------------|  |
     |							   |
     |	e:----------------------|-----------------------|  |
     |	B:----------------------|-----------------------|  |
     |	G:----------------------|-----------------------|  |
     -- D:------------5-5--4--2-|------------5-5--4--2--| --
	A:--0~---3-4------------|--0~---3-4-------------|
	E:----------------------|-----------------------|

Next solo break:
(the two-bar lower riff shown above repeats 4 times under solo)

e:------------------------------------5----------8-9--10p9-10p8-10b12|
B:------------------------------5--7-----/10~~-----------------------|
G:------------2-------2-2--5-6---------------------------------------|
D:------------2---4--------------------------------------------------|
A:-------3s4---------------------------------------------------------|
E:--4s5--------------------------------------------------------------|

e:-10b12-10b12r10---8-9-10-8-9---------------------------------------|
B:------------------------------10--10b12-10b11-10b11-10b11-10b11-10-|
G:-------------------------------------------------------------------|
D:-------------------------------------------------------------------|
A:-------------------------------------------------------------------|
E:-------------------------------------------------------------------|

e:-----------------12--12b14~---12b14--12b13--12b14-12b13--12b15~----|
B:----8---------10---------------------------------------------------|
G:-----------11------------------------------------------------------|
D:-------------------------------------------------------------------|
A:-------------------------------------------------------------------|
E:-------------------------------------------------------------------|

e:--12b14--12b13r12p10-----10----------------------------------------|
B:---------------------13-----13---10h13p10----10-13-10h13p10-----10-|
G:------------------------------------------12----------------12-----|
D:-------------------------------------------------------------------|
A:-------------------------------------------------------------------|
E:-------------------------------------------------------------------|

e:-------------------------------------------------------------------|
B:-13-10h13p10-----10-13-10h13p10-----10-13--10-12-10-10h12p10----10-|
G:-------------12-----------------12---------------------------11----|
D:-------------------------------------------------------------------|
A:-------------------------------------------------------------------|
E:-------------------------------------------------------------------|

e:-------------------------------------------------------------------|
B:--13p10-12p10-----10h13p10--10h12p10-----10h13p10-12-10-10-13b15---|
G:--------------11---------------------11----------------------------|
D:-------------------------------------------------------------------|
A:-------------------------------------------------------------------|
E:-------------------------------------------------------------------|

e:-------------------------------------------------------------------|
B:--13b17~----10----13p10-----10--13b17~~~--13b17~~--13b17--10-----13|
G:---------------13-------13-----------------------------------12----|
D:-------------------------------------------------------------------|
A:-------------------------------------------------------------------|
E:-------------------------------------------------------------------|

e:--------------------------|
B:--10------------5--5------|
G:----------7b9-------------|
D:--------------------------|
A:--------------------------|
E:--------------------------|

At this point another guitar enters banging out these chords:
     A	 G   A	 C   A	G
e:---------------------------|
B:---5---3---5~--8---5--3----|
G:---6---4---6~--9---6--4----|
D:---7---5---7~--10--7--5----|
A:---7---5---7~--10--7--5----|
E:---------------------------|

e:---------------------------------------------------5---------------|
B:-------------------------------------------------5---/10~~-10b13---|
G:--------------------------------------2---4--5s6-------------------|
D:----7-------------------------------2---4--------------------------|
A:-------3--0-0----------------3s4-----------------------------------|
E:----------------3--3--5--5-----------------------------------------|

e:-------------------------------------------------------------------|
B:--10b11-10b13-10b11-10b14-10b14~~~~~---10b13r10--------8--8--8--8--|
G:---------------------------------------------------/7--9--9--9--9--|
D:-------------------------------------------------------------------|
A:-------------------------------------------------------------------|
E:-------------------------------------------------------------------|

				    (second guitar plays a high A chord)
e:---------------------------------------14p12-----14p12-----14p12---|
B:--8---8---8-8-8-8--8-8-8-8--8-8-8-8----------13--------13--------13|
G:--9---9---9-9-9-9--9-9-9-9--9-9-9-9--------------------------------|
D:-------------------------------------------------------------------|
A:-------------------------------------------------------------------|
E:-------------------------------------------------------------------|

e:--14p12------14--12---12--12---------15----15----15~---15~---15~---|
B:--------13------------12--13-----/17----17----17----17----17----17\|
G:-------------------------------------------------------------------|
D:-------------------------------------------------------------------|
A:-------------------------------------------------------------------|
E:-------------------------------------------------------------------|

D   A
  Work so hard I can't ...
D   A
  Abuse my love a thousand ...
D   A
  Heartbreaker your time has ....
D   A
   Go away ...

	D  A  D  A  D  A

	D  A  D  A  D  A

[Riff 1] x1 /w lyrics:

Heartbreaker! Heartbreaker! Heart --


                                   RAMBLE ON
                           As recorded by Led Zeppelin
                      (From the 1969 Album LED ZEPPELIN II)




          A13                A13sus4                Em
      x 0 2 0 2 0          x 0 4 0 3 0          x 0 5 0 5 0

Gtr I (E A D G B E) - 'Jimmy Page - Rhythm steel string acoustic'
Gtr II (E A D G B E) - 'Jimmy Page - Lead w/light dist'
Gtr III (E A D G B E) - 'Jimmy Page - Lead w/light dist'
Gtr IV (E A D G B E) - 'Jimmy Page - Lead w/light dist'

   Intro
    Q=98
   4/4
    Gtr I
                                                                          4x
||---0--0--0--0--0--0--0--0--0-0-0-0-----|-----0---0-0-0-0-0-0-0-0-0------||
||o--0--0--0--0--0--0--0--0--0-0-0-0-----|-3s5-5---5-5-5-5-5-5-5-5-5-0---o||
||--13-13-13-13-13-11-11-11-11-9-9-9-----|-4s6-6h7-7-7-7-7-7-7-6-6-6-0-6--||
||--14-14-14-14-14-12-12-12-12-7-7-7-0-0-|-5s7-7---7-7-7-7-7-7-7-7-7-0-7--||
||o-14-14-14-14-14-12-12-12-12-9-9-9-0-0-|---0-0---0-0-0-0-0-0-0-0-0---7-o||
||---0--0--0--0--0--0--0--0--0-0-0-0-0-0-|--------------------------------||


   Verse
                                                                          8x
||---0--0--0--0--0--0--0--0--0-0-0-0-----|-----0---0-0-0-0-0-0-0-0-0------||
||o--0--0--0--0--0--0--0--0--0-0-0-0-----|-3s5-5---5-5-5-5-5-5-5-5-5-0---o||
||--13-13-13-13-13-11-11-11-11-9-9-9-----|-4s6-6h7-7-7-7-7-7-7-6-6-6-0-6--||
||--14-14-14-14-14-12-12-12-12-7-7-7-0-0-|-5s7-7---7-7-7-7-7-7-7-7-7-0-7--||
||o-14-14-14-14-14-12-12-12-12-9-9-9-0-0-|---0-0---0-0-0-0-0-0-0-0-0---7-o||
||---0--0--0--0--0--0--0--0--0-0-0-0-0-0-|--------------------------------||


   Pre-Chorus
    $
    Gtr II
||---0------------0-----------0---(0)----------------|
||o-----------------0-(0)-------------0--------0-----|
||--11pb12r(11)-----------9---------------9h11-------|
||---------------------------------------------------|
||o--------------------------------------------------|
||---------------------------------------------------|
|
|   Gtr I
||---------------------------------------------------|
||o-------------------------------------7------7-7---|
||---1------------------------6---------4------4-4---|
||---2----------------------------------4------4-4-0-|
||o--2------------------------4---------6------6-6---|
||---0----------0-0----0----0---0--0-----------------|


|----------------------------------------||
|------------0-(0)---------0------------o||
|-6pb7r(6)---------6p4-(4)------2p=1-----||
|------------------------------------2---||
|---------------------------------------o||
|----------------------------------------||
|
|-0--------------------------0-(0)-------||
|-5--------------------------0-(0)------o||
|-6----------------6---------1-(1)-------||
|-7--------------------------2-(2)-------||
|-0----------------4---------2-(2)------o||
|----------0-0--0-------0--0-0-(0)---0---||


   Chorus
                                                            To Coda
                                                                     4x
||---------------------------------|-----------------------------3---||
||o-9-9-9-9------------------------|-3s5-----------3-(3)------------o||
||--9-9-9-9-7-9-(9)\---------------|-------0-------------0-----2-----||
||--9-9-9-9-7----------------------|-5s7-----7-5---------0---0-------||
||o-7-7-7-7---9-(9)\---------------|--------------------------------o||
||--0-0-0-0------------------------|---------------------------------||
|
|                                                                    4x
||---------------0---0-0-0-0-0-----|---------------------------2-2---||
||o-9-9-9-9------x---x-x-x-x-x-----|-3s5-5-5-5s3-3-3--3--------3-3--o||
||--9-9-9-9-7-9--x---x-x-x-x-x-0-0-|-0---0-0-0---0-0--0--0-0-0-2-2---||
||--9-9-9-9-7----x---x-x-x-x-x-0-0-|-5s7-7-7-7s5-5-5--5--0-0-0-0-0---||
||o-7-7-7-7---9--x---x-x-x-x-x-0-0-|--------------------------------o||
||--0-0-0-0------x---x-x-x-x-x-----|---------------------------------||


 Verse
   >
|--------------------------------------|-------------------------------|
|--------------------------------------|-------------------------------|
|--------------------------------------|-------------------------------|
|--------------------------------------|-------------------------------|
|--------------------------------------|-------------------------------|
|--0-----------------------------------|-------------------------------|
|
|--0--0--0--0--0--0--0--0--0-0-0-0-----|-----0---0-0-0-0-0-0-0-0-0-----|
|--0--0--0--0--0--0--0--0--0-0-0-0-----|-3s5-5---5-5-5-5-5-5-5-5-5-0---|
|-13-13-13-13-13-11-11-11-11-9-9-9-----|-4s6-6h7-7-7-7-7-7-7-6-6-6-0-6-|
|-14-14-14-14-14-12-12-12-12-7-7-7-0-0-|-5s7-7---7-7-7-7-7-7-7-7-7-0-7-|
|-14-14-14-14-14-12-12-12-12-9-9-9-0-0-|---0-0---0-0-0-0-0-0-0-0-0---7-|
|--0--0--0--0--0--0--0--0--0-0-0-0-0-0-|-------------------------------|


    Gtr I
                                                                          3x
||---0--0--0--0--0--0--0--0--0-0-0-0-----|-----0---0-0-0-0-0-0-0-0-0------||
||o--0--0--0--0--0--0--0--0--0-0-0-0-----|-3s5-5---5-5-5-5-5-5-5-5-5-0---o||
||--13-13-13-13-13-11-11-11-11-9-9-9-----|-4s6-6h7-7-7-7-7-7-7-6-6-6-0-6--||
||--14-14-14-14-14-12-12-12-12-7-7-7-0-0-|-5s7-7---7-7-7-7-7-7-7-7-7-0-7--||
||o-14-14-14-14-14-12-12-12-12-9-9-9-0-0-|---0-0---0-0-0-0-0-0-0-0-0---7-o||
||---0--0--0--0--0--0--0--0--0-0-0-0-0-0-|--------------------------------||


 Interlude
  Gtrs III, IV
   <
   ~~~~~~~~~~~~~~~~~~~~~~~~~~~~~~~~~~~~~
|--------------------------------------|
|-15-----------------------------------|
|-16-----------------------------------|
|--------------------------------------|
|--------------------------------------|
|--------------------------------------|
|
| Gtr I
|--0--0--0--0--0--0--0--0--0-0-0-0-----|
|--0--0--0--0--0--0--0--0--0-0-0-0-----|
|-13-13-13-13-13-11-11-11-11-9-9-9-----|
|-14-14-14-14-14-12-12-12-12-7-7-7-0-0-|
|-14-14-14-14-14-12-12-12-12-9-9-9-0-0-|
|--0--0--0--0--0--0--0--0--0-0-0-0-0-0-|


 ~~~~~~~~~~
||---------------------------------------------------|
||o---(15)-(15)p14h15---(15)p14h15---(15)p14h15---17-|
||----(16)-(16)p14h16---(16)p14h16---(16)p14h16---18-|
||---------------------------------------------------|
||o--------------------------------------------------|
||---------------------------------------------------|
|
||-----------0------0-0---0---0--0-0---0---0--0------|
||o-3s==5----5------5-5---5---5--5-5---5---5--5-0----|
||--4s==6----6h==7--7-7---7---7--7-7---6---6--6-0--6-|
||--5s==7----7------7-7---7---7--7-7---7---7--7-0--7-|
||o-----0----0------0-0---0---0--0-0---0---0--0----7-|
||---------------------------------------------------|


  1.,2.
         ~~~~~~~~~~
|-----------------------------------------||
|-15p14h15----(15)-----------------------o||
|-16p14h16----(16)------------------------||
|-----------------------------------------||
|----------------------------------------o||
|-----------------------------------------||
|
|--0--0--0--0---0---0--0--0--0-0-0-0------||
|--0--0--0--0---0---0--0--0--0-0-0-0-----o||
|-13-13-13-13--13--11-11-11-11-9-9-9------||
|-14-14-14-14--14--12-12-12-12-7-7-7-0-0--||
|-14-14-14-14--14--12-12-12-12-9-9-9-0-0-o||
|--0--0--0--0---0---0--0--0--0-0-0-0-0-0--||


  3.
          ~~~~~~~~~~
|-----------------------------------------|----------------------------------||
|--15p14h15----(15)-----------------------|----------------------------------||
|--16p14h16----(16)-----------------------|----------------------------------||
|-----------------------------------------|----------------------------------||
|-----------------------------------------|----------------------------------||
|-----------------------------------------|----------------------------------||
|
|---0--0--0--0---0---0--0--0--0-0-0-0-----|-----0---0-0-0-0-0-0-0-0-0--------||
|---0--0--0--0---0---0--0--0--0-0-0-0-----|-3s5-5---5-5-5-5-5-5-5-5-5-0------||
|--13-13-13-13--13--11-11-11-11-9-9-9-----|-4s6-6h7-7-7-7-7-7-7-6-6-6-0-6----||
|--14-14-14-14--14--12-12-12-12-7-7-7-0-0-|-5s7-7---7-7-7-7-7-7-7-7-7-0-7----||
|--14-14-14-14--14--12-12-12-12-9-9-9-0-0-|---0-0---0-0-0-0-0-0-0-0-0---7----||
|---0--0--0--0---0---0--0--0--0-0-0-0-0-0-|----------------------------------||


   Chorus
    Gtr II
                                                                     4x
||---------------------------------|-----------------------------3---||
||o-9-9-9-9------------------------|-3s5-----------3-(3)------------o||
||--9-9-9-9-7-9-(9)\---------------|-------0-------------0-----2-----||
||--9-9-9-9-7----------------------|-5s7-----7-5---------0---0-------||
||o-7-7-7-7---9-(9)\---------------|--------------------------------o||
||--0-0-0-0------------------------|---------------------------------||
|
|   Gtr I
|                                                                    4x
||---------------0---0-0-0-0-0-----|---------------------------2-2---||
||o-9-9-9-9------x---x-x-x-x-x-----|-3s5-5-5-5s3-3-3--3--------3-3--o||
||--9-9-9-9-7-9--x---x-x-x-x-x-0-0-|-0---0-0-0---0-0--0--0-0-0-2-2---||
||--9-9-9-9-7----x---x-x-x-x-x-0-0-|-5s7-7-7-7s5-5-5--5--0-0-0-0-0---||
||o-7-7-7-7---9--x---x-x-x-x-x-0-0-|--------------------------------o||
||--0-0-0-0------x---x-x-x-x-x-----|---------------------------------||


 Interlude
  A13            A13sus4
  Gtr I
   |           |  |     |     |  |     |
   /           /  /     /     /  /     /

  Gtr III
|----------------------------------------|
|-17-15-14-------17-15-14-------17-15-14-|
|----------16-14----------16-14----------|
|----------------------------------------|
|----------------------------------------|
|----------------------------------------|
|
| Gtr IV
|--9--7-----------9--7-----------9--7----|
|-------10--7----------10--7----------10-|
|--------------9--------------9----------|
|----------------------------------------|
|----------------------------------------|
|----------------------------------------|
|
| Gtr II
|----------------------------------------|
|----------------------------------------|
|----------------------------------------|
|----------------------------------------|
|--0-------------------------------------|
|----------------------------------------|


  Em             A13sus4
   |        |  |  |   |
   /        /  /  /   /

                  ~~~~~~~    ~~~~~~~
|-----------------------------------------|
|-17-15----------14-(14)----14-(14)----14-|
|-------14-16-14---------16---------16----|
|-----------------------------------------|
|-----------------------------------------|
|-----------------------------------------|
|
|                 ~~~~~~~    ~~~~~~~
|--9--7-----------------------------------|
|-------10--7----10-(10)--7-10-(10)--7-10-|
|--------------9--------------------------|
|-----------------------------------------|
|-----------------------------------------|
|-----------------------------------------|
|
|-----------------------------------------|
|-----------------------------------------|
|-----------------------------------------|
|-----------------------------------------|
|-----------------------------------------|
|-----------------------------------------|


  A13            A13sus4
   |           |  |     |     |  |     |
   /           /  /     /     /  /     /

|----------------------------------------|
|-17-15-14-------17-15-14-------17-15-14-|
|----------16-14----------16-14----------|
|----------------------------------------|
|----------------------------------------|
|----------------------------------------|
|
|--9--7-----------9--7-----------9--7----|
|-------10--7----------10--7----------10-|
|--------------9--------------9----------|
|----------------------------------------|
|----------------------------------------|
|----------------------------------------|
|
|----------------------------------------|
|----------------------------------------|
|--7s=9----------------------------------|
|-------11-------------------------------|
|----------------------------------------|
|----------------------------------------|


  Em             A13sus4
   |        |  |  |   |
   /        /  /  /   /

                  ~~~~~~~    ~~~~~~~
|-----------------------------------------||
|-17-15----------14-(14)----14-(14)----14-||
|-------14-16-14---------16---------16----||
|-----------------------------------------||
|-----------------------------------------||
|-----------------------------------------||
|
|                 ~~~~~~~    ~~~~~~~
|--9--7-----------------------------------||
|-------10--7----10-(10)--7-10-(10)--7-10-||
|--------------9--------------------------||
|-----------------------------------------||
|-----------------------------------------||
|-----------------------------------------||
|
|-----------------------------------------||
|-----------------------------------------||
|--8s=9-----------------------------------||
|-------11------------9---------11--------||
|-----------------------------------------||
|-----------------------------------------||


 Verse
  Gtrs III, IV
   ~~~
|-----------------------------------------|------------------------------------|
|-12--------------------------------------|------------------------------------|
|-13--------------------------------------|------------------------------------|
|-----------------------------------------|------------------------------------|
|-----------------------------------------|------------------------------------|
|-----------------------------------------|------------------------------------|
|
| Gtr II
|-----------------------------------------|------------------------------------|
|-----------------------------------------|------------------------------------|
|-----------------------------------------|----------9----------7-7------------|
|--------9----(9)-------------------------|---9h11-----11---7h9-----9---6---7--|
|--9h11------------9----(9)----11---------|------------------------------------|
|-----------------------------------------|------------------------------------|
|
| Gtr I
|--0--0--0--0--0---0--0--0---0--0-0-0-----|--------0----0-0-0-0-0-0-0-0-0------|
|--0--0--0--0--0---0--0--0---0--0-0-0-----|-3s5----5----5-5-5-5-5-5-5-5-5-0----|
|-13-13-13-13-13--11-11-11--11--9-9-9-----|-4s6----6h7--7-7-7-7-7-7-6-6-6-0-6--|
|-14-14-14-14-14--12-12-12--12--7-7-7-0-0-|-5s7----7----7-7-7-7-7-7-7-7-7-0-7--|
|-14-14-14-14-14--12-12-12--12--9-9-9-0-0-|---0----0----0-0-0-0-0-0-0-0-0---7--|
|--0--0--0--0--0---0--0--0---0--0-0-0-0-0-|------------------------------------|


    Gtr II
||------------------------------------------|
||o-----------------------------------------|
||------------------------------------------|
||---------9----(9)-------------------------|
||o--9h11------------9----(9)----11---------|
||------------------------------------------|
|
|   Gtr I
||---0--0--0--0--0---0--0--0---0--0-0-0-----|
||o--0--0--0--0--0---0--0--0---0--0-0-0-----|
||--13-13-13-13-13--11-11-11--11--9-9-9-----|
||--14-14-14-14-14--12-12-12--12--7-7-7-0-0-|
||o-14-14-14-14-14--12-12-12--12--9-9-9-0-0-|
||---0--0--0--0--0---0--0--0---0--0-0-0-0-0-|


                      D.S. al Coda
                                     7x
|------------------------------------||
|-----------------------------------o||
|----------9----------7-7------------||
|---9h11-----11---7h9-----9---6---7--||
|-----------------------------------o||
|------------------------------------||
|
|                                    7x
|--------0----0-0-0-0-0-0-0-0-0------||
|-3s5----5----5-5-5-5-5-5-5-5-5-0---o||
|-4s6----6h7--7-7-7-7-7-7-6-6-6-0-6--||
|-5s7----7----7-7-7-7-7-7-7-7-7-0-7--||
|---0----0----0-0-0-0-0-0-0-0-0---7-o||
|------------------------------------||


   Outro
    &
    Gtr II
||---------------------------------|-----------------------------3---||
||o-9-9-9-9------------------------|-3s5-----------3-(3)------------o||
||--9-9-9-9-7-9-(9)\---------------|-------0-------------0-----2-----||
||--9-9-9-9-7----------------------|-5s7-----7-5---------0---0-------||
||o-7-7-7-7---9-(9)\---------------|--------------------------------o||
||--0-0-0-0------------------------|---------------------------------||
|
|   Gtr I
||---------------0---0-0-0-0-0-----|---------------------------2-2---||
||o-9-9-9-9------x---x-x-x-x-x-----|-3s5-5-5-5s3-3-3--3--------3-3--o||
||--9-9-9-9-7-9--x---x-x-x-x-x-0-0-|-0---0-0-0---0-0--0--0-0-0-2-2---||
||--9-9-9-9-7----x---x-x-x-x-x-0-0-|-5s7-7-7-7s5-5-5--5--0-0-0-0-0---||
||o-7-7-7-7---9--x---x-x-x-x-x-0-0-|--------------------------------o||
||--0-0-0-0------x---x-x-x-x-x-----|---------------------------------||


Tablature Legend
----------------
 h   - hammer-on
 p   - pull-off
 b   - bend
 pb  - pre-bend
 r   - bend release (if no number after the r, then release immediately)
 /\  - slide into or out of (from/to "nowhere")
 s   - legato slide
 S   - shift slide
  - natural harmonic
[n]  - artificial harmonic
n(n) - tapped harmonic
 ~   - vibrato
 tr  - trill
 T   - tap
 TP  - trem. picking
 PM  - palm muting
\n/  - tremolo bar dip; n = amount to dip
 \n  - tremolo bar down
 n/  - tremolo bar up
/n\  - tremolo bar inverted dip
 =   - hold bend; also acts as connecting device for hammers/pulls
 <>  - volume swell (louder/softer)
 x   - on rhythm slash represents muted slash
 o   - on rhythm slash represents single note slash

Misc Legend
-----------
 |  - bar
||  - double bar
||o - repeat start
o|| - repeat end
*|  - double bar (ending)
 :  - bar (freetime)
 $  - Segno
 &  - Coda
Tempo markers -  = BPM(8/16=s8/s16), where s8 = swing 8ths, s16 = swing 16ths


****************
*Immigrant Song*
****************

There are 3 Guitar parts all are electric 6-strings
All guitars are in standard tuning.

Key:
x=finger mute
/=slide up
\=slide down
*=look at the notes at the end of the tab
#=slowly pick chord down

Intro:
Electric Guitar 1 (bridge pickup)
|------------------------------------------------------------------------------------|
|------------------------------------------------------------------------------------|
|------------------------------------------------------------------------------------|
|-------4-------------4-------------4-------------4-------------4-------------4------|
|------------------------------------------------------------------------------------|
|2--2-2---2--2-2--2-2---2--2-2--2-2---2--2-2--2-2---2--2-2--2-2---2--2-2--2-2---2--2-|


|------------------------------------------------------------------------------------|
|------------------------------------------------------------------------------------|
|------------------------------------------------------------------------------------|
|-------4-------------4-------------4-------------4-------------4-------------4------|
|------------------------------------------------------------------------------------|
|2--2-2---2--2-2--2-2---2--2-2--2-2---2--2-2--2-2---2--2-2--2-2---2--2-2--2-2---2--2-|
                    Ah,___________________________________     Ah._____


|--------------------------------------------------------|
|------------------------------------------------0-0-0-0-|
|------------------------------------------------2-2-2-2-|
|-------4-------------4------------4-------------4-2-2-2-|
|------------------------------------------------0-0-0-0-|
|2--2-2---2--2-2--2-2---2---2--2-2---2--2-2--2-2---------|
|____________________________                          We
|Electric Guitar 2*
|--------------------------------------------------------|
|------------------------------------------------5-------|
|------------------------------------------------2-------|
|------------------------------------------------2-------|
|------------------------------------------------0-------|
|--------------------------------------------------------|


|0#---------------------------------------------|
|0#---------------------------------------------|
|4#---------------------------------------------|
|2#---------------------------------------------|
|-----------------------------------------------|
|-----------------------------------------------|
|come from the land of the ice and snow,from the
|
|-----------------------------------------------|
|0----------------------------------------------|
|4----------------------------------------------|
|2----------------------------------------------|
|2----------------------------------------------|
|0----------------------------------------------|


|----------------------------0--0-0---------|
|----------------------------0--0-0-0-0-0-0-|
|----------------------------4--4-4-2-2-2-2-|
|----------------------------2--2-2-2-2-2-2-|
|-----------------------------------0-0-0-0-|
|-------------------------------------------|
|mid-night sun and the hot springs__ flow.__
|
|-------------------------------------------|
|----------------------------0------2-------|
|----------------------------4------2-------|
|----------------------------2------2-------|
|----------------------------2------0-------|
|----------------------------0--------------|


Guitar 1
|------------------------------------------------------------------------------------|
|------------------------------------------------------------------------------------|
|------------------------------------------------------------------------------------|
|-------4-------------4-------------4-------------4-------------4-------------4------|
|------------------------------------------------------------------------------------|
|2--2-2---2--2-2--2-2---2--2-2--2-2---2--2-2--2-2---2--2-2--2-2---2--2-2--2-2---2--2-|
|_  Hammer of_ the gods,                           will drive our ships      to new__
|Electric Guitar 3 (guitar 2 tacet**)
|4--4--------4---x-x--x--4---x-x--x-x-4\--x-x--x--4---x-x--x--4---x-| the 2 parts
|2--2--------2---x-x--x--2---x-x--x-x-2\--x-x--x--2---x-x--x--2---x-| arn't shown
|-------------------------------------------------------------------| evenly.
|4--4--------4---x-x--x--4---x-x--x-x-4\--x-x--x--4---x-x--x--4---x-|
|----------------***------------------------------------------------|
|-------------------------------------------------------------------|


|--------------------------------------------------------|
|--------------------------------------------------------|
|--------------------------------------------------------|
|-------4-------------4-------------4-------------4------|
|--------------------------------------------------------|
|2--2-2---2--2-2--2-2---2--2-2--2-2---2--2-2--2-2---2--2-|
|__  land.__           To   fight   the   hordes__    and
|
|x--x--4--x--x--x-x-4----x-x--x-x-4---x-x-x-x--4--x-x-|
|x--x--2--x--x--x-x-2-2--x-x--x-x-2---x-x-x-x--2--x-x-|
|---------------------2-------------------------------|
|x--x--4--x--x--x-x---4--x-x--x-x-4---x-x-x-x--4--x-x-|
|-----------------------------------------------------|
|-----------------------------------------------------|


|--------------------------------------------------------------------|
|--------------------------0-------------------------0-0-0-0---------|
|----------------2-2-2--2--4-------------------------4-4-4-4-6-6-6-6-|
|------4---------2-2-4--2--2-------------------------2-2-2-2-7-7-7-7-|
|----------------0-0-0--0------------------------------------0-0-0-0-|
|2--2----2--2-2------------------------------------------------------|
|sing and cry.___          Val-hal-la I am com-ing___________________
|Guitar 2
|--------------------------------------------------------------------|
|--------------------------0-------------------------0-------0-------|
|------------------2-2---2-4-------------------------4-------2-------|
|------------------2-2---2-2-------------------------2-------2-------|
|------------------0-0---0-2-------------------------2-------0-------|
|--------------------------0-------------------------0---------------|
|Guitar 3
|x--x--4------------------------4------4--4-4--x-x--x-x-4--x-x-------|
|x--x--2------------------------2------2--2-2--x-x--x-x-2--x-x-------|
|-------------------------------4------4--4-4--x-x--x-x-4--x-x-------|
|x--x--4------------------------2------2--2-2--x-x--x-x-2--x-x-------|
|--------------------------------------------------------------------|
|--------------------------------------------------------------------|
|--------------------------------------------------------------------|


Guitar 1
|------------------------------------------------------|
|------------------------------------------------------|
|------------------------------------------------------|
|------4-------------4------------4-------------4------|
|------------------------------------------------------|
|2--2----2--2-2--2-2--2--2-2--2-2---2--2-2--2-2---2--2-|
|____________
|Guitar 3 (Guitar 2 tacet)
|x--x--4---x-x--x--4---x-x--x--4---x-x--x--4---x--| the 2 guitar parts are
|x--x--2---x-x--x--2---x-x--x--2---x-x--x--2---x--| suppossed to be played
|-------------------------------------------------| evenly but I can't make
|x--x--4---x-x--x--4---x-x--x--4---x-x--x--4---x--| it look like that.
|-------------------------------------------------|
|-------------------------------------------------|


Guitar 1 (Tripletracked)
|------------------------------------------------------------|
|2-2-2-2-2--2--2-2-2-2-2-2-2-x-4-4-4-4-4--4--4-4-4-4-4-4-4-x-|
|2-2-2-2-2--2--2-2-2-2-2-2-2-x-4-4-4-4-4--4--4-4-4-4-4-4-4-x-|
|2-2-2-2-2--2--2-2-2-2-2-2-2-x-4-4-4-4-4--4--4-4-4-4-4-4-4-x-|
|0-0-0-0-0--0--0-0-0-0-0-0-0-x-2-2-2-2-2--2--2-2-2-2-2-2-2-x-|
|------------------------------------------------------------|
|     Always sweep with,      with treshing oar.______
|Guitar 3
|x-x-x-x-5--5\-x-x-x-x-5-5-5-x-x-x-x-x-7--7--7-7-7-7-7-7-x-x-|
|x-x-x-x-5--5\-x-x-x-x-5-5-5-x-x-x-x-x-7--7--7-7-7-7-7-7-x-x-|
|------------------------------------------------------------|
|x-x-x-x-7--7\-x-x-x-x-7-7-7-x-x-x-x-x-9--9--9-9-9-9-9-9-x-x-|
|------------------------------------------------------------|
|------------------------------------------------------------|


|------------------------------------------------------|
|5-5-5--5-5-5-5-5-5-5--5-5-5-5-5-5-5--5-5-5-5-5--------|
|5-5-5--5-5-5-5-5-5-5--5-5-5-5-5-5-5--5-5-5-5-5--------|
|5-5-5--5-5-5-5-5-5-5--5-5-5-5-5-5-5--5-5-5-5-5--------|
|3-3-3--3-3-3-3-3-3-3--3-3-3-3-3-3-3--3-3-3-3-3--------|
|----------------------------------------------------3-|
|Our on-ly goal will be the wast-ern_ shore._
|                                  ***
|---------------------------------------------------------------|
|---------------------------------------------------------------|
|x-x-5--5--5-5-5-5-5--5-5-5-5-5-5--5---5--5---5---5---5-------x-|
|---------------------------------------------------------------|
|x-x-3--3--3-3-3-3-3--3-3-3-3-3-3-3/3----3/0-3/1-3/2-3/3------x-|
|--------------------------------------3------------------------|


|--------------------------------------------------------|
|--------------------------------------------------------|
|--------------------------------------------------------|
|-------4-------------4-------------4-------------4------|
|--------------------------------------------------------|
|2--2-2---2--2-2--2-2---2--2-2--2-2---2--2-2--2-2---2--2-|
|                                                 Ah,____
|x--x--4--x--x--x--4--x--x--x--4--x--x--x--4--x--|
|x--x--2--x--x--x--2--x--x--x--2--x--x--x--2--x--|
|------------------------------------------------|
|x--x--4--x--x--x--4--x--x--x--4--x--x--x--4--x--|
|------------------------------------------------|
|------------------------------------------------|


|------------------------------------------------------------------------------------|
|------------------------------------------------------------------------------------|
|------------------------------------------------------------------------------------|
|-------4-------------4-------------4-------------4-------------4-------------4------|
|------------------------------------------------------------------------------------|
|2--2-2---2--2-2--2-2---2--2-2--2-2---2--2-2--2-2---2--2-2--2-2---2--2-2--2-2---2--2-|
|_______________________________     Ah._________________________________
|x--x--4--x--x--x--4--x--x--x--4--x--x--x--4--x--x--x--4--x--x--x--4--x--|
|x--x--2--x--x--x--2--x--x--x--2--x--x--x--2--x--x--x--2--x--x--x--2--x--|
|------------------------------------------------------------------------|
|x--x--4--x--x--x--4--x--x--x--4--x--x--x--4--x--x--x--4--x--x--x--4--x--|
|------------------------------------------------------------------------|
|------------------------------------------------------------------------|


|---------------------0-0-0-0-0----------------------------------------------|
|---------------------5-5-5-5-0----------------------------------------------|
|---------------------2-2-2-2-4----------------------------------------------|
|-------4-------------2-2-2-2-2----------------------------------------------|
|---------------------0-0-0-0------------------------------------------------|
|2--2-2---2--2-2--2-2--------------------------------------------------------|
|__                ****    We come from the land of the ice and snow,from the
|x--x--4--x--x------0-0-----0-0----------------------------------------------|
|x--x--2--x--x------2-2-----2-0----------------------------------------------|
|-------------------2-2-----2-4----------------------------------------------|
|x--x--4--x--x------2-2-----2-2----------------------------------------------|
|-----------------------------2----------------------------------------------|
|-----------------------------0----------------------------------------------|


Guitar 1
|------------------------0--0-0-0-0-0-0-|
|------------------------0--0-0-0-0-0-0-|
|------------------------4--4-4-2-2-2-2-|
|------------------------2--2-2-2-2-2-2-|
|---------------------------------------|
|---------------------------------------|
|mid-night sun where the hot springs_ flow
|Guitar 2
|---------------------------------------|
|---------------------------------------|
|-------------------------------2-------|
|------------------------2------2-------|
|------------------------2------0-------|
|------------------------0--------------|


Guitar 1
|--------------------------------------------------|
|--------------------------------------------------|
|--------------------------------------------------|
|------4-----------4------------4-----------4------|
|--------------------------------------------------|
|2--2----2--2-2--2---2--2-2--2----2--2-2--2---2--2-|
|_ How soft your fields__ so green.             Can
|Guitar 3 (guitar 2 tacet)
|4--4------4--4-4--x-x--x--4---x-x--x-x-4-4-x-|
|2--2------2--2-2--x-x--x--2---x-x--x-x-2-2-x-|
|---------------------------------------------|
|4--4------4--4-4--x-x--x--4---x-x--x-x-4-4-x-|
|---------------------------------------------|
|---------------------------------------------|


|----------------------------------------------------|
|----------------------------------------------------|
|----------------------------------------------------|
|-------4------------4------------4------------4-----|
|----------------------------------------------------|
|2--2-2---2---2--2-2---2---2--2-2---2---2--2-2---2---|
| whis-per tales__ of gore.__                      Of
|x--x--4---x-x--x-x-4-4--x-x--x-x-4-4-x--x--x-x-4---x-|
|x--x--2---x-x--x-x-2-2--x-x--x-x-2-2-x--x--x-x-2---x-|
|-----------------------------------------------------|
|x--x--4---x-x--x-x-4-4--x-x--x-x-4-4-x--x--x-x-4---x-|
|-----------------------------------------------------|
|-----------------------------------------------------|


|-----------------------------------------------------7------------------|
|----------------------------------------------5------0------------------|
|----------------------------------------------2------4------------------|
|------4------------4-------------4------------2-------------------------|
|----------------------------------------------0------7------------------|
|2--2----2---2--2-2---2--2-2--2-2---2---2--0-0----0-0-0------------------|
|how we calmed_      the tides of war._               We are__ your
|Guitar 2                                *****
|--------------------------------------------5-5----7-7------------------|
|--------------------------------------------5-5----5-5------------------|
|--------------------------------------------2-2----4-4------------------|
|--------------------------------------------2-2----2--------------------|
|--------------------------------------------0-0------7------------------|
|---------------------------------------------------0-0------------------|
|Guitar 3
|x--x--4--x--x--x--2-x--x-x--x-x-2-x---x---2-2---x-x--x--4---x-x--x--4----x-|
|x--x--2--x--x--x--2-x--x-x--x-x-2-x---x---2-2---x--------------------------|
|--------------------------------------------------x--x--4---x-x--x--4----x-|
|x--x--4--x--x--x--4-x--x-x--x-x-4-x---x---4-4---x-x--x--2---x-x--x--2-2--x-|
|---------------------------------------------------------------------------|
|---------------------------------------------------------------------------|


|-----------------------------------------------------------------------------|
|------------0---0-2----------------------------------------------------------|
|------------4---4-2----------------------------------------------------------|
|------------2---2-2----------4-------------4------------4-------------4------|
|------------2---2-0----------------------------------------------------------|
|------------0---0------2--2----2--2-2--2-2---2--2-2--2----2--2-2--2-2---2--2-|
|ov - er Lords,_________________________
|-----------------------------------------------------------------------------|
|------------0----------------------------------------------------------------|
|------------4--/--6----------------------------------------------------------|
|------------------7----4-----------------------------------------------------|
|------------7-----0----4-----------------------------------------------------|
|------------0----------2-----------------------------------------------------|
|
|x--x--4----------------x--x--4---x-x--x--4-x--x-x--x-x-4---x-x--x--4-x---|
|------------5--/--1010--------------------------x--x-x-2---x-x--x--2-----|
|x--x--4-----4--/--9-9--x--x--4---x-x--x--4-x--x----------------------x---|
|x--x--2-2---2--/--7-7--x--x--2---x-x--x--2-x--x-x--x-x-4---x-x--x--4-x---|
|-------------------------------------------------------------------------|
|-------------------------------------------------------------------------|


Guitar 1
|0-0-0-0-0-0-0--0-0-0-0-0-0-0-0-2-2-2-2-2-2-2--2--2--2-2-2-2-|
|2-2-2-2-2-2-2--2-2-2-2-2-2-2-2-4-4-4-4-4-4-4--4--4--4-4-4-4-|
|2-2-2-2-2-2-2--2-2-2-2-2-2-2-2-4-4-4-4-4-4-4--4--4--4-4-4-4-|
|2-2-2-2-2-2-2--2-2-2-2-2-2-2-2-4-4-4-4-4-4-4--4--4--4-4-4-4-|
|0-0-0-0-0-0-0--0-0-0-0-0-0-0-0-2-2-2-2-2-2-2--2--2--2-2-2-2-|
|------------------------------------------------------------|
|         Al-ways sweep           with thresh-ing oar._______
|Guitar 3 (guitar 2 tacet)
|x-x-x-x-5--5-5-x-x-5-5-5-5-5-5-x-x-x-x-7-7-7--x-x-x-x-7-7-7-7-|
|x-x-x-x-5--5-5-x-x-5-5-5-5-5-5-x-x-x-x-7-7-7--x-x-x-x-7-7-7-7-|
|--------------------------------------------------------------|
|x-x-x-x-7--7-7-x-x-7-7-7-7-7-7-x-x-x-x-9-9-9--x-x-x-x-9-9-9-9-|
|--------------------------------------------------------------|
| -------------------------------------------------------------|


|3-3-3-3-3-3-3--3--3--3-3-3-5-3-3-3-3-3-3-3-3-3--------|
|5-5-5-5-5-5-5--5--5--5-5-5-5-5-5-5-5-5-5-5-5-5--------|
|5-5-5-5-5-5-5--5--5--5-5-5-3-5-5-5-5-5-5-5-5-5--------|
|5-5-5-5-5-5-5--5--5--5-5-5-5-5-5-5-5-5-5-5-5-5--------|
|3-3-3-3-3-3-3--3--3--3-3-3-3-3-3-3-3-3-3-3-3-3--------|
|----------------------------------------------------3-|******
|Our only goal will be the west-ern_ shore.__
|------------------------------------------------------|
|------------------------------------------------------|
|5-5-5-5-5-5-5--5-5-5-5-5-5-5-5-5-5-5-5-5-5-5-5-5-5----|
|------------------------------------------------------|
|3-3-3-3-3-3-3--3-3-3-3-3-3-3-3-3-3-3-3-3-3-3-3-3-3----|
|------------------------------------------------------|


|------------------------------------------------------|
|------------------------------------------------------|
|------------------------------------------------------|
|-------4------------4---4--------4-------------4------|
|------------------------------------------------------|
|2--2-2---2---2--2-2---2---2--2-2---2--2-2--2-2---2--2-|
|                                                    So
|x--x--4-4---x--x--4---x-x--x--4-4---x--x-x-4---x-|
|x--x--2-2---x--x--2---x-x--x--2-2---x--x-x-2---x-|
|-------------------------------------------------|
|x--x--4-4---x--x--2---x-x--x--4-4---x--x-x-2---x-|
|-------------------------------------------------|
|-------------------------------------------------|


|----------------------------------------------------|
|----------------------------------------------------|
|----------------------------------------------2-----|
|-------4-------------4-----------4--------2-2-4-4---|
|----------------------------------------------------|
|2--2-2---2--2-2--2-2---2---2--2----2---2--2-2---2---|
|                              *******
|now you'd beter stop,__  and rebuild all your ruins.   For
|x--x--4-4---x--x--4---x-x--x--4-4---x--x-x-4---x-|
|x--x--2-2---x--x--2---x-x--x--2-2---x--x-x-2---x-|
|-------------------------------------------------|
|x--x--4-4---x--x--2---x-x--x--4-4---x--x-x-2---x-|
|-------------------------------------------------|
|-------------------------------------------------|


|----------------------------------------------------|
|-----------------------------------------------3----|
|-----------------------------------------------3----|
|-----------------------------------------------2----|
|-------4------------4------------4-------------3----|
|2--2-2---2---2--2-2---2--2-2--2----2--2-2--2-2------|
|peace and trust can win the day,despite of all your los-ing.__
|x--x--4-4---x--x--4---x-x--x--4-4---x--x-x----------|
|x--x--2-2---x--x--2---x-x--x--2-2---x--x-x----3-----|
|----------------------------------------------3-----|
|x--x--4-4---x--x--2---x-x--x--4-4---x--x-x----2-----|
|----------------------------------------------3-----|
|----------------------------------------------------|


|----------------------------------------------------|
|-----------------------------------------------3----|
|--------------------2--------------------------3----|
|-------4-4------0-0-4-4------------------------2----|
|---------------------------------4-------------3----|
|2--2-2---2---2--2-2---2---2--2-2---2--2-2--2-2------|
|__
|x--x--4-4---x--x--4---x-x--x--4-4---x--x-x----------|
|x--x--2-2---x--x--2---x-x--x--2-2---x--x-x-----3----|
|-----------------------------------------------3----|
|x--x--4-4---x--x--2---x-x--x--4-4---x--x-x-----2----|
|-----------------------------------------------3----|
|----------------------------------------------------|


|---------------------------------------------------------------------------------|
|-------------------------------------------------3-------------------------------|
|-------------------------------------------------3-------------------------------|
|-------4-------------4-------------4-------------2-----------4------------4------|
|-------------------------------------------------3-------------------------------|
|2--2-2---2--2-2--2-2---2--2-2--2-2---2--2-2--2-2------2--2-2---2---2--2-2---2--2-|
|Ooh.______          Ooh.__________ Ooh.______           Ooh.____   Ooh.___
|x--x--4-4---x--x--4---x-x--x--4-4---x--x-x------------x--x--4-4---x--x--4---x-|
|x--x--2-2---x--x--2---x-x--x--2-2---x--x-x------3-3-3-x--x--2-2---x--x--2---x-|
|------------------------------------------------3-3-3-------------------------|
|x--x--4-4---x--x--2---x-x--x--4-4---x--x-x------2-2-2-x--x--4-4---x--x--2---x-|
|------------------------------------------------3-3-3-------------------------|
|------------------------------------------------------------------------------|


|--------------------------------------------------------------------------------|
|---------------------3-------------------------3-------------------------3------|
|---------------------3-------------------------3-------------------------3------|
|-------4-------------2-----------4-------------2-----------4-------------2------|
|---------------------3-------------------------3-------------------------3------|
|2--2-2---2--2-2--2-2-------2--2----2--2-2-2--2-------2--2----2--2-2-2--2--------|
|__     Ooh.______             Ah._______________
|x--x--4-4---x--x-x---------x--x--4-4---x--x-x--------x--x--4-4---x--x-x---------|
|---x--2-2---x--x-x-3-3-3---x--x--2-2---x--x-x--3--------x--2-2---x--x-x---3--3--|
|x------------------3-3-3-----------------------3-----x--------------------3--3--|
|x--x--4-4---x--x-x-2-2-2---x--x--4-4---x--x-x--------x--x--4-4---x--x-x---2--2--|
|-------------------3-3-3-----------------------3--------------------------3--3--|
|--------------------------------------------------------------------------------|


|-------------------------------------------------------------------------------|
|--------------------3--------------------------3------------------------3------|
|--------------------3--------------------------3------------------------3------|
|------4-------------2------------4-------------2----------4-------------2------|
|--------------------3--------------------------3------------------------3------|
|2--2----2--2-2-2--2-------2--2-2---2--2-2--2-2------2--2----2--2-2--2-2--------|
|Ooh.__________    Ooh.____       Ooh.____            Ooh._______    Ooh.__
|x--x--4-4---x--x----------x--x--4-4-----------------x--x--4-4---x--x-----------|
|x--x--2-2---x--x--3-3-3---x--x--2-2---x--x--3--3-3--x--x--2-2---x--x--3-3-3----|
|------------------3-3-3---------------x--x--3--3-3--------------------3-3-3----|
|x--x--4-4---x--x----------x--x--4-4-----------------x--x--4-4---x--x-----------|
|------------------3-3-3---------------x--x--3--3-3--------------------3-3-3----|
|-------------------------------------------------------------------------------|


|--------------------------------------------------------------------------|
|---------------------3------------------------3---------------------------|
|---------------------3------------------------3---------------------------|
|-------4-------------2----------4-------------2-----------4---------------|
|---------------------3------------------------3---------------------------|
|2--2-2---2--2-2--2-2------2--2----2--2-2--2-2------2--2-2---2--2-2--------|
|___   Ooh._____          Ooh.___________     Ooh.___     Ooh.______
|x--x--4-4-----------------x--x--4-4---x--x---------------------------------|
|x--x--2-2---x--x-3-3-3-3--x--x--2-2---x--x--3-3-3--x--x--4-4-----x---------|
|------------x--x-3-3-3-3--------------------3-3-3--x--x--2-2-----x---------|
|x--x--4-4-----------------x--x--4-4---x--x---------------------------------|
|------------x--x-3-3-3-3--------------------3-3-3--x--x--4-4-----x---------|
|---------------------------------------------------------------------------|

*=with amplifier vibrato set to 16th note pulse.
**=For those people who don't know what tacet means it means it is silent.
***=Overdub.
****=Return 16th note amplifier vibrato with Guitar 2.
*****=Return 16th note amplifier vibrato.
******=Additional Guitar in unison with original.
(treble pickup with distortion)
*******=Upstemmed part on beats 3 and 4: additional guitar fill.


  	 Celebration Day Tab by Led Zeppelin, www.Ultimate-Guitar.Com

Led Zeppelin - Celebration Day

| = not a standard bar line; just used to separate music
~ = vibrato or held note
x = percussive note with no pitch; muted note
. = staccato; mute the note immediately after striking it
h = hammer on
p = pull off
s = slide
o  \_
o  /   repeat sign (always look for these!)

[Riff 1]

    A7            (play this rapidly)              (play this rapidly)
e:----------------9--9--9--9--9--9--9--|--------------------------------|
B:----------------8--8--8--8--8--8--8--|-----------5--5--5--5--5--5--5--|
G:o----------2----9--9--9--9--9--9--9--|-----------6--6--6--6--6--6--6-o|
D:o------------------------------------|--5--------5--5--5--5--5--5--5-o|
A:--0--3--0----------------------------|-----3--0-----------------------|
E:-------------------------------------|--------------------------------|

[Riff 2]
          C              G              Bb             F
e:--0-0-0-0-0-0-0--3-3-3-3-3-3-3--1-1-1-1-1-1-1--1-1-1-1-1-1-1---------------|
B:--1-1-1-1-1-1-1--3-3-3-3-3-3-3--3-3-3-3-3-3-3--1-1-1-1-1-1-1---------------|
G:--0-0-0-0-0-0-0--0-0-0-0-0-0-0--3-3-3-3-3-3-3--2-2-2-2-2-2-2---------------|
D:--2-2-2-2-2-2-2--0-0-0-0-0-0-0--3-3-3-3-3-3-3--3-3-3-3-3-3-3---------------|
A:--3-3-3-3-3-3-3--2-2-2-2-2-2-2--1-1-1-1-1-1-1--3-3-3-3-3-3-3---------------|
E:-----------------3-3-3-3-3-3-3-----------------1-1-1-1-1-1-1---------------|

          C              G             Bb             F        E
e:--0-0-0-0-0-0-0--3-3-3-3-3-3-3--1-1-1-1-1-1-1---1-1-1-1-1------------------|
B:--1-1-1-1-1-1-1--3-3-3-3-3-3-3--3-3-3-3-3-3-3---1-1-1-1-1------------------|
G:--0-0-0-0-0-0-0--0-0-0-0-0-0-0--3-3-3-3-3-3-3---2-2-2-2-2-1-1-1-1-1--------|
D:--2-2-2-2-2-2-2--0-0-0-0-0-0-0--3-3-3-3-3-3-3---3-3-3-3-3-2-2-2-2-2--------|
A:--3-3-3-3-3-3-3--2-2-2-2-2-2-2--1-1-1-1-1-1-1---3-3-3-3-3-2-2-2-2-2--------|
E:-----------------3-3-3-3-3-3-3------------------1-1-1-1-1------------------|

Song Progression:

[Riff 1] x2

With [Riff 1]:

Her face is cracked from smiling,
all the fears that she's been hiding,
and it seems that pretty soon
evr'ybody's gonna know.

And her voice is sore from shouting,
cheering winners who are losing,
and she wonders if their days are few
and soon they'll have to go.

[Riff 1] once more, then

With [Riff 2]: (chords shown here for reference)

C            G
My, my, my, I'm so happy,
Bb                F
I'm gonna join the band.
 C                     G
We are gonna dance and sing in celebration,
 Bb                   F  E
we are in the promised land.

With [Riff 1]:

She hears them talk of new ways
to protect the home she lives in,
Then she wonders what it's all about
when they break down the door.
Her name is Brown or White or Black;
you know her very well.
You hear her cries of mercy
as the winners toll the bell.

With [Riff 2]:

My, my, my, I'm so happy,
I'm gonna join the band.
We are gonna sing and dance in celebration,
we are in the promised land.

[Solo]:


|------------------------------------|-----------------------------------|
|-15b17--15b17--15b17r15p13-15b17-15-|-(15)-----------13-15p13---15p13---|
|------------------------------------|-----12---12-14----------14-----14-|
|------------------------------------|-----------------------------------|
|------------------------------------|-----------------------------------|
|------------------------------------|-----------------------------------|

|------------15------------|-------------8p5----------|
|-13---15-13----15b17-15b17|-(17)-15b17-----8p5-8p5---|
|--------------------------|-----------------------7p5|
|--------------------------|--------------------------|
|--------------------------|--------------------------|
|--------------------------|--------------------------|

|----------------------|------------------------|----------------8|
|----------------------|------------------------|-----------------|
|-7b9-7b9-7b9r7p5-7b9r7|-(17)------5-7p5-5-7p5--|-5--7-5--5--8h9--|
|----------------------|-----5--5h7-----7-----7-|-----------------|
|----------------------|------------------------|-----------------|
|----------------------|------------------------|-----------------|

|-------13----13--------12----12-|
|--------------------------------|
|-12/14----14-----12/13----13----|
|--------------------------------|
|--------------------------------|
|--------------------------------|

With [Riff 1]:

There is a train that leaves the station
heading for your destination,
But the price you pay to nowhere
has increased a dollar more. Yes, it has!
And if you walk you're gonna get there
although it takes a little longer,
And when you see it in the distance
you will wring your hands and moan.

Repeat [Riff 1] until fade out


****************************
*Since I've Been Loving You*
****************************

The timing in the tab is'nt perfect but listen to the song and you should be able to
figure out the timing.

Key:
Bb=bend 1 1/2 step
B=bend 1 step
b=bend 1/2 step
r=return bend
~=vibrato
(pm)=palm mute
/=slide up
\=slide down
p=pull off
h=hammer
()=optional note
'=down stroke chord slowly
"=up stroke chord slowly

Intro:
Electric Guitar 1
|---------------8----------------------11-10-8-10-11-10-8---10-8--------------------|
|------------8-----11--8--11B~~~~~~~~~(8)-----------------9------9-9-9----8---------|
|---------------------------------------------------------------------------10------|
|-----------------------------------------------------------------------------------|
|-----------------------------------------------------------------------------------|
|-----------------------------------------------------------------------------------|


|-------------------------------------------------------------------------------------|
|-------------------------------------------------------------------------------16-18-|
|7-8-10-7-8---------------------------------8p7p5-7-8-10-/12--------12-12~~~~~~~------|
|--------------10-8----------/10~~~~~~~~~~~~------------------------------------------|
|-------------------10-8-6-8----------------------------------------------------------|
|-------------------------------------------------------------------------------------|
  (pm)


|--------------------------------------------------------------------------|
|20-18-16-18-20-18-16-18-18--------------------18-20hp18-16-18-20-18-16----|
|---------------------------17-17-17~~~~17------------------------------17-|
|--------------------------------------------------------------------------|
|--------------------------------------------------------------------------|
|--------------------------------------------------------------------------|


|---------------------------8-----------------------------------------------------|
|---------------13\----6-8h---11-8--------------------------------8p7-------------|
|17--------/15---------------------10-8----10----8p7------------------10-8-8------|
|---------------------------------------10----10-----10-8-8-8---------------------|
|---------------------------------------------------------------------------------|
|---------------------------------------------------------------------------------|


|--------------------------------------11-13-13B-13-11-13-13B~~~~~~~~-|
|-----------------11-13-13-13----11-13--------------------------------|
|8p7----7-8-10-12-----------------------------------------------------|
|----10---------------------------------------------------------------|
|---------------------------------------------------------------------|
|---------------------------------------------------------------------|


|-----------------------------10-13-13B----13B------------------11---------|
|11p8----11p8----8-8-------11---------------------9--11--11B--------11B----|
|-----10------10-------/12-------------------------------------------------|
|--------------------------------------------------------------------------|
|--------------------------------------------------------------------------|
|--------------------------------------------------------------------------|


|11-------------------------------11--------------------------------------|
|------13B----13B----13----13B-------13-(13)\-----------------------------|
|---------------------------------------------------------------------5---|
|------------------------------------------------------------/5----/4-4---|
|------------------------------------------------------------/6-------5---|
|-------------------------------------------------------------------------|


|----------------------------------|
|----------------------------------|
|5/7-5~~~~5-----5---5b--r----5'----|
|---------4--/3-3------------3'----|
|---------5-----4------------4'----|
|----------------------------------|


Verse 1:
|----------------------------/3--3\--1-----------------------------------------------|
|----------------------------/4--4\--1--------------------------------4--6B----6B----|
|------------------------------------1-----------------------------------------------|
|1-----------------------------------------------------------------------------------|
|------------------------------------------------------------------------------------|
|------------------------------------------------------------------------------------|
      Work-in' from sev-en___              to e-lev-en ev-ry' night,__


|--------------------------------------------------------------------------------------|
|6B~~~~~~~~----------------------------6B-rp4-6-6B-4-----------------------------------|
|----------------------------------------------------5---------------------------------|
|--------------------------------------------------------------------------------------|
|--------------------------------------------------------------------------------------|
|--------------------------------------------------------------------------------------|
        it real-ly makes life a drag,__         I don't think that's right,_


|----------------------------------------------------------------------------|
|/11B-11-8--------------6-6--------------------------------------------------|
|----------10-8p7p5-7-5-----5--------------------------------1-------3----4--|
|------------------------------------------------------------3-------5----6--|
|----------------------------------------------------------------------------|
|----------------------------------------------------------------------------|
                             I've real-ly been the best, the best of fools,_


|---------------------------------------------------------------------------------|
|---------------------------------------------------------------------------------|
|4--3--1--3\1---3\1-3\1---3\1-----3-----------------------------------------------|
|6--5--3--5\3---5\3-5\3---5\3-----5--/5~~~~~~~~~~~~~~~~~~~~~----------------------|
|---------------------------------------------------------------------------------|
|---------------------------------------------------------------------------------|
              I did what I could,yeah.'Cause I love you, baby, how I love you,


|---------------------------------------------------6-----------------------------|
|-------------------------------------6-7hp6------8---6-8hp6---6------------------|
|--------5---7-8----7----5-----5-7--8--------8-5-------------8---8-5-----5-8p7-8h-|
|--------------------------8-----------------------------------------5-8----------|
|---------------------------------------------------------------------------------|
|---------------------------------------------------------------------------------|
darling, how I love you, baby, mama love  you,  little girl.


|------3----3--------------------------------------------------------------|
|------3----3--------------------------------------------------------------|
|5-----3----------------------------------------------------5~~~~4----5----|
|--8\--5-----------------5--6~~~~8--6~~~~5--3----5--3~~~~5-----------------|
|-----------------------------------------------------------6~~~~5----6----|
|------------------------3--4~~~~6--4~~~~3--1----3--1~~~~3-----------------|
But baby, since I've been lovin' you, yeah,
I'm about to lose, my worried mind,_ oh yeah.


                                        Verse 2:
|--------------------------------------|----------------------------------------------|
|--------------------------------------|------4--------3-----3--4-----4-----3-----4---|
|3------5---5B--r~~~~5----5---5b--r~~~~|----5---5--------5--------5-----5-----5-----5-|
|5----4--------------4--3--------------|--5-------5--5-----5--------5-----------5-----|
|--------------------5-----------------|3---------------------------------3-----------|
|--------------------------------------|----------------------------------------------|
                                          Evry' body's try'n to tell me,


|----4-----4----4---------3-----3-----1------------------------------------|
|------6----------6-6---6---6-----------1---1--------4-------3-------3-----|
|--5-----5----5-------5-------5---5-------1---1----0---5---5---5---5---5-5-|
|3----------------------------------3-----------/5-------5-------5---------|
|--------------------------------------------------------------------------|
|--------------------------------------------------------------------------|
      that you didn't mean me no good,                       I've been tryin'


|--------------------------------------------------------------------|
|-----------------------4-----4-----3-----3-----4--------------------|
|4-----4----3-----3---5---5-----5-5---5-----5-5---5---5--5-0-0-0-3-0-|
|--5-----5----5-----5-------5-----------5-----------5------------3---|
|----5----------5----------------------------------------6-------5---|
|--------------------------------------------------------------------|
Lord,           let me tell,  let me tell you I really did the best I could._


|-----------------------------------------------------------------------|
|1'--------0-1----------------------------------------------------------|
|3'------0-0-3-------------------------------------/3-3-3-3-3-3-3-3-3-3-|
|3'----------3---------------------------3------------------------------|
|-----------------------------------------------------------------------|
|-----------------------------------------------------------------------|
ah, to eleven evry' night I said it kind a makes my life a drag,  drag,drag,


|----------------------------------------------------------------------------|
|----------------------------------------------------------------------------|
|3-3-3-3-3-3-3-3-3-3-3-3-3-3-5-4-5-4-5-4-5-4-5-4-5-4-5-4-5-4-5-4-5-4-5-4-5\--|
|----------------------------------------------------------------------------|
|----------------------------6-5-6-5-6-5-6-5-6-5-6-5-6-5-6-5-6-5-6-5-6-5-6\--|
|----------------------------------------------------------------------------|
         Lord,____           yeah__ that ain't right_ now, now.


|3'------3--3--3'------------------------------------------------|
|3'------3--3--3'--------------0--0--0--0--0--0------------------|
|3'------3--3--3'--------------------------------5--4--5--5'~~~~-|
|5'------5--5--5'--------6--8--6--5--3--5--3--5-----------4'~~~~-|
|5'------5--5--5'--------------------------------6--5--6--5'~~~~-|
|------------------------4--6--4--3--1--3--1--3------------------|
Since I've been lovin' you, I'm about to lose my worried mind.


|----------------------------------|
|----------------------------------|
|--5----5B--r-------5----5b--r-----|
|4-------------4--3----------------|
|----------------------------------|
|5----5--------5--4----4--------3--|
                         Watch out!


Guitar Solo:
Electric Guitar 1
|---------------------------------------------------------------------------------|
|------------------------------------4-----------------------------------------4--|
|----------------------------------5---5------------5-------5----------5-------5--|
|5---------5-------------5-------------5------------5-------5----------5-------5--|
|3---------3-------------3--------------------------3-------3----------3----------|
|---------------------------------------------------------------------------------|
|Electric Guitar 2
|---------------------------------------------------------------------------------|
|---------------------------------------------------------------------------------|
|---8----------------------------------------8---------10-8----10p8----8----------|
|10---10-8-10hp8-8--8----------------------8---10-8-10------10------10---10-10-10-|
|----------------10---10-8p6-8-6---6/8-10h----------------------------------------|
|--------------------------------8------------------------------------------------|


|----------------------------------------------------------------------------------|
|-----4---------4---------------------4------4--------4--4---------4-----4-------1-|
|-----5---------5-------------1--1----1------1--------1--1---------1-----1-------1-|
|-----5---------5----------3--3--3----1------1--------1--1---------1-----1-------3-|
|-----3---------3----------3--3--3----3------3--------3--3---------3-----3-------3-|
|--------------------------1-------------------------------------------------------|
|
|----------------------------------11-10-8-9-10-8-9-9-9----------------------------|
|------------------------------8-9-----------------------8-------------------------|
|8-10-10B----10B-10-8-10-10~~~~----------------------------10-8--------------------|
|---------------------------------------------------------------10-8-6---8-6---6---|
|----------------------------------------------------------------------8-----8---8-|
|----------------------------------------------------------------------------------|


|--------------------------------------------------------------------------------------------|
|1-------1-----------------------------------------------------------------------------------|
|1-------1-----5-5--5--5-----5------5--------5--5--5--5--5---5-----5---5---5------5------5---|
|3-------3-----5-5--5--5-----5------5--------5--5--5--5--5---5-----5---5---5------5------5---|
|3-------3-----3-3--3--3-----3------3--------3--3--3--3--3---3-----3---3---3------3------3---|
|--------------------------------------------------------------------------------------------|
|                                                     8va__                *
|----------------------------8---------------------------11--13-11-13B-13B-13B-11-13r-15-11~~--|
|--------------------------8---11-8-------------------13---------------------------------------|
|----------------------12-----------10B-10-8-------8-------------------------------------------|
|--------------------------------------------10~~~~--------------------------------------------|
|10-11hp10-8p6-5-------------------------------------------------------------------------------|
|----------------8-----------------------------------------------------------------------------|
*hold bend.


|--------------------------------------------------------------------------------------|
|--------------------------------------------------------------------------------------|
|5-----5---5---5----5------5------5----------------------------------------------------|
|5-----5---5---5----5------5------5--3------3----3--------3--------3-----3--------3----|
|3-----3---3---3----3------3------3--3------3----3--------3--------3-----3--------3----|
|------------------------------------1------1----1--------1--------1-----1--------1----|
|8va___________________________________________________________________________________
|13-11-13B-13B---13-13Br11-13-13B-11~-16-15-13"----------------------------------------|
|-------------------------------------------13"----------------------------------------|
|-------------------------------------------13"--12----12-13-15-12-13-------13-15-15B--|
|-------------------------------------------15"-----15----------------15-15~-----------|
|--------------------------------------------------------------------------------------|
|--------------------------------------------------------------------------------------|


|--------------------------------------------------------------------------------------------------|
|--------------------------------------------------------------------------------------------------|
|--------------------------------------------------------------------------------------------------|
|3---3----3---3---3-----3-----3----3-----3----3-----3----3-----3-----3--------3-------3-------3----|
|3---3----3---3---3-----3-----3----3-----3----3-----3----3-----3-----3--------3-------3-------3----|
|1---1----1---1---1-----1-----1----1-----1----1-----1----1-----1-----1--------1-------1-------1----|
|8va_______________________________________________________________________________________________
|--------------------------------------------------------------------------------------------------|
|16-----------13--16-13-16Bb--r-13-16Bb--r-13-16Bb--r-13-16Bb--16Bb--16Bb--16-16Bb-16-16Bb-16-16Bb-|
|----15B~~~~~~-------------------------------------------------------------------------------------|
|--------------------------------------------------------------------------------------------------|
|--------------------------------------------------------------------------------------------------|
|--------------------------------------------------------------------------------------------------|


|------------------------------------------------------------------------------------------|
|------------------------------------------------------------------------------------------|
|5---5---5------------5---------------5---------------5---------------5------5-----5-------|
|5---5---5------------5---------------5---------------5---------------5------5-----5-------|
|3---3---3------------3---------------3---------------3---------------3------3-----3-------|
|------------------------------------------------------------------------------------------|
|
|--------------8-11------------------------------------------------------------------------|
|16-13\------8------8-11hp8----8-----------------------------------------------------------|
|--------10B----------------10---10-8-10hp8----8-------------------------------------------|
|-------------------------------------------10---10-8-10hp8----8----------------------8----|
|-----------------------------------------------------------10---10-6-8hp6---6---6-10---10-|
|--------------------------------------------------------------------------8---8-----------|


|-----------------------------------------------------------------------------------|
|-----------------------------------------------------------------------------------|
|--5------------5------------5------------5----5--------5---------5----------5------|
|--5------------5------------5------------5----5--------5---------5----------5------|
|--3------------3------------3------------3----3--------3---------3----------3------|
|-----------------------------------------------------------------------------------|
|
|---------------------8------11-8-10p8----8-----------------------------------------|
|-------------------8---11p8-----------10---11B~~r8-----8---------------------------|
|--------8----8-10B---------------------------------10B---11p10-8----10----8--------|
|8-10-10---10-----------------------------------------------------10----10---10-10--|
|-----------------------------------------------------------------------------------|
|-----------------------------------------------------------------------------------|


|-----------------------------------------------------|
|-----------------------------------------------------|
|5-------5-----5------5-----5-----5------5------------|
|5-------5-----5------5-----5-----5------5------------|
|3-------3-----3------3-----3-----3------3------------|
|-----------------------------------------------------|
|
|------------------------------------------------------|
|---------------------------------------------11----11-|
|8-10--8-------10--8--------10--8----8-10-12h----12----|
|--------10-10-------10-10--------10-------------------|
|------------------------------------------------------|
|------------------------------------------------------|


|----------------------------------------------------------------------------------------------|
|----------------------------------------------------------------------------------------------|
|----------------------------------------------------------------------------------------------|
|5---------5--5--5-----5---5-----5--------5-5-5-5---5---6----8--6----5-----3----5------3----5--|
|5---------5--5--5-----5---5-----5--------5-5-5-5---5------------------------------------------|
|3---------3--3--3-----3---3-----3--------3-3-3-3---3---4----6--4----3-----1----3------1----3--|
|8va__
|10-13-13B~~~~~~~13-10-13B-13-10-12-10-------------------------------------15--15--15--13--15--|
|---------11'~~~~----------------------11-11~~~~9---11--13---16-13---16----18B-18B-18B-17B~18B-|
|---------12'~~~~-------------------------------11B-13B-15B~~---15B-----15---------------------|
|----------------------------------------------------------------------------------------------|
|----------------------------------------------------------------------------------------------|
|----------------------------------------------------------------------------------------------|


|-------------------------------------------------------|
|-------------------------------------------------------|
|5--------4---------------------5-----------------------|
|------------------------------------------5------------|
|6--------5---------------------6----------6------------|
|-------------------------------------------------------|
|
|---------------8---------------------------------------|
|16-13~~~~----8---11-8----------------------------------|
|---15B~~~10B----------10B-10-8------------------8-10-8-|
|-------------------------------10-10-10------10--------|
|-------------------------------------------------------|
|-------------------------------------------------------|


|--------------------------------------------------|
|--------------------------------------------------|
|----5-----5B--r~~~------------5---5B--r~~---------|
|--4---------------4--------3----------------5-----|
|--------------------------------------------------|
|---------5-----------------------4----------------|
|              hold bend
|13B--13B------13B-11r13-14-13B-13B------13B-r-11--|
|----------------------------------------------11--|
|--------------------------------------------------|
|--------------------------------------------------|
|--------------------------------------------------|
|--------------------------------------------------|


Verse 3:
Guitar 1
|-----------------------------------------------------------------|
|-----------------------------------------------------------------|
|5---------------------------------3-5B-5B--5-3-5-3---------------|
|5-------------------------------5------------------5-------------|
|3----------------------------------------------------3p1---------|
|---------------------------------------------------------3--3~~~-|
|   Said I've been cry-in,yeah._
|Guitar 2
|------------------------------|
|13\---------------------------|
|------------------------------|
|------------------------------|Guitar 2 out
|------------------------------|
|------------------------------|


Guitar 1
|3-------------------------------------------------------------------|
|4-------------------------------------------------------------------|
|5-------------------------------8--8--8--8--8--8--8--8--8--8--8--8--|
|5-------------------------------8--8--8--8--8--8--8--8--8--8--8--8--|
|--------------------------------6--6--6--6--6--6--6--6--6--6--6--6--|
|--------------------------------------------------------------------|
Oh my tears they fell like rain,_ don't you hear,
don't you hear them falling,


|------------------------------------|
|------------------------------------|
|7--7--7--7--7--7--7--7--7--7--7--7--|
|7--7--7--7--7--7--7--7--7--7--7--7--|
|5--5--5--5--5--5--5--5--5--5--5--5--|
|------------------------------------|
don't you hear,  don't you hear them falling?


|--------------------------------------------------------|
|--------------------------------------------------------|
|/5----4~~~~5-----------5----5B--r---------5----5b--r----|
|----------------5~~~~4-4-------------4--3-3--3----------|
|/6----5~~~~6----6~~~~5----------------------------------|
|--------------------------5----------5--4---------------|


Verse 4:
|--------------8-10h-10----10-----11----11-----10--------|
|---------8-------------------8-8----------8-8----8--8\--|
|----8------------------8------------8-------------------|
|/10---10---10-------------------------------------------|
|--------------------------------------------------------|
|--------------------------------------------------------|
Do you remember mama, when I knocked up on your door,
I said you had the nerve_


|--1-----1-----3----3-----4----4-----4----1-1--|
|----1-----1-1---1----1-1---1----1-----1----1--|
|------1---------------------------------------|
|3---------------------------------3--------3--|
|----------------------------------------------|
|----------------------------------------------|
to help? You didn't want me no more,__ yeah.__


|/8--8--8---10------10-----11----10--------8----10-|
|/8--8----8------8-----8-8----8-----8----8----8----|
|--------------8-----------------------------------|
|/10-10-------------------------------10-----------|
|--------------------------------------------------|
|--------------------------------------------------|
Open my front door, hear my back door slam, you know I must have


|----12-----12----------------------12-------12-------12---------|
|/11----11-----11-----11----11\--------11-------11-------11--13--|
|------------------12----12-----12--------12-------12------------|
|----------------------------------------------------------------|
|----------------------------------------------------------------|
|----------------------------------------------------------------|
one of them new fangled, new_fangled back door men,
yeah,yeah,yeah,yeah,yeah,yeah,


|--1----1-----3-3--3-----4-4--4-----3----3---|
|----1----1----------1----------1-----1----1-|
|--------------------------------------------|
|3----------3----------3----------3----------|
|--------------------------------------------|
|--------------------------------------------|
  I've been a'working from seven,seven to e -


|--1----1-----3----3-----4-----1-----1----1---|
|----1----1-----1----1-----1-----1----------1-|
|---------------------------------------------|
|3----------3----------3-----3-----3---3------|
|---------------------------------------------|
|---------------------------------------------|
leven ev'ry night it kinda makes my life a drag, (a


|1/8--8----8------10----10---11------/8-----11------------8-|
|1/8----8----8-------8-----8----8-------8-8----8--------8---|
|---------------------------------------------------10B-----|
|3/10----------10-----------------10-------------10---------|
|-----------------------------------------------------------|
|-----------------------------------------------------------|
drag,) a drag,             drag,                 ah,________


|----8-------8-------8----------------------------------------------|
|----------8-------8------------------------------------------------|
|10B---10B-----10B-----10B-10-10~~10B-10B~-10-8---------0-------0---|
|-----------------------------------------------10-8-10---3-1-3---3-|
|-------------------------------------------------------------------|
|-------------------------------------------------------------------|
__________________________    yeah it makes a drag.


|-----------------------------------------------------|
|-----1'----------------------------------------------|
|0----0'----------------------------------------------|
|-----0'----------------------------------------5--5--|
|-----------------------------------------------------|
|-----3'----------------------------------------3--3--|
            Baby since I've been lov'in you,____


|-------------------------|
|-------------------0-----|
|-------------------------|
|6--/8--6--5--3--5--3--5--|
|-------------------------|
|4--/6--4--3--1--3--1--3--|
I'm about to lose, I'm about to lose,_ lose my worried


|------------------------------------------------------|
|------------------------------------------------------|
|5~---4~---5~----------5----5B--r-------5----5b--r~~---|
|---------------5----4-------------4--3----------------|
|6~---5~---6~---6--------------------------------------|
|--------------------5----5--------5-------4--------4--|
mind.               And just one more, just one more.


|-------------------------------------------------|
|-----------------------------------------0-0-0-0-|
|-------------------------------------------------|
|6-6-6-6-6--6-6-6-6-6-6-6-6-6-6-6-6-6-6-6---------|
|6-6-6-6-6--6-6-6-6-6-6-6-6-6-6-6-6-6-6-6---------|
|4-4-4-4-4--4-4-4-4-4-4-4-4-4-4-4-4-4-4-4---------|
Ah,______________________           yeah.


|------------------------------|
|------------------------------|
|------------------------------|
|6-/8--6-/5-/6--5--3~~~~/5--3--|
|------------------------------|
|4-/6--4-/3-/4--3--1~~~~/3--1--|
Since I've been lov'in, I'm gonna lose, my worried mind.__

                                  5/4                                     Fade out
|---------------------------------------------------------------------------------|
|------------------------------------------------------4\3-4-4\3-4-4\3-4\3--------|
|--5----5B--r-------5----5b--r----5\4/5\4-4--4--4---------------------------------|
|4-------------4--3---------------------------------------------------------------|
|---------------------------------6\5/6\5-5--5--5---------------------------------|
|5----5--------5--4----4----------------------------------------------------------|
                                                      (pm.........................)



***********
*Black Dog*
***********

There are 3 gutiar parts Electric Guitar 1, 2, and 3.
All guitars are in standard tuning.

Key:
b=bend 1 1/2 step
B=bend 1 step
^=bend 1/4 step
r=return bend
r=return
h=hammer
p=pull off
/=slide up
\=slide down
x=finger mute


Intro:
Guitars 1 and 2
               8va__________________________________________________________________________
|--------------------------------------------------------------------------------------------|
|----------------------2--2------------------------------------------------------------------|
|--------------------------------------------------------------------------------------------|
|--------------------------------------------------------------------------------------------|
|--------------------------------------------------------------------------------------------|
|----------------0--0--0--0--0--0--0--0--0-0-0-0-0-0-0-0-0-0-0-0-0-0-0-0-0-0-0--0-0-0-0-0-0--|
This pitch is a tape effect.


Verse 1:
Hey, hey mama,said the way you move, gon-na make you sweat, gon-na make you groove,
Guitars 1 and 2*                                                                 A5
|-----------------------------------------------------------------------------------|
|-------------------------------5---------------------------------------------------|
|-----------------5^~--------7-----5--7hp5--------5^~-------------------------------|
|-----5--6--7-----------7-------------------7--7--------7----5--7--7-------------2--|
|--7-----------7------------------------------------------------------5--7\3--5--0--|
|-----------------------------------------------------------------------------------|
*Guitar 2 enters and sustains its A5 chord into Verse 2.


Verse 2 and 3:
Unh, nh child, way you shake that thing, gon-na make you burn, gon-na make you sting.
Heh, hey baby when you walk that way, watch heartache drip, can't keep away.
|-------------------------------------------------------------------------------------|
|o-------------------------------5---------------------------------------------------o|
|-------------------5~--------7-----5--7hp5--------5^~--------------------------------|
|------5--6--7-----------7-------------------7--7--------7----5--7--7-------------2---|
|o--7-----------7------------------------------------------------------5--7\3--5--0--o|
|-------------------------------------------------------------------------------------|


|---------------------------------------------------|
|---------------------------------------------------|
|---------------------------------------------------|
|---------------5^~---------------------5^~---------|
|---5--6--7-----------7-----5--6--7-----------7-----|
|7-----------7-----------7-----------7-----------7--|


|-------------------------------------------------------------------|
|----------------------------------------------------------------5--|
|---------------------------------------------------5^~-------7-----|
|------------5^~------------------------5--6--7------------7--------|
|5--6--7-----------7-----5--6--7--5--7-----------7------------------|
|---------7-----------7---------------------------------------------|


|--------------------------------------------------------------------|
|--------------------------------------------------------------------|
|5--7hp5--------5^~~~~-------------------------------------2------2--|
|---------7--7--------7--5--7--7-------------2------2------2------2--|
|---------------------------------5--7\3--5--0------0---------3^~-0--|
|--------------------------------------------------------------------|
                                                                  Ah_


Chorus 1:
Guitars 3*
|--------------------------------------------------------------------------------|
|--------------------------------------------------------------------------------|
|4B--rp2-4--2~-------4B--rp2-4--2~~~~~~~~~~5^~--------2------4B--rp2-------------|
|--------------------------------------------------------------------4--2--------|
|--------------------------------------------------------------------------3^~---|
|--------------------------------------------------------------------------------|
|__ yeah,      ah,____ yeah,         ah,__ ah,__      ah,____      ah,___
|Guitar 1 and 2*
|---------------------------------------------------------------------|
|---------------------------------------------------------------------|
|2----------2------2----------2----2--2--5-------2------2----------2--|
|2----------2------2----------2----2--2--5-------2------2----------2--|
|0--------3\0------0--------3\0----0--0--3-------0------0--------3\0--|
|---------------------------------------------------------------------|
*Guitars 1, 2, and 3 are too be played evenly but it isn't shown like that.


|------------------------------------------------------------------------|
|------------------------------------------------------------------------|
|----4B--rp2-4--2----2----2-4B--rp2-4--2----2------5^~-------2------2----|
|------------------------------------------------------------------------|
|------------------------------------------------------------------------|
|------------------------------------------------------------------------|
|____ yeah,__       ah____  yeah,__         ah_____ ah,___  ah,___
|                                                         A5
|---------------------------------------------------------------|
|---------------------------------------------------------------|
|----2----------2------2----------2--------5-------2------------|
|----2----------2------2----------2--------5-------2------2/2/--|
|----0--------3\0------0--------3\0--------3-------0-------0----|
|----------------------------------------------------------*----|
Guitar 1 begins a slide up to A, while Guitar 2 repeats A5

Verse 4:
I got-ta roll, can't stand still, got-ta flamein' heart, can't get my_ fill.
Guitar 3 out
Guitar 1 and 2*
|-------------------------------------------------------------------------------|
|-------------------------------------------------------------------------------|
|-------------------------------------------------------------------------------|
|/7/2---------------------------------------------------------------------------|
|--0----------------------------------------------------------------------------|
|-------------------------------------------------------------------------------|
*Guitar 1 fades out and Guitar 2 sustains.


Guitar 1 and 2
|-------------------------------------------------------------------------------------------|
|-----------------------------5-------------------------------------------------------------|
|---------------5^~--------7-----5--7hp5--------5^~-----------------------------------------|
|---5--6--7-----------7-------------------7--7--------7----5--7--7--------------2------2----|
|7-----------7------------------------------------------------------5--7--3--5--0------0----|
|-------------------------------------------------------------------------------------------|


Verse 5:
Eyes that shine,__ burn-in' red,__ dreams of you__ all through my head.__
|------------------------------------------------------------------------|
|------------------------------------------------------------------------|
|------------------------------------------------------------------------|
|2-----------------2--------------------------------------2\-------------|
|0-----------------0-----------------------------------------------------|
|------------------------------------------------------------------------|


|-------------------------------------------------------------------------------------|
|-----------------------------5-------------------------------------------------------|
|---------------5^~--------7-----5--7hp5--------5^~-----------------------------------|
|---5--6--7-----------7-------------------7--7--------7----5--7--7-------------2------|
|7-----------7------------------------------------------------------5/7--3--5--0------|
|-------------------------------------------------------------------------------------|


Guitar 1
|----------------------------------------------------------------------|
|----------------------------------------------------------------------|
|-------------------------------------------------------------------2--|
|2------------------------------------------------------------------2--|
|0------------------------------------------------------------------0--|
|----------------------------------------------------------------------|
|Ah  ah  ah  ah  ah  ah  ah  ah  ah  ah  ah  ah  ah._______________ Hey
|Guitar 2
|----------------------------------------------------------------------|
|-------------------------------------------------------------------5--|
|-------------------------------------------------------------------2--|
|-------------------------------------------------------------------2--|
|----------------------------------------------------------------------|
|----------------------------------------------------------------------|


Chorus 2:
|-----------------------------------------------|
|--------------------------------5----2---------|
|--------2-----------2-----------5----2------2--|
|--------2-----------2-----------5----2------2--|
|--------0-----------0----------(3)---0------0--|
|2-3h---------3p2---------4--5h-----------------|
|hey ba - by,      oh_____      ba - by
|-----------------------------------------------|
|p2----5----2------5--p2--3h--5----2------5-----|
|------2----2------2----------2----2------2-----|
|------2----2------2----------2----2------2-----|
|-----------------------------------------------|
|-----------------------------------------------|


|--------------------------------------------------------------|
|--------------------------------------------------------------|
|------2----0--2--------------------2----------2------------2--|
|------2----0--2----5-------4-------2----------2------------2--|
|------0-------0--------------------0----------0------------0--|
|2--3h------3--------------------------2--3h--------3p2--------|
|pret-ty ba - by,  darlin' can't you do me now?_
|--------------------------------------------------------------|
|2-----5----0--2h---3-------3-------5--p2----5----2------5-----|
|------2----0--2h---3-------3-------2--------2----2------2-----|
|------2----0--2h---0-------2-------2--------2----2------2-----|
|-------------------0-------0----------------------------------|
|--------------------------------------------------------------|


|--------------------------------------------------------------|
|--------------------------------------------------------------|
|-0--2h--5----2------2-------2------------------------------2--|
|-0--2h--5----2------2-------2------------5--------4--------2--|
|-------------0------0-------0------------------------------0--|
|-----------------------3---------3--5-------------------------|
|                                                          Hey,_
|-----------------------------------------3--------2-----------|
|p2--3h--5----2------5--p2---5----0--2h---3--------3--------5--|
|--------2----2------2-------2----0--2h---0--------2--------2--|
|--------2----2------2-------2----0--2h---0--------0--------2--|
|--------------------------------------------------------------|
|--------------------------------------------------------------|


|--------------------------------------------------------------|
|--------------------------------------------------------------|
|-----2-----------2--0--2--5----2------2-------2---------------|
|-----2-----------2--0--2--5----2------2-------2------------5--|
|-----0-----------0-------------0------0-------0---------------|
|3---------3------------------------------3---------3--5-------|
|____ ba - by,    oh,__    ba - by,     pretty ba - by,   move me
|-----------------------------------------------------------3--|
|p2---5----2------5--p2-3h-5----2------5--p2---5----0--2h---3--|
|-----2----2------2--------2----2------2-------5----0--2h---0--|
|-----2----2------2--------2----2------2-------2----0--2h---0--|
|--------------------------------------------------------------|
|--------------------------------------------------------------|


|--------------------------------------|
|--------------------------------------|
|---------------2-------2-----------2--|
|------4--------2-------2-----------2--|
|---------------0-------0-----------0--|
|------------------3---------3---------|
|while you do me now.___
|------2-------------------------------|
|------3--------5--p2---5----2------5--|
|------2--------2-------2----2------2--|
|------0--------2-------2----2------2--|
|--------------------------------------|
|--------------------------------------|


|-------------------------------------------------------|
|-------------------------------------------------------|
|0--2--5----2------2-------2----------------------------|
|0--2--5----2------2-------2------------5--------4------|
|-----------0------0-------0----------------------------|
|---------------------3---------3--5--------------------|
|                                                Did-n't
|---------------------------------------3--------2------|
|p2-3h-5----2------5--p2---5----0--2h---3--------3------|
|------2----2------2-------2----0--2h---0--------2------|
|------2----2------2-------2----0--2h---0--------0------|
|-------------------------------------------------------|
|-------------------------------------------------------|


Verse 6:
|----------------------------------------------------------------------|
|----------------------------------------------------------------------|
|----------------------------------------------------------------------|
|2---------------------------------------------------------------------|
|----------------------------------------------------------------------|
|----------------------------------------------------------------------|
|take too long_ 'fore I found out__ what people mean by down and out.__
|----------------------------------------------------------------------|
|----------------------------------------------------------------------|
|----------------------------------------------------------------------|
|2---------------------------------------------------------------------|
|0---------------------------------------------------------------------|
|----------------------------------------------------------------------|


Guitars 1 and 2
|-------------------------------------------------------------------------------------------|
|-----------------------------5-------------------------------------------------------------|
|---------------5^~--------7-----5--7hp5--------5^~-----------------------------------------|
|---5--6--7-----------7-------------------7--7--------7----5--7--7--------------2------2----|
|7-----------7------------------------------------------------------5--7--3--5--0------0----|
|-------------------------------------------------------------------------------------------|


Verse 7:
Spent my money, took my car, started tellin' her friends she gon-na be a star.___
|--------------------------------------------------------------------------------------|
|-----------------------------5--------------------------------------------------------|
|---------------5^~--------7-----5--7hp5--------5^~------------------------------------|
|---5--6--7-----------7-------------------7--7--------7----5--7--7--------------2------|
|7-----------7------------------------------------------------------5--7--3--5--0------|
|--------------------------------------------------------------------------------------|


Verse 8:
I don't know,_ but I been told,_ a big legged woman_ ain't go no soul.__
|--------------------------------------------------------------------------------------|
|-----------------------------5--------------------------------------------------------|
|---------------5^~--------7-----5--7hp5--------5^~------------------------------------|
|---5--6--7-----------7-------------------7--7--------7----5--7--7--------------2------|
|7-----------7------------------------------------------------------5--7--3--5--0------|
|--------------------------------------------------------------------------------------|


|---------------------------------|
|---------------------------------|
|---------------------------------|
|2---------------------5^~--------|
|0---------5--6--7-----------7----|
|-------7-----------7-------------|


|--------------------------|
|--------------------------|
|--------------------------|
|---------------5^~--------|
|---5--6--7-----------7----|
|7-----------7-------------|


|--------------------------|
|--------------------------|
|--------------------------|
|---------------5^~--------|
|---5--6--7-----------7----|
|7-----------7-------------|


|--------------------------------------------------------------------------|
|------------------------------------------5^~-----------------------------|
|------------------------------5^-------7--------5--7hp5--------5^~--------|
|------------------5--6--7-----------7--------------------7--7--------7----|
|---5--6--7--5--7-----------7----------------------------------------------|
|7-------------------------------------------------------------------------|


|--------------------------------------------|
|--------------------------------------------|
|----------------------------------2------2--|
|5--7--7-------------2------2------2------2--|
|---------5/7--3--5--0----------------3^~-0--|
|--------------------------------------------|
                                           Oh_

Chorus 1:
Guitars 3
|--------------------------------------------------------------------------------|
|--------------------------------------------------------------------------------|
|4B--rp2-4--2~-------4B--rp2-4--2~~~~~~~~~~5^~--------2------4B--rp2-------------|
|--------------------------------------------------------------------4--2--------|
|--------------------------------------------------------------------------3^~---|
|--------------------------------------------------------------------------------|
|__ yeah,      oh,____ yeah,         ah,__ ah,__      ah,____              oh,___
|Guitar 1 and 2
|---------------------------------------------------------------------|
|---------------------------------------------------------------------|
|2----------2------2----------2----2--2--5-------2------2----------2--|
|2----------2------2----------2----2--2--5-------2------2----------2--|
|0--------3\0------0--------3\0----0--0--3-------0------0--------3\0--|
|---------------------------------------------------------------------|


|-----------------------------------------------------------------|
|-----------------------------------------------------------------|
|----4B--rp2-4--2----2----2-4B--rp2-4--2----2------5^~-------2----|
|-----------------------------------------------------------------|
|-----------------------------------------------------------------|
|-----------------------------------------------------------------|
|____ yeah,__       oh____  yeah,__         ah_____ ah,___  yeah.__
|----------------------------------------------------------|
|----------------------------------------------------------|
|----2----------2------2----------2--------5--------2------|
|----2----------2------2----------2--------5--------2------|
|----0--------3\0------0--------3\0--------3--------0------|
|----------------------------------------------------------|


Verse 9:
 A5
|-----------------------------------------------------------------------|
|-----------------------------------------------------------------------|
|2----------------------------------------------------------------------|
|-----------------------------------------------------------------------|
|-----------------------------------------------------------------------|
|-----------------------------------------------------------------------|
|All I ask__ for, all I pray,__ steady loaded woman gonna come my__ way.
|-----------------------------------------------------------------------|
|-----------------------------------------------------------------------|
|7/2--------------------------------------------------------------------|
|-2---------------------------------------------------------------------|
|-0---------------------------------------------------------------------|
|-*---------------------------------------------------------------------|
Guitar 1 slides into A5, Guitar 2 sustains.


Guitar 3
|-------------------------------------------------------------------------------------------|
|--------------------------7--8--5--7hp5----------------------------------------------------|
|---4--5--6-----7B----6-------------------6--6--7B----6----4--6--6--------------------------|
|7-----------7------------------------------------------------------5--7-----4--------------|
|-------------------------------------------------------------------------7-----7-----------|
|-------------------------------------------------------------------------------------------|
|Guitars 1 and 2
|-------------------------------------------------------------------------------------------|
|-----------------------------5-------------------------------------------------------------|
|---------------5^~--------7-----5--7hp5--------5^~-----------------------------------------|
|---5--6--7-----------7-------------------7--7--------7----5--7--7--------------2------2----|
|7-----------7------------------------------------------------------5--7-\3--5--0------0----|
|-------------------------------------------------------------------------------------------|


Verse 10:
Need a woman, gonna hold my hand_ will tell me no__ lies,_ make me a happy man._____
|--------------------------------------------------------------------------------------|
|--------------------------7--8--5--7hp5-----------------------------------------------|
|---4--5--6-----7B----6-------------------6--6--7B----6----4--6--6---------------------|
|7-----------7------------------------------------------------------5--7-----4---------|
|-------------------------------------------------------------------------7-----7------|
|--------------------------------------------------------------------------------------|
|
|--------------------------------------------------------------------------------------|
|-----------------------------5--------------------------------------------------------|
|---------------5^~--------7-----5--7hp5--------5^~------------------------------------|
|---5--6--7-----------7-------------------7--7--------7----5--7--7--------------2------|
|7-----------7------------------------------------------------------5--7-\3--5--0------|
|--------------------------------------------------------------------------------------|

Bridge:
Gutiars 1, 2, and 3
|---------------------------------------------|
|---------------------------------------------|
|---------------------------------------------|
|2--------------------------------------------|
|0--------------------------------------------|
|---------------------------------------------|
Ah  ah  ah  ah  ah  ah  ah  ah  ah  ah  ah  ah


Guitar 3
|-------------------------------------|
|-------------------------------------|
|-------------------------------------|
|-------------------------------------|
|----------------0-/4--0--------0--3/-|
|----------0-/2-----------2--0--------|
|ah.__________________________________
|Guitar 1
|-------------------------------------|
|-------------------------------------|
|----------------------------------2--|
|----------------------------------2--|
|----------------------------------0--|
|-------------------------------------|
|Guitar 2
|-------------------------------------|
|----------------------------------5--|
|----------------------------------2--|
|----------------------------------2--|
|-------------------------------------|
|-------------------------------------|


Chorus (Guitar solo):
Guitar 3
|-----------------------5-------------------------------5-------------------------------|
|---------------------------------------------------------------------------------------|
|----------2-----2--4B---------------------2-----2--4B---------------------2-----2--4B--|
|----2--4-----4----------------------2--4-----4----------------------2--4-----4---------|
|/4------------------------0--3--/4------------------------0--3--/4---------------------|
|---------------------------------------------------------------------------------------|
|Rhythm figure 1, Guitar 1                                        End Gtr. 1 Fig. 1
|--------------------------------------------------------------------------------------|
|-----------------------------5----2---------------------------------------------------|
|-------2-----------2---------5----2------2---------2----0--2-----------------------2--|
|-------2-----------2---------5----2------2---------2----0--2----5--------4----0----2--|
|-------0-----------0--------(3)---0------0---------0-------0-----------------------0--|
|2-3h--------3p2-------4--5h-----------------2--3h-------3-----------------------------|
|Rhythm figure 1, Guitar 2                                        End Gtr. 2 Fig. 1
|----------------------------------------------------------------3--------2------------|
|p2-----5----2------5--p2--3h--5---2------5--p2-----5----0--2h---3--------3---------5--|
|-------2----2------2----------2---2------2---------2----0--2h---0--------2---------2--|
|-------2----2------2----------2---2------2---------2----0--2h---0--------0---------2--|
|--------------------------------------------------------------------------------------|
|--------------------------------------------------------------------------------------|


Guitar 3
|5----------------------------------|
|-------3---------------------------|
|---5B-----5--4--2-----2-4h---------|
|-------------------4---------------|
|-----------------------------0--3--|
|-----------------------------------|


Guitar 3: Continue Rhythm Figure 1, Guitars 1 and 2, 12 times till fade.
|-----------------------5-------------------------------5--------|
|----------------------------------------------------------------|
|----------2-----2--4B---------------------2-----2--4B-----------|
|----2--4-----4----------------------2--4-----4------------------|
|/4------------------------0--3--/4------------------------0--3--|
|----------------------------------------------------------------|


|-----------------------5----------------------------------|
|------------------------------3-----------------------/5--|
|----------2-----2--4B-----5B-----5--4--2-----2--4h-2-/----|
|----2--4-----4----------------------------4---------------|
|/4--------------------------------------------------------|
|----------------------------------------------------------|
                          *La-da ah           e     ah
*The volume for the lyrics in the track is very low.


|5----5--7B------7--5--5--5--5--------8--10--10--10B----10B--r--8--10/12--10--|
|5---------------------5--5--5--/10-~~----------------------------------------|
|-----------------------------------------------------------------------------|
|-----------------------------------------------------------------------------|
|-----------------------------------------------------------------------------|
|-----------------------------------------------------------------------------|
yes I will._______                                               And yes   I


|8--10--8^~---------------8------------10B--10--8--10B------------------|
|--------------10-10~~~~~~---------10----------------------------15--B--|
|-------------------------------------------------------------0---------|
|-----------------------------------------------------------------------|
|-----------------------------------------------------------------------|
|-----------------------------------------------------------------------|
rea - ly,__ real-ly do     ba - by,            ba - by,


Hold bend                                         8va_______________________
|15------------------------------------------------------17-----------------|
|------15r--13--15B----15--13----15B--15--------------------------------17--|
|-------------------------------------------------19B----------19B----------|
|---------------------------------------------------------------------------|
|---------------------------------------------------------------------------|
|---------------------------------------------------------------------------|
ba - by.            I can real - ly do you,__  huh?_____

(8va)_________________________________________________________________________
|17-------------17--20-------------------------------17-----------------------|
|----17--20B--------------20B-----------17---------------20------17--20----B--|
|----------------------------------x----------19B--------------------------*--|
|-----------------------------------------------------------------------------|
|-----------------------------------------------------------------------------|
|-----------------------------------------------------------------------------|
               Ooh,                  wew,__           you do it ba - by.
*Gruadually bend


(8va)_________________________________________________________________
|p17---------------------------------------20-------------------------|
|-----20--17-----------20--------\----20B--------20B--r--17--19B------|
|---------------17B-----------------------------------------------19--|
|---------------------------------------------------------------------|
|---------------------------------------------------------------------|
|---------------------------------------------------------------------|
Push it,  ba - by,  push it,  ba - by,  push it,  ba - by,


(8va)________________________
|-------------------------------------5-------------5-------------5-------------5------|
|---------------------5--5--5------5-----8-5-----5-----8-5-----5-----8-5-----5-----8-5-|
|17------19--17----\-----------7B------------7B------------7B------------7B------------|
|----19--------------------------------------------------------------------------------|
|--------------------------------------------------------------------------------------|
|--------------------------------------------------------------------------------------|
|push it,  ba - by,   push it,  ba - by,   push it,   babe
|                             Begin Guitar 4 figure 2
|-----------------------------|--------------------------------------------|
|--------------------------2--|p0----2----0------2--p0--2h--5----2------2--|
|--------------------------2--|p0----2----0------2--p0--2h--2----2------2--|
|--------------------------2--|p0----2----0------2--p0--2h--2----2------2--|
|-----------------------------|--------------------------------------------|
|-----------------------------|--------------------------------------------|


|-------5-------------5-----------------------------------|
|----5-----8-5-----5-----8-5-8-5--------------------------|
|7B------------7B----------------7-5-7--5-----7-5^~~~~~~~-|
|------------------------------------------7--------------|
|---------------------------------------------------------|
|---------------------------------------------------------|
|              babe.
|                    End Guitar 4 figure 2
|-----------------------------------------|
|p0----2----0--2h----0-----------------2--|
|p0----2----0--2h----0--------2--------2--|
|p0----2----0--2h----0--------4--------2--|
|-----------------------------5-----------|
|-----------------------------------------|


|-----------------------------------------------------------------------|
|----------------------------------------------------------------8------|
|-------------5^~------5--7B-----------7--7--7--7B----7--5----5-----7B--|
|7--5--7~~~~~~------7---------------7-----------------------7-----------|
|-----------------------------------------------------------------------|
|-----------------------------------------------------------------------|
ooh,_______________________________________________
Continue figure 1, Guitars 1 and 2 and continue figure 2,
Guitar 4, 6 times till fade


|----------------------------------------------------------------------------------------|
|----------------------------------------------------------------------------------------|
|7--5-----5-7h---------------5^~------------5^~------------/7-------------5^~------------|
|------7------------5--6--7--------5--6--7--------5--6--7--------5--6--7--------5--6--7--|
|----------------------------------------------------------------------------------------|
|----------------------------------------------------------------------------------------|
babe.


|----------------------------------------------------------------------------5--------|
|-------------------------------------------------------------------------------------|
|/7-------------5^~---------------------------------------------2-----2--4B-----------|
|------5--6--7--------5--6--7-----------------------------2--4-----4------------------|
|------0--------------5--6--7--5--3--4---------------3/4--------------------------3/--|
|---------------------------------------3^--r-----------------------------------------|
                                                       ooh,___________________________


|-----------------------5----------------------------5-------------------------------|
|------------------------------------------------------------------------------------|
|----------2-----2--4B------------------2-----2--4B----------------------------------|
|----2--4-----4-------------------2--4-----4-----------------------------------------|
|/4--------------------------3/4------------------------4--7--3--5--3--4---------3/--|
|-------------------------------------------------------------------------3^~-r------|
___                            aah_________________              ooh.


|--------------------------5-----------8--9--10B----10----10B----10----10B--10--|
|-------------------/5--5-----/10-----------------------------------------------|
|----------2-----2--/6----------------------------------------------------------|
|----2--4-----4-----------------------------------------------------------------|
|/4-----------------------------------------------------------------------------|
|-------------------------------------------------------------------------------|
                              ooh.___


|8--10--10B--8------------------8------------------------------------------|
|-------------------10--10~~~~~~-------10--13--b--r--10~~~~~~x--10--13b----|
|--------------------------------------------------------------------------|
|--------------------------------------------------------------------------|
|--------------------------------------------------------------------------|
|--------------------------------------------------------------------------|
                                                             (Choke)


|-------------------------------------------------------------------------------15-----------|
|r--10~~~~~~10--10--15--15B----15--13^~-----13-15h----13------13-15h~~----13------------15B--|
|---------------------------------------14----------------14---------------------------------|
|--------------------------------------------------------------------------------------------|
|--------------------------------------------------------------------------------------------|
|--------------------------------------------------------------------------------------------|
               I'd really like to do it now.


                                                          Fade out
|---------------------15----15B--r----------------------------15B----------------------|
|rp13-------15--13----------------15p13-------15--13------13---------------------------|
|------14h-------------------------------14h----------14-------------------------------|
|--------------------------------------------------------------------------------------|
|--------------------------------------------------------------------------------------|
|--------------------------------------------------------------------------------------|
                                        I'd really like to do it now.



***************
*Rock and Roll*
***************

Key:
()=optional note
bb=bend 1 1/2 step
B=bend 1 step
b=bend 1/2 step
^=bend 1/4 step
n=bend behind the nut 1/4 step
r=return bend
~=vibrato
p=pull off
/=slide up
\=slide down
h=hammer
'=slowly pick down chord

There are 3 Guitar parts All standard tuning.
Guitar 1 Les Paul-Bridge pick-up (L-channel)
Guitar 2 Les Paul-Neck pick-up (R-channel)
Gutiar 3 Les Paul-both pick-ups (L & R channels)

Drum Intro:

Guitar 1
|--------------------------------------------------------------------------|
|--------------------------------------------------------------------------|
|--------------------------2--2-----2--2--2--2--2--2--2--2--2--2--2--------|
|--2-----2--5--2--4--------2--2-----2--2--2--2--2--2--2--2--2--2--4--------|
|--0--4--0--0--0--0--3^~---0--0-----0--0--0--0--0--0--4--0--0--0--0--3^~---|
|--------------------------------------------------------------------------|
|Guitar 2
|--------------------------------------------------------------------------|
|--------------------------------------------------------------------------|
|--------------------------------------------------------------------------|
|--2-----2--5--2--4--------2--4--2--2--2--4--2--2--2-----2--5--2--4--------|
|--0--4--0--0--0--0--3^~---0--0--0--0--0--0--0--0--0--4--0--0--0--0--3^~---|
|--------------------------------------------------------------------------|


|--------------------------------------------------------------------|
|--------------------------------------------------------------------|
|2--2-----2--2--2--2----2-----2--5--2--4--------2--2--2--2--2--2-----|
|2--2-----2--2--2--2----0--4--0--0--0--0--3^~---0--0--0--0--0--0-----|
|0--0-----0--0--0--0-------------------------------------------------|
|--------------------------------------------------------------------|
|
|--------------------------------------------------------------------|
|--------------------------------------------------------------------|
|-----------------------2-----2--5--2--4--------2--4--2--2--2--4-----|
|2--4--2--2--2--4--2----0--4--0--0--0--0--3-----0--0--0--0--0--0-----|
|0--0--0--0--0--0--0-------------------------------------------------|
|--------------------------------------------------------------------|
|Guitar 3
|--------------------------------------------------------------------|
|--------------------------------------------------------------------|
|---------12-12-12-11------------------------------------11-11-11-12-|
|---------11-11-11-10------------------------------------10-10-10-11-|
|--------------------------------------------------------------------|
|--------------------------------------------------------------------|


|--------------------------------------------------------------------------|
|--------------------------------------------------------------------------|
|---------------------------2--2-------------------------------------------|
|---2-----2--5--2--4--------2--2-----5--2--4--2----------------------------|
|---0--4--0--0--0--0--3^~---0--0-----0--0--0--0--2--2-----2--5--2--4-------|
|------------------------------------------------0--0--3--0--0--0--0--3^~~-|
|
|--------------------------------------------------------------------------|
|--------------------------------------------------------------------------|
|--------------------------------------------------------------------------|
|2--2-----2--5--2--4--------2--4--2-----2--4--2----------------------------|
|0--0--4--0--0--0--0--3^~---0--0--0-----0--0--0--2--2-----2--5--2--4-------|
|------------------------------------------------0--0--3--0--0--0--0--3^~~-|
|
|--------------------------------------------------------------------------|
|--------------------------------------------------------------------------|
|---12-------------------------------12-12-12-13---------------------------|
|---11-------------------------------11-11-11-12----12-12-12-12------------|
|--------------------------------------------------------------------------|
|--------------------------------------------------------------------------|


|-------------------------------------------------------------------|
|-------------------------------------------------------------------|
|-------------------------------------------------------------------|
|--------------------2--2-----2--5--2--4--------2--2----------------|
|2--2--2--2--2--2----0--0--4--0--0--0--0--3^~---0--0----------------|
|0--0--0--0--0--0---------------------------------------------------|
|                                                               It's
|-------------------------------------------------------------------|
|-------------------------------------------------------------------|
|-------------------------------------------------------------------|
|--------------------2--2-----2--5--2--4--------2--4----2--2--4--2--|
|2--4--2--2--2--4----0--0--4--0--0--0--0--3^~---0--0----0--0--0--0--|
|0--0--0--0--0--0---------------------------------------------------|
|
|-------------------------------------------------------------------|
|-------------------------------------------------------------------|
|------------------12-----------------------(12)\-------------------|
|---------12-12-12-11-----------------------(11)\-------------------|
|-----------------------------------------------------0--4p0-0----0-|
|-------------------------------------------------/2------------3---|


Verse:
|-------------------------------------------------------------------------------------|
|---(2)--------------------(2)---------------(2)-----------------(2)------(2)--(0)----|
|---(2)--------------------(2)---------------(2)-----------------(2)------(2)--(0)----|
|----2----------------------2-----------------2-------------------2--------2----0-----|
|----0----------------------0-----------------0-------------------0--------0----------|
|3^~--------------------3^~----------------3------------------3^~------3^~------3-p0--|
|been along time since I rock and roll-ed._______________            It's
|-------------------------------------------------------------------------------------|
|-------------------------------------------------------------------------------------|
|----2----------------------2------------------2------------------2--------2----------|
|----2----------------------2------------------2------------------2--------2----------|
|----0----------------------0------------------0------------------0--------0----------|
|3^~--------------------3~~----------------3~-----------------3^~------3^~------3-p0--|
|
|----------------------------------------------------------------------------------------|
|----------------------------------------------------------------------------------------|Guitar
|0---2--------------------------------------------------------------------------------3--|
|0---2-----------------------------------------------------------------------------------|out
|----0-----------------------------------------------------------------------------------|
|3^~-------------------------------------------------------------------------------------|


Guitars 1 and 2
|--------------------------------------------------------------------|
|---(2)-(2)-(2)-------------(2)-(2)---(2)-----------(2)--------------|
|----2---2---2---------------2---2-----2-------------2---------------|
|----2---2---2---------------2---2-----2-------------2---------------|
|----0---0---0---------------0---0-----0-------------0---------------|
|3^~---------------------3^~---------------------3^~-----------------|
been a long time since I did the  stroll._________


|--------------------------------------------------------------------------------|
|---(2)-------(2)------(2)------3---------3----------------3---------------------|
|----2---------2--------2-------2---------2----------------2---------------------|
|----2---------2--------2-------0---------0----------------0---------------------|
|----0---------0--------0---3^~------------------------3^~-----------------------|
|3^~-------3^~-------3-----------------------------------------------------------|
            Ooh,   let me get it back, let me get it back, let me get it


|----------------------------------------------------------------|
|----3------------3------------------------------(2)-------------|
|----2------------2------------2------------------2--------------|
|----0------------0------------2------------------2--------------|
|3^~----------3^~----------3^~-0--3^~-------------0--------------|
|---------------------------------------------3^~----------------|
back,        ba - by where I____ come from.____


|--------------------------------------------------------------|
|---(2)----------------(2)----------------(2)------(2)-----(2)-|
|----2------------------2------------------2--------2-------2--|
|----2------------------2------------------2--------2-------2--|
|----0------------------0------------------0--------0-------0--|
|3^~----------------3^~----------------3^~------3^~------3-----|
                                                           It's


|--------------------------------------------------------------------------|
|--------------------------------------------------------------------------|
|9--9-------9--9-----9--9--9-----9--9--9-----9--7--------------------------|
|9--9--11---9--9--11-9--9--9--11-9--9--9--11-9--7--------------------------|
|7--7--7----7--7--7--7--7--7--7--7--7--7--7--7--5--------------------------|
|0--0--0-------------------------------------------------------------------|
been a long time, been a long time, been a long lonely,lonely,lonely,lonely


Guitar 1
|--------------------------------------------------------------------------|
|------------------------------(2)----2--2--2--2--------(2)---2--2--2------|
|------------------------------(2)----2--2--2--2--------(2)---2--2--2------|
|-------2-----2--2--2-----------2-----2--2--2--2---------2----2--2--2------|
|3^~-0--0-----0--0--0--3^~---0--0-----0--0--0--0--3^~-0--0----0--0--0--3^~-|
|--------------------------------------------------------------------------|
|time.                                 Yes it has.____
|Guitar 2
|--------------------------------------------------------------------------|
|--------------------------------------------------------------------------|
|--------------------------------------------------------------------------|
|----2-----2--5--2--4--------2--4--2--2--2--4--2--2--2-----2--5--2--4------|
|----0--4--0--0--0--0--3^~---0--0--0--0--0--0--0--0--0--4--0--0--0--0--3^~-|
|--------------------------------------------------------------------------|
|Guitar 3
|--------------------------------------------------------------------------|
|--------------------------------------------------------------------------|
|-------------------------------------------------------13----12-12-12-----|
|-------------------------------------------------------12----11-11-11-----|
|--------------------------------------------------------------------------|
|--------------------------------------------------------------------------|


|-----------------------|
|----(2)----2--2--2--2--|
|----(2)----2--2--2--2--|
|-----2-----2--2--2--2--|
|--0--0-----0--0--0--0--|
|-----------------------|
|
|-----------------------|
|-----------------------|
|-----------------------|
|--2--4--2--2--2--4--2--|
|--0--0--0--0--0--0--0--|
|-----------------------|
|
|-----------------------|
|-----------------------|
|----------------(12)\--|
|----------------(11)\--|
|-----------------------|
|-----------------------|


Verse:
Guitars 1 and 2
|-----------------------------------------------------------------------------------------|
|---(2)-2----2---------------(2)-----2-----------(2)----------------(2)------(2)------(2)-|
|---(2)-2----2---------------(2)-----2-----------(2)----------------(2)------(2)------(2)-|
|----2--2----2----------------2------2------------2------------------2--------2--------2--|
|----0--0----0----------------0------0------------0------------------0--------0--------0--|
|3^~----------------------3^~-----------------3^~----------------3^~------3^~------3^~----|
been a long time since the Book of  Love._____                         I


|-----------------------------------------------------------------------------------------|
|---(2)-2----2---------------(2)-----2-----------(2)----------------(2)-------2-------(2)-|
|---(2)-2----2---------------(2)-----2-----------(2)----------------(2)-------2-------(2)-|
|----2--2----2----------------2------2------------2------------------2--------2--------2--|
|----0--0----0----------------0------0------------0------------------0--------0--------0--|
|3^~----------------------3^~-----------------3^~----------------3^~------3^~------3^~----|
can't count the tears of a life with no love._____                     Ah


|--------------------------------------------------------------------|
|----3--3--3--3--3--3--3------3--3--3--3--3--3--3-----3--------------|
|----2--2--2--2--2--2--2------2--2--2--2--2--2--2-----2--------------|
|----0--0--0--0--0--0--0------0--0--0--0--0--0--0-----0--------------|
|3^~----------------------3^~----------------------3~~---------------|
|--------------------------------------------------------------------|
car - ry me back,__ car - ry me back,__ car - ry me back,__


|------------------0---------------------------------------------|
|----3--------3------------(2)-2----2-----------(2)-----2--------|
|----2--------2----2-------(2)-2----2-----------(2)-----2--------|
|----0--------0----0--------2--2----2------------2------2--------|
|3^~------3^~-0-------------0--0----0------------0------0--------|
|-----------------------3^~------------------3^~-----------------|
ba - by where I__ come from._____                  Oh,_____


|-------------------------------------------------------------------|
|---(2)----------------(2)------(2)-----(2)-------------------------|
|---(2)----------------(2)------(2)-----(2)-9--9--9--9--9--9--9--9--|
|----2------------------2--------2-------2--9--9--11-9--9--9--11-9--|
|----0------------------0--------0-------0--7--7--7--7--7--7--7--7--|
|3^~----------------3^~------3^~------3~~---0--0--------------------|
Oh,___________                          It's been a long time, been a


|------------------------------------------------------------|
|------------------------------------------------------------|
|9--9--9--9--9--9--9--9--7-----------------------------------|
|9--9--11-9--9--9--11-9--7-----------------------------------|
|7--7--7--7--7--7--7--7--5-----------------------------------|
|------------------------------------------------------------|
long time, been a long lonely, lonely, lonely, lonely, lonely


Guitar 1
|---------------------------------------------------------------------------|
|----2--2-----2--2--2--2------2--2-----2-----2-----2--2--2--2--2--2--2--2---|
|----2--2-----2--2--2--2------2--2-----2-----2-----2--2--4--2--2--2--4--2---|
|----0--0-----0--0--0--0--3^~-0--0-----0-----0-----0--0--0--0--0--0--0--0---|
|3^~------------------------------------------------------------------------|
|---------------------------------------------------------------------------|
|time.                                                   Aww,_______________
|Guitar 2
|---------------------------------------------------------------------------|
|---------------------------------------------------------------------------|
|---------------------------------------------------------------------------|
|2---2--5--2--4--2--5---------2--4--2--2--2--4--2--2--2--5--2--4--2--5------|
|4---4--0--0--0--0--0--3^~~---0--0--0--0--0--0--0--4--4--0--0--0--0--0------|
|-----------------------------------------------------------------------3^~-|
|Guitar 3
|---------------------------------------------------------------------------|
|---------------------------------------------------------------------------|
|-------12----12-12----12--------------------------------12----12-12----12--|
|-------11----11-11----11--------------------------------11----11-11----11--|
|---------------------------------------------------------------------------|
|---------------------------------------------------------------------------|


|------------------------|
|------------------------|
|2--2--2--2--2--2--2\----|
|2--2--4--2--2--2--2\----|
|0--0--0--0--0--0--0\----|
|------------------------|
|
|------------------------|
|------------------------|
|------------------------|
|---2--4--2--2--2--4--2--|
|---0--0--0--0--0--0--0--|
|------------------------|
|
|------------------------|
|------------------------|
|---------------12\------|
|---------------11\------|
|------------------------|
|------------------------|


Bridge:
Guitars 1 and 2
|------------------------------------------------------------------------------------------------|
|------------------------------------------------------------------------------------------------|
|------------------------------------------------------------------------------------------------|
|2--2--2--2--5--2--4--------2--4--2--2--2--4--2--2--2--2--2--5--2--4--------2--4--2--2--2--4--2--|
|0--0--4--0--0--0--0--3^~---0--0--0--0--0--0--0--0--0--4--0--0--0--0--3^~---0--0--0--0--0--0--0--|
|------------------------------------------------------------------------------------------------|
|Oh,__________________________                   Oh.__________
|Guitar 3
|------------------------------------------------------------------------------------------------|
|---------------------------5^----5^----------------------------------------5^----5^-------------|
|---------------------------5^----5^----------------------------------------5^----5^-------------|
|------------------------------------7--5--7-----~~~~~~------------------------------7--5--7-----|
|------------------------------------------------------------------------------------------------|
|------------------------------------------------------------------------------------------------|


|------------------------------------------------------------------------------------------------|
|------------------------------------------------------------------------------------------------|
|2--2--2--2--5--2--4--------2--4--2--2--2--4--2--------------------------------------------------|
|0--0--4--0--0--0--0--3^~---0--0--0--0--0--0--0--2--2--2--2--5--2--4--------2--4--2--2--2--4--2--|
|------------------------------------------------0--0--4--0--0--0--0--3^~---0--0--0--0--0--0--0--|
|------------------------------------------------------------------------------------------------|
|
|------------------------------------------------------------------------------------------------|
|---------------------------5^----5^----------------------------------------5^----5^-------------|
|---------------------------5^----5^----------------------------------------5^----5^-------------|
|~~~~~~------------------------------7--5--7-----------------------------------------7--5--7-----|
|------------------------------------------------------------------------------------------------|
|------------------------------------------------------------------------------------------------|


|--------------------------------------------------------------------------------------------|
|--------------------------------------------------------------------------------------------|
|--------------------------------------------------------------------------------------------|
|-----------------------------------------------------2--2--4--2--4--2----2--2----2--2--2----|
|2--2--2--2--5--2--4--------2--4--2--2--2--4--2--0----4--0--0--0--0--0----0--0----0--0--0----|
|0--0--3--0--0--0--0--3^~---0--0--0--0--0--0--0--0-------------------------------------------|
|
|------------------------------------------------------------------------------------------------|
|---------------------------5^----5^-------------------------------------------------------------|
|---------------------------5^----5^-------------------------------------------------------------|
|------------------------------------7--5--7-----------------------------------------------------|
|-----------------------------------------------------------------3p0---3p0---3-0-3h-3p0---3p0---|
|---------------------------------------------------------------------3-----3------------------3-|
These 2 parts are played evenly but isn't shown like that.


Verse (Gutiar Solo):
|---------------------------------------------------------|
|---------------------------------------------------------|
|----2------------------2------------------2--------------|
|----2------------------2------------------2--------------|
|----0------------------0------------------0--------------|
|3^~----------------3^~----------------3^~----------------|
|
|--------------------------------------------------------------------------------------|
|--------------------------------------------------------------------------------------|
|--------------------------------------0-----------------------------------------------|
|----------------------------------------2-0--------------------------2p0--------0--2--|
|3p0---3p0----3p0-3h-3p0----3p0-0------------3^~--0--0-----0--3--0--------3p0-3--------|
|----------3-------------3------------------------------3------------------------------|


|--------------------------------------------------------------------------------|
|--------------------------------------------------------------------------------|
|---2-------2-------------2------------------2------------------2----------------|
|---2-------2-------------2------------------2------------------2----------------|
|2--0----2--0-------------0------------------0------------------0----------------|
|----------------3p0--3^~----------------3^~----------------3^~------------------|
|
|------------------------------------------5-----------------------------------5------5---------|
|---------------------------------------5------------------------------------------------8p5----|
|------2-0---------------0-----7----7B--------7B--rp5----7--5-----------7--7B-----7B---------7--|
|p0--------2----0----2p0----2-------------------------7--------7--5--7--------------------------|
|-----------------------------------------------------------------------------------------------|
|-----------------------------------------------------------------------------------------------|


|-----------------------------------------------------------|
|-------------------------3------------------3--------------|
|---2-------2-------------2------------------2--------------|
|---2-------2-------------0------------------0--------------|
|2--0----2--0---------3^~----------------3^~----------------|
|----------------3p0----------------------------------------|
|
|--------------------------------------------------------------------------------------------------|
|9p6----10p7-----11p8-----12p9-----13p10-----10------10--13b------13bb-r--10------12b--12--10------|
|----8-------10-------10-------11--------12------12---------------------------12---------------12--|
|--------------------------------------------------------------------------------------------------|
|--------------------------------------------------------------------------------------------------|
|--------------------------------------------------------------------------------------------------|


|----------------------------------------------------------|
|----3------------------3----------------------------------|
|----2------------------2--------2--------------2----------|
|----0------------------0--------0--------------2----------|
|3^~----------------3^~------3^~-0----3^~-------0----------|
|-------------------------------------------3^~------------|
|
|--------------------------------------------------------------------------12--------|
|12b----12--10----10------12b----12--10------12------10--12--10----10--10--------10--|
|---------------------11-----------------11------11----------------------------------|
|------------------------------------------------------------------------------------|
|------------------------------------------------------------------------------------|
|------------------------------------------------------------------------------------|


|--------------------------------------------|
|--------------------------------------------|
|----2------------------2--------2-----------|
|----2------------------2--------2-----------|
|----0------------------0--------0-----------|
|3^~----------------3^~------3^~------3^~----|
|
|8va________________________________________________________________________
|----15-----15---15--15--15---15-------15-~~------------------12---------------------|
|----15b----15b--15--15--15--r15b------15b~~------15--14--15------13^~----------8----|
|------------------------------------------------------------------------14\---------|
|------------------------------------------------------------------------------------|
|------------------------------------------------------------------------------------|
|------------------------------------------------------------------------------------|
                  Hold bend

|------------------------------------------------|
|------------------------------------------------|
|9--9--9--9--9--9--9--9--9--9--9--9--9--9--9--9--|
|9--9--11-9--9--9--11-9--9--9--11-9--9--9--11-9--|
|7--7--7--7--7--7--7--7--7--7--7--7--7--7--7--7--|
|0--0--------------------0--0--------------------|
|
|------------------------7B----5-------------------|
|8p5----8p5----8p5----5-----------5-----5----------|
|----6------6------6-----------------7-----7--\----|
|--------------------------------------------------|
|--------------------------------------------------|
|--------------------------------------------------|


|----------------------------------------------------------------------------------|
|----------------------------------------------------------------------------------|
|7---------------------------------------------------------------------------------|
|7-----------------------------------------------------------2--2--2--5--2--4------|
|5-----------------------------------------------------------0--4--0--0--0--0--0n~-|
|----------------------------------------------------------------------------------|
|
|----------------------------------------------------------------------------|
|8p5----8p5----8p5----8p5----8p5----8p5----8p5----8p5------------------------|
|----7------7------7------7------7------7------7------7--/7------------5--7--|
|----------------------------------------------------------------------------|
|----------------------------------------------------------------------------|
|----------------------------------------------------------------------------|


*This note is a Grace Note.
|--------------------------------------------------------------------|
|--------------------------------------------------------------------|
|----------------------------------------------*---------------------|
|--2--2----2--2--2----2--2--4--2--4----2--2--2-4/7--7----7-----------|
|--0--0----0--0--0----0--0--0--0--0----0--0--0---0--0----0--7--7\----|
|--------------------------------------------------------------------|
|                                            Oh____________       It
|----------------------------------------------------------------|
|5^~---------------7--5p7------------5~~7------------------------|
|----7----7--------------------------5~~7--5~~-------------------|
|---------------------------------------------7--7----7----------|
|--------------------------------------------------------0-------|
|-----------------------------------------------------------5----|


Verse:
Guitar 1
|----------------------------------------------------------------------------------------------------|
|----2-\0-/2----2--2--0--2---------------------------------------------------------------------------|
|----2-\0-/2----2--2--0--2------------------2------------------2--------2-------------2--------------|
|----2-\0-/2----2--2--0--2------------------2------------------2--------2-------------2--------------|
|-------------------------------------------0------------------0--------0-------------0--------------|
|3^~------------------------------------3^~----------------3^~------3^~------3p0--3^~----------------|
seems so long_ since we walked in the moon - light._____                         Making vows,__  that


|-----------------------------------------------------------------------------------|
|----------------------------------------------------------------3--3--3--3----3----|
|----2------------------2------------------2-------2-------------2--2--2--2----2----|
|----2------------------2------------------2-------2-------------0--0--0--0----0----|
|----0------------------0------------------0-------0---------3^~--------------------|
|3^~----------------3^~----------------3^~------3^~-----3p0-------------------------|
just can't work right.                       ha-ha-yeah,__ Open your arms,open


|---------------------------------------------------------------|
|----3------------------3------------------3--------------------|
|----2------------------2------------------2--------2--------2--|
|----0------------------0------------------0--------0--------2--|
|3^~----------------3^~----------------3^~------3^~-0----3^~-0--|
|---------------------------------------------------------------|
your arms, op-en your arms.___         Ba - by let love___ come


|-----------------------------------------------------------|
|-----------------------------------------------------------|
|----2------2-----------2------2------------2---------------|
|----2------2-----------2------2------------2---------------|
|----0------0-----------0------0------------0---------------|
|3^~-----------------3^~----------------3^~-----------------|
runn - ing in.            Yes.__


|------------------------------------------------------------------------|
|------------------------------------------------------------------------|
|----2--------2----------9--9-----9--9--9-----9--9--9-----9--9--9-----9--|
|----2--------2----------9--9--11-9--9--9--11-9--9--9--11-9--9--9--11-9--|
|----0--------0----------7--7--7--7--7--7--7--7--7--7--7--7--7--7--7--7--|
|3^~------3^~------3--0--0--0--------------------0--0--------------------|
                    It's been a long time, been a long time, been a long


|-------------------------------------------|
|-------------------------------------------|
|7------------------------------------------|
|7------------------------------------------|
|5------------------------------------------|
|-------------------------------------------|
lone-ly, lone-ly, lone-ly, lone-ly, lone-ly,


Guitar 1
|--------------------------------------------------------------------------------------------|
|--------------------------------------------------------------------------------------------|
|---------------------------------2--2--2--2-------------------------------------2--2--2--2--|
|2--2--2--5--2--4--------2--4--2--2--2--4--2----2--2--2--5--2--4--------2--4--2--2--2--4--2--|
|0--4--0--0--0--0--3^~---0--0--0--0--0--0--0----0--4--0--0--0--0--3^~---0--0--0--0--0--0--0--|
|--------------------------------------------------------------------------------------------|
|time.
|Guitar 3
|--------------------------------------------------------------------------------------------|
|--------------------------------------------------------------------------------------------|
|------------------------12-12-12-12-12-12-12---------------------------12-12-12-12-12-13-13-|
|------------------------11-11-11-11-11-11-11---------------------------11-11-11-11-11-12-12-|
|--------------------------------------------------------------------------------------------|
|--------------------------------------------------------------------------------------------|


|----------------------------------------------------------------------------------|
|----------------------------------------------------------------------------------|
|-----------------------------2---------------------------------------2------------|
|--2--2--2--5--2--4--------2--2------------2--2--2--5--2--4--------2--2------------|
|--0--4--0--0--0--0--3^~---0--0------------0--4--0--0--0--0--3^~---0--0------------|
|----------------------------------------------------------------------------------|
|     Yeah,__           hey,                  yeah,__           hey,
|----------------------------------------------------------------------------------|
|----------------------------------------------------------------------------------|
|12-----------------------------12-12-12-12-------------------------------12-12-12-|
|11-----------------------------11-11-11-11-------------------------------11-11-11-|
|----------------------------------------------------------------------------------|
|----------------------------------------------------------------------------------|


|----------------------------------------------------------------------------------|
|----------------------------------------------------------------------------------|
|-----------------------------2---------------------------------------2------------|
|--2--2--2--5--2--4--------2--2--------------2--2--2--5--2--4------2--2------------|
|--0--4--0--0--0--0--3^~---0--0--------------0--4--0--0--0--0--3^~-0--0------------|
|----------------------------------------------------------------------------------|
|yeah,__            hey,                      yeah,__           hey,
|----------------------------------------------------------------------------------|
|----------------------------------------------------------------------------------|
|12--------------------------------11-11/12--------------------------------12--12--|
|10--------------------------------10-10-10--------------------------------11--11--|
|----------------------------------------------------------------------------------|
|----------------------------------------------------------------------------------|


|------------------------------------------------------------------------|
|------------------------------------------------------------------------|
|2--2--2--2--2--2--2--2--2--2--2--2--2--2--2--2--2--2--2--2--2--2--2--2--|
|0--0--0--0--0--0--0--0--0--0--0--0--0--0--0--0--0--0--0--0--0--0--0--0--|
|------------------------------------------------------------------------|
|------------------------------------------------------------------------|
|
|------------------------------------------------------------------------|
|------------------------------------------------------------------------|
|11-11----------------------------------------11-11-11-------------------|
|10-10----------------------------------------10-10-10-------------------|
|------------------------------------------------------------------------|
|------------------------------------------------------------------------|


|--------------------------|
|--------------------------|
|----2---------------------|
|/4-----4--0------2--------|
|-------------/4-----4--0--|
|--------------------------|
|
|--------------------------|
|--------------------------|
|-----------------------12-|
|-----------------------11-|
|--------------------------|
|--------------------------|


|--------------------------------------------------------------------------------------------|
|--------------------------------------------------------------------------------------------|
|2--2-----2--2--2--2--2--2--2--2--2----0--2----2--2-----2--2--2-----2--2--2-----2--2--0------|
|2--2--4--2--2--2--2--2--2--2--2--2----0--2----2--2--4--2--2--2--4--2--2--2--4--2--0--0------|
|0--0--0--0--0--0--0--0--0--0--0--0----0--0----0--0--0--0--0--0--0--0--0--0--0--0--0--0------|
|--------------------------------------------------------------------------------------------|
|   Ooh, yeah         Ooh,  yeah                 Ooh, yeah    Ooh,  yeah.__  (It's)
|---------------------------------------------------------------------------------------------------|
|--------------------------------------------------------------------------------------------Gtr.3--|
|12-12-12----------------12---------------12\-----9--11-9--12----12---------------------------------|out
|11-11-11----------------11---------------11\-/11----------11----11---------------------------------|
|---------------------------------------------------------------------------------------------------|
|---------------------------------------------------------------------------------------------------|


|-------------------------------------------------------------------------------------|
|----------------------------------------------x'-------------------------------------|
|----------------------------------(4)(4)-4----2'-------------------------------------|
|2--2--2--2--2--2------------------(2)(2)-2----0'-------------------------------------|
|2--2--2--2--2--2-----------2-------2--2--2-------------------------------------------|
|0--0--3--0--------5--3--0-----0----0--0--0-------------------------------------------|
been a long time, been a long time, been a long lonely,
lonely, lonely, lonely, lonely


Drum Outro:
|----------------|---------------|----|
|----------------|||||||||||||||||----|
|----------------||||||||4||||||||----|
|----------------|||||||||||||||||----|
|----------------|---------------|----|
|------------------rest 4 measures----|
time.


On Cue
Guitar 1
|-0-----------------0---------------------------------------0---------------------|
|-2-----------------2---------------------------------------2---------------------|
|-0-----------------0---------------------------------------0---------------------|
|(2)---------------(2)-------------------------------------(2)--------------------|
|(0)---------------(0)-------------------------------------(0)--------------------|
|---------------------------------------------------------------------------------|
|Guitar 2
|---------------------------------------------------------------------------------|
|---------------------------------------------------------------------------------|
|---------------------------------------------------------------------------------|
|-------------------------------------------5--7p5--7p5-----5---------------------|
|--------------0--3-5hp3p0--5p3p0--3h--5-7---------------7-------------------5----|
|---------------------------------------------------------------------------------|


************************
*The Battle of Evermore*
************************

There are 6 Guitar parts:
Mandolins 1, 2, and 3*
Guitars 1 and 2 (1=6-string 2=12-string)
Finger picked Guitar (6-string)
*Arranged for Guitar with capo at 10.  All notes in TAB at 10 are open strings.

Key:
()=optional note
h=hammer
x=finger mute
b=bend 1/2 step


Mythical Folk Ballad freely Q=144
With a strong half-time feel

Intro: Slow fade in.
Mandolins 1 and 2
|--------12--12--12--12--12--12--12--12--12--12--12--12--12--12--|
|13--13--13------13--13--13------13--13--13------13--13--13------|
|14--14----------14--14----------14--14----------14--14----------|
|----------------------------------------------------------------|
|----------------------------------------------------------------|
|----------------------------------------------------------------|


|--12--12--12--12--12--12--12--12--12--12--12--12--12--12--12--12--|
|o-13--13--13------13--13--13------13--13--13------13--13--13------|
|--14--14----------14--14----------14--14----------14--14----------|
|--14--14----------------------------------------------------------|
|o-----------------------------------------------------------------|
|------------------------------------------------------------------|
|Mandolin 3
|------------------------------------------------------------------|
|o-----------------------------------------------------------------|
|------------------------------------------------------------------|
|--14--14----------------------------------------------------------|
|o-----------------------------------------------------------------|
|------------------------------------------------------------------|


|12--12--12--12--12--12--12--12--12--12--12--12--12--12--12--|
|13--13--13------13--13--13------13--13--13--13--13--13------|
|14--14----------14--14----------14--14------14--14----------|
|14--14------------------------------------------------------|
|------------------------------------------------------------|
|------------------------------------------------------------|
|
|------------------------------------------------------------|
|------------------------------------------------------------|
|------------------------------------------------------------|
|13--13------------------------------------------------------|
|------------------------------------------------------------|
|------------------------------------------------------------|


|12--12--12--12--12--12--12--12--12--12--12--12--12--12--12--|
|13--13--13------13--13--13------13--13--13--13--13--13------|
|14--14----------14--14----------14--14------14--14----------|
|14--14------------------------------------------------------|
|------------------------------------------------------------|
|------------------------------------------------------------|
|
|------------------------------------------------------------|
|------------------------------------------------------------|
|------------------------------------------------------------|
|12--12------------------------------------------------------|
|------------------------------------------------------------|
|------------------------------------------------------------|


|12--12--12--12--12--12--12--12--12--12--12--12--12--12--12---|
|13--13--13------13--13--13------13--13--13--13--13--13------o|
|14--14----------14--14----------14--14------14--14-----------|
|14--14-------------------------------------------------------|
|------------------------------------------------------------o|
|-------------------------------------------------------------|
|
|-------------------------------------------------------------|
|------------------------------------------------------------o|
|-------------------------------------------------------------|
|13--13-------------------------------------------------------|
|------------------------------------------------------------o|
|-------------------------------------------------------------|


Mandolins 1, 2, and 3
|--------12-(12)-12--12-(12)-12--12--12--12-(12)-12--12-(12)-(12)-12--12--12-(12)-12--12-(12)-|
|13--13--13-(13)-10--12-(12)-13--13--13--13-(13)-10--12-(12)-(12)-13--13--13-(13)-12--12-(12)-|
|------------*--------------------------------------------------------------------------------|
|14--14--14-(14)-12--12-(12)-14--14--14--14-(14)-12--12-(12)-(12)-14--14--14-(14)-12--12-(12)-|
|----------------------------10--10-------------------------------10--10--10-(10)-------------|
|---------------------------------------------------------------------------------------------|
*All the notes in () are Tape echo's.  They're there incase you don't have echo/delay.


|(12)-12--12--12--12--12--12-(12)-|
|(12)-13--13--13--13--10--12-(12)-|
|---------------------------------|
|(12)-14--14--14--14--14--12-(12)-|
|---------------------------------|
|---------------------------------|
                (Male voice:) The


Verse:
Mandolins 1, 2, and 3
Mandolin Figure 1
|14--14--12--14-(14)-12--15-(15)-14--14--12--14-(14)-12----------14--14--12--14-(14)-12--15-(15)-|
|10--10--10--10-(10)-10--12-(12)-10--10--10--10-(10)-10--13-(13)-10--10--10--10-(10)-10--12-(12)-|
|14--14--14--14-(14)-14----------14--14--14--14-(14)-14--14-(14)-14--14--14--14-(14)-14----------|
|14--14--12--14-(14)-12--12-(12)-14--14--12--14-(14)-12--10-(10)-14--14--12--14-(14)-12--12-(12)-|
|------------------------------------------------------------------------------------------------|
|------------------------------------------------------------------------------------------------|
|Queen__ of  Light____          took her     bow__  and  then    she turned__ to  go,_
|Guitars 1 and 2
|0------0--0-------------0------0--0----0--0--0--0------0--0-------------|
|0------0--0----3--3--3--0------0--0----1--1--1--0------0--0----3--3--3--|
|0--2h--2--2----0--0--0--0--2h--2--2----0--0--0--0--2h--2--2----0--0--0--|
|0--2h--2--2----0--0--0--0--2h--2--2----2--2--2--0--2h--2--2----0--0--0--|
|0------0--0----2--2--2--0------0--0----3--3--3--0------0--0----2--2--2--|
|------------------------------------------------------------------------|
The Different parts are played at the same time but arn't shown that way.


|14--14--12--14-(14)-12----------14--14--12--14-(14)-12--15-(15)-14--14--12--14-(14)-12----------|
|10--10--10--10-(10)-10--13-(13)-10--10--10--10-(10)-10--12-(12)-10--10--10--10-(10)-10--13-(13)-|
|14--14--14--14-(14)-14--14-(14)-14--14--14--14-(14)-14----------14--14--14--14-(14)-14--14-(14)-|
|14--14--12--14-(14)-12--10-(10)-14--14--12--14-(14)-12--12-(12)-14--14--12--14-(14)-12--10-(10)-|
|------------------------------------------------------------------------------------------------|
|------------------------------------------------------------------------------------------------|
|___                        the Prince   of  Peace_ em - braced  the gloom_ and
|0------0--0----0--0--0--0------0--0-------------0------0--0--0--0--0--|
|0------0--0----1--1--1--0------0--0----3--3--3--0------0--0--1--1--1--|
|0--2h--2--2----0--0--0--0--2h--2--2----0--0--0--0--2h--2--2--0--0--0--|
|0--2h--2--2----2--2--2--0--2h--2--2----0--0--0--0--2h--2--2--2--2--2--|
|0------0--0----3--3--3--0------0--0----2--2--2--0------0--0--3--3--3--|
|----------------------------------------------------------------------|


|14--14--12--14-(14)-12--15-(15)-14--14--12--14-(14)-12----------|
|10--10--10--10-(10)-10--12-(12)-10--10--10--10-(10)-10--13-(13)-|
|14--14--14--14-(14)-14----------14--14--14--14-(14)-14--14-(14)-|
|14--14--12--14-(14)-12--12-(12)-14--14--12--14-(14)-12--10-(10)-|
|----------------------------------------------------------------|
|----------------------------------------------------------------|
|walked  the night_      a- lone.________________________________
|0------0--0-------------0------0--0----0--0--0--|
|0------0--0----3--3--3--0------0--0----1--1--1--|
|0--2h--2--2----0--0--0--0--2h--2--2----0--0--0--|
|0--2h--2--2----0--0--0--0--2h--2--2----2--2--2--|
|0------0--0----2--2--2--0------0--0----3--3--3--|
|------------------------------------------------|


(Female Voice:)
Oh,________________________
Mandolin 1:
|-----17-(17)------17-(17)-|
|-----15-(15)------15-(15)-|
|-----14-(14)------14-(14)-|
|-----12-(12)------12-(12)-|
|--------------------------|
|--------------------------|
|__
|2------------2------------|
|3------------3------------|
|2------------2------------|
|0------------0------------|
|--------------------------|
|--------------------------|


dance in the dark of night___________________           sing to  the morn        -
Mandolin 2
*- - - - - - - - - - - - - - - - - -|
|--15-14--12--14--15--14--12---------17-(17)------17-(17)----15--14----------------------|
|-----15--------------15------17-----15-(15)------15-(15)------------17----------17--17--|
|-----14--------------14-------------14-(14)------14-(14)----------------17--17----------|
|-----12--------------12-------------12-(12)------12-(12)--------------------------------|
|----------------------------------------------------------------------------------------|
|----------------------------------------------------------------------------------------|
|                                                       (Male Voice:)  The
|2------------2---------------2--------------2------------2--------------2---------------|
|3------------3---------------3--------------3------------3--------------3---------------|
|2------------2---------------2--------------2------------2--------------2---------------|
|0------------0---------------0--------------0------------0--------------0---------------|
|----------------------------------------------------------------------------------------|
|----------------------------------------------------------------------------------------|
*This part is optional and omitted from here on. (Mandolin 2's part only)


         ing    light.
|14-(14)-12--14-(14)-12--15-(15)-14-(14)-12--14-(14)-12----------14-(14)-12--14-(14)-12--15-(15)-|
|10-(10)-10--10-(10)-10--10-(10)-10-(10)-10--10-(10)-10--13-(13)-10-(10)-10--10-(10)-10--10-(10)-|
|14-(14)-14--14-(14)-14--14-(14)-14-(14)-14--14-(14)-14--14-(14)-14-(14)-14--14-(14)-14--14-(14)-|
|------------------------------------------------------------------------------------------------|
|------------------------------------------------------------------------------------------------|
|------------------------------------------------------------------------------------------------|
|dark    Lord   rides    in force_       to - night          and time will tell_  us all._
|0--(0)--0--(0)--0---0---3--(3)--0-------0---0-------0---0---0---0--(0)--0--(0)--0---0---3--(3)--|
|0--(0)--0--(0)--0---0---3--(3)--0-------0---0-------1---1---1---0--(0)--0--(0)--0---0---3--(3)--|
|2--(2)--2--(2)--2---2---0--(0)--0--2h---2---2-------0---0---0---2--(2)--2--(2)--2---2---0--(0)--|
|2--(2)--2--(2)--2---2---0--(0)--0--2h---2---2-------2---2---2---2--(2)--2--(2)--2---2---0--(0)--|
|0--(0)--0--(0)--0---0---2--(2)--0-------0---0-------3---3---3---0--(0)--0--(0)--0---0---2--(2)--|
|------------------------------------------------------------------------------------------------|


                             Oh,_____                    throw down your plow__        and
|14-(14)-12--14-(14)-12---------------17-(17)------17-(17)----15--14--------------14------|
|10-(10)-10--10-(10)-10--13-(13)------15-(15)------15-(15)------------17--15--17------17--|
|14-(14)-14--14-(14)-14--14-(14)------14-(14)------14-(14)--------------------------------|
|------------------------------------(12)(12)-----(12)(12)--------------------------------|
|-----------------------------------------------------------------------------------------|
|-----------------------------------------------------------------------------------------|
|______________________
|0-------0---0-------0---0---0---2------------2------------2--------------2---------------|
|0-------0---0-------1---1---1---3------------3------------3--------------3---------------|
|0--2h---2---2-------0---0---0---2------------2------------2--------------2---------------|
|0--2h---2---2-------2---2---2---0------------0------------0--------------0---------------|
|0-------0---0-------3---3---3------------------------------------------------------------|
|-----------------------------------------------------------------------------------------|


hoe,_____________         rest not to lock__ your      homes.__
|------17-(17)------17-(17)----15--14----------------------14-(14)-12--14-(14)-12--15-(15)-|
|17----15-(15)------15-(15)------------17----------17--17--10-(10)-10--10-(10)-10--10-(10)-|
|------14-(14)------14-(14)----------------17--17----------14-(14)-14--14-(14)-14--14-(14)-|
|-----(12)(12)-----(12)(12)----------------------------------------------------------------|
|------------------------------------------------------------------------------------------|
|------------------------------------------------------------------------------------------|
|                                                          Side   by  side__  we
|2-------------2------------2--------------2---------------0--(0)--0--(0)--0---0---3--(3)--|
|3-------------3------------3--------------3---------------0--(0)--0--(0)--0---0---3--(3)--|
|2-------------2------------2--------------2---------------2--(2)--2--(2)--2---2---0--(0)--|
|0-------------0------------0--------------0---------------2--(2)--2--(2)--2---2---0--(0)--|
|----------------------------------------------------------0--(0)--0--(0)--0---0---2--(2)--|
|------------------------------------------------------------------------------------------|


                                                                                 Oh,_____________
|14-(14)-12--14-(14)-12----------14-(14)-12--14-(14)-12--15-(15)-14-(14)-12--14-(14)-12----------|
|10-(10)-10--10-(10)-10--13-(13)-10-(10)-10--10-(10)-10--10-(10)-10-(10)-10--10-(10)-10--13--13--|
|14-(14)-14--14-(14)-14--14-(14)-14-(14)-14--14-(14)-14--14-(14)-14-(14)-14--14-(14)-14--14--14--|
|------------------------------------------------------------------------------------------------|
|------------------------------------------------------------------------------------------------|
|------------------------------------------------------------------------------------------------|
|wait    the might__       of the dark - est of___ them all.________________________________
|0-------0---0-------0---0---0---0--(0)--0--(0)--0---0---3--(3)--0-------0---0-------0---0---0---|
|0-------0---0-------1---1---1---0--(0)--0--(0)--0---0---3--(3)--0-------0---0-------1---1---1---|
|0--2h---2---2-------0---0---0---2--(2)--2--(2)--2---2---0--(0)--0--2h---2---2-------0---0---0---|
|0--2h---2---2-------2---2---2---2--(2)--2--(2)--2---2---0--(0)--0--2h---2---2-------2---2---2---|
|0-------0---0-------3---3---3---0--(0)--0--(0)--0---0---2--(2)--0-------0---0-------3---3---3---|
|------------------------------------------------------------------------------------------------|


_____________________________________________________________________________________
|-----17--17-------17--17-----15--14------15--14---------12--12------14--12----------|
|-----15--15-------15--15-------------17----------17-----13--12--------------13--13--|
|-----14--14-------14--14----------------------------------------14------------------|
|-----12--12-------12--12------------------------------------------------------------|
|------------------------------------------------------------------------------------|
|------------------------------------------------------------------------------------|
|______________________________________________________     *Ah,________
|2------------2------------2--------------2-----------2--------------2---------------|
|3------------3------------3--------------3-----------3--------------3---------------|
|2------------2------------2--------------2-----------2--------------2---------------|
|0------------0------------0--------------0-----------0--------------0---------------|
|------------------------------------------------------------------------------------|
|------------------------------------------------------------------------------------|
*Female voice replaces male voice.


_________________________________
|----17--15--14--12--12--12--12--|
|----------------10--10--10--10--|
|14--------------14--14--14--14--|
|--------------------------------|
|--------------------------------|
|--------------------------------|
|________________________________
|2---------------2---------------|
|3---------------3---------------|
|2---------------2---------------|
|0---------------0-----------2---|
|----------------------------0---|
|--------------------------------|


____________________________________
|14-(14)-12--14-(14)-12--15-(15)-14-(12)-12--14-(14)-12----------14-(14)-12--14-(14)-12--15-(15)-|
|10-(10)-10--10-(10)-10--10-(10)-10-(10)-10--10-(10)-10--13-(13)-10-(10)-10--10-(10)-10--10-(10)-|
|14-(14)-14--14-(14)-14--14-(14)-14-(14)-14--14-(14)-14--14-(14)-14-(14)-14--14-(14)-14--14-(14)-|
|------------------------------------------------------------------------------------------------|
|------------------------------------------------------------------------------------------------|
|------------------------------------------------------------------------------------------------|
|*Bring      it,                bring       it,               bring   it.
|0-------0---0-------------------0---0---0---0-------0---0---0---0---0---0---0-------3---3---3---|
|0-------0---0-------3---3--(3)--0---0---0---0-------1---1---1---0---0---0---0-------3---3---3---|
|0--2h---2---2-------0---0--(0)--2---2---2---2-------0---0---0---2---2---2---2-------0---0---0---|
|0--2h---2---2-------0---0--(0)--2---2---2---2-------2---2---2---2---2---2---2-------0---0---0---|
|0-------0---0-------2---2--(2)--0---0---0---0-------3---3---3---0---0---0---0-------2---2---2---|
|------------------------------------------------------------------------------------------------|
*Distant Male Chorus.


|14-(12)-12--14-(14)-12----------|
|10-(10)-10--10-(10)-10--13-(13)-|
|14-(14)-14--14-(14)-14--14-(14)-|
|--------------------------------|
|--------------------------------|
|--------------------------------|
|
|0------(0)--0---0--(0)--0--(0)--|
|0------(0)--0---0--(0)--1--(1)--|
|0--2h--(2)--2---2--(2)--0--(0)--|
|0--2h--(2)--2---2--(2)--2--(2)--|
|0------(0)--0---0--(0)--3--(3)--|
|--------------------------------|


Choral Verse:
|12--12--12--12--12--12--15--12--10--17--17--17-(17)-17--17-(17)-|
|--------------------------------10--10--10--10-(10)-10--10-(10)-|
|12--12--12--12--12--12--12--12--11--11--11--11-(11)-11--11-(11)-|
|10--10--10--10--10--10--10--10--10-(10)(10)(10)(10)(10)(10)(10)-|
|10--10--10--10--10--10--10--10----------------------------------|
|----------------------------------------------------------------|
|        I   hear__             hors -  es  thun -  der
|------------------------3---3---2---2--(2)--2--(2)--2---2--(2)--|
|------------1--(1)--1---1---1---3---3--(3)--3--(3)--3---3--(3)--|
|--------2---2--(2)--2---0---0---2---2--(2)--2--(2)--2---2--(2)--|
|--------2---2--(2)--2---2---2---0---0--(0)--0--(0)--0---0--(0)--|
|--------0---------------0---0-----------------------------------|
|----------------------------------------------------------------|


|12--12--12--12--12--12--12--12------17--17--17-(17)-17--17--12--12--15--15--15--15--15--15-(15)-|
|--------------------------------10--10--10--10-(10)-10--10--10----------------------------------|
|11--12--12--12--12--12--12--12--11--11--11--11-(11)-11--11--11--12--12--12--12--12--12--12-(12)-|
|10--10--10--10--10--10--10--10--12--12--12--12-(12)-12--12--12----------------------------------|
|--------------------------------------------10-(10)-10--10-(10)(14)-14--14--14--14--14--14-(14)-|
|------------------------------------------------------------------------------------------------|
|down     in the val-ly  be- low,__                   I'm wait   -   in'  for the
|----3--(3---3)------3--(3---3)--2---2--(2)--2--(2)--2---2--(2)------1---1---1--(1)--1---1--(1)--|
|----1--(1---1)------1--(1---1)--3---3--(3)--3--(3)--3---3--(3)------0---0---0--(0)--0---0--(0)--|
|2---2--(2---2)--2---2--(2---2)--2---2--(2)--2--(2)--2---2--(2)------0---0---0--(0)--0---0--(0)--|
|2---------------2---------------0---0--(0)--0--(0)--0---0--(0)----------------------------------|
|0---------------0---------------------------------------------------2---2---2--(2)--2---2--(2)--|
|------------------------------------------------------------------------------------------------|


                                                                            End Mandolin Figure 1
|15--12--12--12------12--12-(12)---------------------------------15--12--12--12------12--12-(12)-|
|--------------------------------17--20--20--20--20--20--20--20----------------------------------|
|12--12--12--12------12--12-(12)-10--10--10--10--10--10--10--10--12--12--12--12------12--12-(12)-|
|10--10--10--10------10--10-(10)-17--17--17--17--17--17--17--17--10--10--10--10------10--10-(10)-|
|--------10--10------10--10-(10)-10--10--10--10--10--10--10--10--10-(10)-10--10------10--10-(10)-|
|------------------------------------------------------------------------------------------------|
|an  -  gels of  Av  - a - lon,  wait - in' fro the east - ern   glow.          The
|0---0---0---0---0---0---0---0-------1---1---1---1---1---1---1---0---0---0--(0---0)--0---0--(0)--|
|1---1---1---1---1---1---1---1-------0---0---0---0---0---0---0---1---1---1--(1---1)--1---1--(1)--|
|0---0---0---0---0---0---0---0-------0---0---0---0---0---0---0---0---0---0--(0---0)--0---0--(0)--|
|--------------------------------0---0---0---0---0---0---0---0---2---2---2--(2---2)--2---2--(2)--|
|3---3---3---3---3---3---3---3-----------------------------------3---3---3--(3---3)--3---3--(3)--|


Verse:With Mandolin Figure 1 with ad lib variations.
*Guitars 1 and 2
|0------0--0------------0------0--0----0--0----0------0--0------------|
|0------0--0----3--3----0------0--0----1--1----0------0--0----3--3----|
|0--2h--2--2----0--0----0--2h--2--2----0--0----0--2h--2--2----0--0----|
|0--2h--2--2----0--0----0--2h--2--2----2--2----0--2h--2--2----0--0----|
|0------0--0----2--2----0------0--0----3--3----0------0--0----2--2----|
|---------------------------------------------------------------------|
ap -plees  of      the val - ley hold_         the seeds of hap-pi-nes,_

*From here on the Guitar arrangement is notated without the tape echo rhythms
 and any other () notes are used as in the key.


|0------0--0----0--0----0------0--0------------0------0--0----0--0----|
|0------0--0----1--1----0------0--0----3--3----0------0--0----1--1----|
|0--2h--2--2----0--0----0--2h--2--2----0--0----0--2h--2--2----0--0----|
|0--2h--2--2----2--2----0--2h--2--2----0--0----0--2h--2--2----2--2----|
|0------0--0----3--3----0------0--0----2--2----0------0--0----3--3----|
|---------------------------------------------------------------------|
____             (the) ground is rich___   from ten - der care,__   re-


              (Female Voice:)  Oh,_______________
|0------0--0------------0------0--0----0--0--------2------2--2----|
|0------0--0----3--3----0------0--0----1--1--------3------3--3----|
|0--2h--2--2----0--0----0--2h--2--2----0--0--------2------2--2----|
|0--2h--2--2----0--0----0--2h--2--2----2--2--------0------0--0----|
|0------0--0----2--2----0------0--0----3--3-----------------------|
|-----------------------------------------------------------------|
pay     do not__  for-get.___       No,        no.


dance in the dark night,____________________          sing to the moon - light.___
|--------2--------------2--2--2-------2--2----2--2------------2-------2--2--2-----|
|--------3--------------3--3--3--3----3--3----3--3------------3-------3--3--3-----|
|--------2--------------2--2--2--2----2--2----2--2------------2-------2--2--2-----|
|--------0--------------0--0--0--0----0--0----0--0------------0-------0--0--0-----|
|---------------------------------------------------------------------------------|
|---------------------------------------------------------------------------------|
                                                                             (The)


____
|0------0--0----3--3----0------0--0----0--0----0------0--0----3--3----|
|0------0--0----3--3----0------0--0----1--1----0------0--0----3--3----|
|0--2h--2--2----0--0----0--2h--2--2----0--0----0--2h--2--2----0--0----|
|0--2h--2--2----0--0----0--2h--2--2----2--2----0--2h--2--2----0--0----|
|0------0--0----2--2----0------0--0----3--3----0------0--0----2--2----|
|---------------------------------------------------------------------|
ap - ples turn,_  to brown  and black,_ the ty - rants face_____    is


                        Oh,              war is the com-mon cry,_
|0------0--0----0--0---------2------2--2--------2------2--2--2--|
|0------0--0----1--1---------3------3--3--------3------3--3--3--|
|0--2h--2--2----0--0----2----2------2--2--------2------2--2--2--|
|0--2h--2--2----2--2----0----0------0--0--------0------0--0--0--|
|0------0--0----3--3--------------------------------------------|
|---------------------------------------------------------------|
red.______________________             Oh,___   now.


___                  pick up your swords and fly.___________________
|2----2------2--2--2----2--2--2--2--2--2----0------0--0----3--3--3--|
|3----3------3--3--3----3--3--3--3--3--3----0------0--0----3--3--3--|
|2----2------2--2--2----2--2--2--2--2--2----0--2h--2--2----0--0--0--|
|0----0------0--0--0----0--0--0--0--0--0----0--2h--2--2----0--0--0--|
|-------------------------------------------0------0--0----2--2--2--|
|-------------------------------------------------------------------|
                                          The sky is filled__     with


____                                                        Oh,________
|0------0--0----0--0----0------0--0----3--3--3--0------0--0----0--0----|
|0------0--0----1--1----0------0--0----3--3--3--0------0--0----1--1----|
|0--2h--2--2----0--0----0--2h--2--2----0--0--0--0--2h--2--2----0--0----|
|0--2h--2--2----2--2----0--2h--2--2----0--0--0--0--2h--2--2----2--2----|
|0------0--0----3--3----0------0--0----2--2--2--0------0--0----3--3----|
|----------------------------------------------------------------------|
good and   bad,        mor-tals   nev  -  er know.______________________


_______________________                     Ah,__________________
|-----2------2--2--2----2--2--2----2--2--2-------2--2----2--2--2----2--2--2----2--2----|
|-----3------3--3--3----3--3--3----3--3--3-------3--3----3--3--3----3--3--3----3--3----|
|2----2------2--2--2----2--2--2----2--2--2--2----2--2----2--2--2----2--2--2----2--2----|
|0----0------0--0--0----0--0--0----0--0--0--0----0--0----0--0--0----0--0--0----0--0----|
|--------------------------------------------------------------------------------------|
|--------------------------------------------------------------------------------------|
___       Now.__________   Oh____________________________________________________


____________________________________________________
|0------0--0----3--3--3--0------0--0----0--0----0------0--0----3--3-3-3--0------0--0----0--0----|
|0------0--0----3--3--3--0------0--0----1--1----0------0--0----3--3-3-3--0------0--0----1--1----|
|0--2h--2--2----0--0--0--0--2h--2--2----0--0----0--2h--2--2----0--0-0-0--0--2h--2--2----0--0----|
|0--2h--2--2----0--0--0--0--2h--2--2----2--2----0--2h--2--2----0--0-0-0--0--2h--2--2----2--2----|
|0------0--0----2--2--2--0------0--0----3--3----0------0--0----2--2-2-2--0------0--0----3--3----|
|-----------------------------------------------------------------------------------------------|
____________________________________________________


Choral Verse:
|--3----3----3--3------2----2----2--2----3----3--3----3--3----|
|--1----1----1--1------3----3----3--3----1----1--1----1--1----|
|--0----0----0--0------2----2----2--2----0----0--0----0--0----|
|--2----2----2--2------0----0----0--0----2----2--2----2--2----|
|--0----0----0--0------------------------0----0--0----0--0----|
|-------------------------------------------------------------|
     Oh well_   the night_ is long,__   beads of time_ pass slow,__


|2----2--2----2--2--2--1--1--1--1----1--1----0--0--0--0----0--0----|
|3----3--3----3--3--3--0--0--0--0----0--0----1--1--1--1----1--1----|
|2----2--2----2--2--2--0--0--0--0----0--0----0--0--0--0----0--0----|
|0----0--0----0--0--0--0--0--0--0----0--0----2--2--2--2----2--2----|
|----------------------2--2--2--2----2--2----3--3--3--3----3--3----|
|-------------------------3--3--3----3--3--------------------------|
____                     tired eyes_ on the sun - rise,______


|1--1--1--1----1--1----0--0--0--0----0--0----|
|0--0--0--0----0--0----1--1--1--1----1--1----|
|0--0--0--0----0--0----0--0--0--0----0--0----|
|0--0--0--0----0--0----2--2--2--2----2--2----|
|2--2--2--2----2--2----3--3--3--3----3--3----|
|---3--3--3----3--3--------------------------|
wait-in' for the east - ern glow.          The


Verse: with Mandolin Figure 1:
|0------0--0----3--3----0------0--0----3--3----0------0--0----3--3----0------0--0----3--3----|
|0------0--0----3--3----0------0--0----1--1----0------0--0----3--3----0------0--0----1--1----|
|0--2h--2--2----0--0----0--2h--2--2----0--0----0--2h--2--2----0--0----0--2h--2--2----0--0----|
|0--2h--2--2----0--0----0--2h--2--2----2--2----0--2h--2--2----0--0----0--2h--2--2----2--2----|
|0------0--0----2--2----0------0--0----3--3----0------0--0----2--2----0------0--0----3--3----|
|--------------------------------------------------------------------------------------------|
pain of war___       can not ex - ceed__  the woe of af - ter math,__         the


                                                                                  Oh,________
|0------0--0----3--3----0------0--0----3--3----0------0--0----3--3----0------0--0----3--3----|
|0------0--0----3--3----0------0--0----1--1----0------0--0----3--3----0------0--0----1--1----|
|0--2h--2--2----0--0----0--2h--2--2----0--0----0--2h--2--2----0--0----0--2h--2--2----0--0----|
|0--2h--2--2----0--0----0--2h--2--2----2--2----0--2h--2--2----0--0----0--2h--2--2----2--2----|
|0------0--0----2--2----0------0--0----3--3----0------0--0----2--2----0------0--0----3--3----|
|--------------------------------------------------------------------------------------------|
drums will shake_ the cas - tle wall__ the ring wraiths ride__ in black,____ride_______


Double Verse:
_____            sing as you raise your bow,__
|----2------2--2------2--2------2--2--2--|
|----3------3--3------3--3------3--3--3--|
|----2------2--2------2--2------2--2--2--|
|----0------0--0------0--0------0--0--0--|
|----------------------------------------|
|----------------------------------------|
____ on.______________             Ride__


___                shoot straight - er than be - fore.___________
|-----2------2--2------2--2------2--2--2--0------0--0----3--3----|
|-----3------3--3------3--3------3--3--3--0------0--0----3--3----|
|2----2------2--2------2--2------2--2--2--0--2h--2--2----0--0----|
|0----0------0--0------0--0------0--0--0--0--2h--2--2----0--0----|
|-----------------------------------------0------0--0----2--2----|
|----------------------------------------------------------------|
on.                                    No com - fort has__    the


______________________________________________________________________
|0------0--0----3--3----0------0--0----3--3----0------0--0----3--3----|
|0------0--0----1--1----0------0--0----3--3----0------0--0----1--1----|
|0--2h--2--2----0--0----0--2h--2--2----0--0----0--2h--2--2----0--0----|
|0--2h--2--2----2--2----0--2h--2--2----0--0----0--2h--2--2----2--2----|
|0------0--0----3--3----0------0--0----2--2----0------0--0----3--3----|
|---------------------------------------------------------------------|
fire  at night__ that lights the fire__ so cold.____________________


___              Dance in the dark__   night,___
|----2------2--2------2--2------2--2--2-------2------2--2----|
|----3------3--3------3--3------3--3--3-------3------3--3----|
|----2------2--2------2--2------2--2--2--2----2------2--2----|
|----0------0--0------0--0------0--0--0--0----0------0--0----|
|------------------------------------------------------------|
|------------------------------------------------------------|
____                                                      The


sing to the morn - in' light._______________________________________
|--2--2------2--2--2--0------0--0----3--3----0------0--0----3--3----|
|--3--3------3--3--3--0------0--0----3--3----0------0--0----1--1----|
|--2--2------2--2--2--0--2h--2--2----0--0----0--2h--2--2----0--0----|
|--0--0------0--0--0--0--2h--2--2----0--0----0--2h--2--2----2--2----|
|---------------------0------0--0----2--2----0------0--0----3--3----|
|-------------------------------------------------------------------|
                      magic runes__       are writ in  gold__    to


____
|0------0--0----3--3----0------0--0----3--3--------2------2--2------2--2------2--2--2--|
|0------0--0----3--3----0------0--0----1--1--------3------3--3------3--3------3--3--3--|
|0--2h--2--2----0--0----0--2h--2--2----0--0--------2------2--2------2--2------2--2--2--|
|0--2h--2--2----0--0----0--2h--2--2----2--2--------0------0--0------0--0------0--0--0--|
|0------0--0----2--2----0------0--0----3--3--------------------------------------------|
|--------------------------------------------------------------------------------------|
birng  the bal - ance   back.______ Bring it back.___


|-----2------2--2------2--2------2--2--2--0------0--0----3--3----|
|-----3------3--3------3--3------3--3--3--0------0--0----3--3----|
|2----2------2--2------2--2------2--2--2--0--2h--2--2----0--0----|
|0----0------0--0------0--0------0--0--0--0--2h--2--2----0--0----|
|-----------------------------------------0------0--0----2--2----|
|----------------------------------------------------------------|


|0------0--0----3--3----0------0--0----3--3----0------0--0----3--3----|
|0------0--0----1--1----0------0--0----3--3----0------0--0----1--1----|
|0--2h--2--2----0--0----0--2h--2--2----0--0----0--2h--2--2----0--0----|
|0--2h--2--2----2--2----0--2h--2--2----0--0----0--2h--2--2----2--2----|
|0------0--0----3--3----0------0--0----2--2----0------0--0----3--3----|
|---------------------------------------------------------------------|


Choral Verse:
|----3----3----3--3------2----2----2--2----|
|----1----1----1--1------3----3----3--3----|
|----0----0----0--0------2----2----2--2----|
|----2----2----2--2------0----0----0--0----|
|----0----0----0--0------------------------|
|------------------------------------------|
       At last,_    the sun_ is shinin'_ the_


|3----3--3----3--3----2----2--2----2--2--2--|
|1----1--1----1--1----3----3--3----3--3--3--|
|0----0--0----0--0----2----2--2----2--2--2--|
|2----2--2----2--2----0----0--0----0--0--0--|
|0----0--0----0--0--------------------------|
|-------------------------------------------|
clouds of blue roll by.__


|1--1--1--1----1--1----0--0--0--0----0--0----|
|0--0--0--0----0--0----1--1--1--1----1--1----|
|0--0--0--0----0--0----0--0--0--0----0--0----|
|0--0--0--0----0--0----2--2--2--2----2--2----|
|2--2--2--2----2--2----3--3--3--3----3--3----|
|3--3--3--3----3--3--------------------------|
With flames__ from the dra-gon of dark-ness the


|1--1--1--1----1--1----0--0--0--0----0--0----|
|0--0--0--0----0--0----1--1--1--1----1--1----|
|0--0--0--0----0--0----0--0--0--0----0--0----|
|0--0--0--0----0--0----2--2--2--2----2--2----|
|2--2--2--2----2--2----3--3--3--3----3--3----|
|3--3--3--3----3--3--------------------------|
sun - light it blinds his eyes.______________

Bridge:
Mandolins 1 and 2
|----12--12----------12--12----------12--12----------12--12----------12--12----------12--12------|
|13--13--13--13--13--13--13--13--13--13--13--13--13--13--13--13--13--13--13--13--13--13--13--13--|
|14----------14--14----------14--14----------14--14----------14--14----------14--14----------14--|
|------------------------------------------------------------------------------------------------|
|------------------------------------------------------------------------------------------------|
|------------------------------------------------------------------------------------------------|
|________________________________________________________________________________________________
|                   (Male Voice) Ah,______________________________________________________
|Mandolin 3
|------------------------------------------------------------------------------------------------|
|------------------------------------------------------------------------------------------------|
|------------------------------------------------------------------------------------------------|
|------------------------------------------------------------14----------------------------------|
|------------------------------------------------------------------------------------------------|
|------------------------------------------------------------------------------------------------|
|Finger Picked Guitar
|------------------------------------------------------------------------------------------------|
|--------------------0---------------0---------------0---------------0---------------0-----------|
|------------------------2---------------2---------------2---------------2-----------------------|
|----------------2---------------2---------------2---------------2---------------2-------2-------|
|------------0---------------0---------------0---------------0---------------0-------------------|
|------------------------------------------------------------------------------------------------|


___________________________________________________________________
|----12--12----------12--12----------12--12----------12--12----------12--12----------12--12------|
|13--13--13--13--13--13--13--13--13--13--13--13--13--13--13--13--13--13--13--13--13--13--13--13--|
|14----------14--14----------14--14----------14--14----------14--14----------14--14----------14--|
|------------------------------------------------------------------------------------------------|
|------------------------------------------------------------------------------------------------|
|------------------------------------------------------------------------------------------------|
|___                                                                         Ah,________
|------------------------------------------------------------------------------------------------|
|------------------------------------------------------------------------------------------------|
|------------------------------------------------------------------------------------------------|
|----------------------------12------------------------------------------------------------------|
|------------------------------------------------------------------------------------------------|
|------------------------------------------------------------------------------------------------|
|
|------------------------------------------------------------------------------------------------|
|--------0---------------0---------------0---------------0---------------0---------------0-------|
|------------2---------------2---------------2---------------2---------------2---------------2---|
|----2---------------2---------------2---------------2---------------2---------------2-----------|
|0---------------0---------------0---------------0---------------0---------------0---------------|
|------------------------------------------------------------------------------------------------|

|----12--12----------12--12----------12--12----------12--12----------12--12----------12--12------|
|13--13--13--13--13--13--13--13--13--13--13--13--13--13--13--13--13--13--13--13--13--13--13--13--|
|14----------14--14----------14--14----------14--14----------14--14----------14--14----------14--|
|------------------------------------------------------------------------------------------------|
|------------------------------------------------------------------------------------------------|
|------------------------------------------------------------------------------------------------|
|____             Ooh,_____________      Ooh,_____________Ah,____________________________
|------------------------------------------------------------------------------------------------|
|------------------------------------------------------------------------------------------------|
|------------------------------------------------------------------------------------------------|
|13--------------------------------------------------------------14------------------------------|
|------------------------------------------------------------------------------------------------|
|------------------------------------------------------------------------------------------------|
|
|------------------------------------------------------------------------------------------------|
|--------0---------------0---------------0---------------0---------------0---------------0-------|
|------------2---------------2---------------2---------------2---------------2---------------2---|
|----2---------------2---------------2---------------2---------------2---------------2-----------|
|0---------------0---------------0---------------0---------------0---------------0---------------|
|------------------------------------------------------------------------------------------------|


|----12--12----------12--12----------12--12----------12--12----------12--12----------12--12------|
|13--13--13--13--13--13--13--13--13--13--13--13--13--13--13--13--13--13--13--13--13--13--13--13--|
|14----------14--14----------14--14----------14--14----------14--14----------14--14----------14--|
|------------------------------------------------------------------------------------------------|
|------------------------------------------------------------------------------------------------|
|------------------------------------------------------------------------------------------------|
|________________________________________________________________________________________________
|------------------------------------------------------------------------------------------------|
|------------------------------------------------------------------------------------------------|
|------------------------------------------------------------------------------------------------|
|--------------------------------13--------------------------------------------------------------|
|------------------------------------------------------------------------------------------------|
|------------------------------------------------------------------------------------------------|
|
|------------------------------------------------------------------------------------------------|
|--------0---------------0---------------0---------------0---------------0---------------0-------|
|------------2---------------2---------------2---------------2---------------2---------------2---|
|----2---------------2---------------2---------------2---------------2---------------2-----------|
|0---------------0---------------0---------------0---------------0---------------0---------------|
|------------------------------------------------------------------------------------------------|


|----12--12----------12--12----------12--12----------12--12----------12--12----------12--12------|
|13--13--13--13--13--13--13--13--13--13--13--13--13--13--13--13--13--13--13--13--13--13--13--13--|
|14----------14--14----------14--14----------14--14----------14--14----------14--14----------14--|
|------------------------------------------------------------------------------------------------|
|------------------------------------------------------------------------------------------------|
|------------------------------------------------------------------------------------------------|
|________________________________________________________________________________________________
|------------------------------------------------------------------------------------------------|
|------------------------------------------------------------------------------------------------|
|------------------------------------------------------------------------------------------------|
|12--------------------------------------------------------------13------------------------------|
|------------------------------------------------------------------------------------------------|
|------------------------------------------------------------------------------------------------|
|
|------------------------------------------------------------------------------------------------|
|--------0---------------0---------------0---------------0---------------0---------------0-------|
|------------2---------------2---------------2---------------2---------------2---------------2---|
|----2---------------2---------------2---------------2---------------2---------------2-----------|
|0---------------0---------------0---------------0---------------0---------------0---------------|
|------------------------------------------------------------------------------------------------|


|----12--12----------12--12------|
|13--13--13--13--13--13--13--13--|
|14----------14--14----------14--|
|--------------------------------|
|--------------------------------|
|--------------------------------|
|
|--------------------------------|
|--------------------------------|
|--------------------------------|
|--------------------------------|
|--------------------------------|
|--------------------------------|
|
|--------------------------------|
|--------0---------------0-------|
|------------2---------------2---|
|----2---------------2-----------|
|0---------------0---------------|
|--------------------------------|


Mandolins 1 and 2
|--------12--12--12--12--12--12--12--12--12--12--12--12--12--12--|
|--------12--12--12--12--12--12--12--15------15--15--13--12--12--|
|----------------------------------------------------------------|
|x---x-----------------------------------------------------------|
|----------------------------------------------------------------|
|----------------------------------------------------------------|
|Ah,_____________________________________________________________
|Finger style Guitar*
|--------0-----------0---------------0---------------------------|
|--------0-----------0---------------0---------------------------|
|--------0-------------------0---------------0-----------0-------|
|2---------------2-----------2---2-----------2---2-------2-------|
|2---------------2---------------2---------------2---------------|
|0---------------0---------------0---------------0---------------|
*Play fingerstyle. The low notes are strummed with the thumb
 or pick and the high notes are plucked with the fingers.


|12--12--12--12--12--12--12--12--12--12--12--12--12--12--12--12--12--12--12--12--12--12--12--12--|
|15--15--15--15--15--15--15--13--12--12--12--12--12--12--12--15--13--13--13--12--12--12--12--15--|
|--------------------------------------------12--------------------------------------12--12------|
|------------------------------------------------------------------------------------------------|
|------------------------------------------------------------------------------------------------|
|------------------------------------------------------------------------------------------------|
|__________________________________
|--------0---------------------------0-----------------------------------------------------------|
|--------0---------------------------0-----------------------------------------------------------|
|--------0-------------------0---------------0---------------0---------------0---------------0---|
|2---------------2---2---2---2---2-----------2---2---2---2---2---2---2---2---2---2---2---2---2---|
|2---------------2---2---2-------2---------------2---2---2-------2---2---2-------2---2---2-------|
|0---------------0---0---0-------0---------------0---0---0-------0---0---0-------0---0---0-------|


|12--12--12--12--12--12--12--12--12--12--12--12--12--12--12--12--12--12--12--17--14--------------|
|13--13--13--12--12--12--12--15--15--13--13--12--12--12--12--12--13--13--12----------17--13------|
|--------------------12--12--------------------------12--12------------------14--14--14--14--14--|
|------------------------------------------------------------------------------------------------|
|------------------------------------------------------------------------------------------------|
|------------------------------------------------------------------------------------------------|
|                                                                                  Bring it
|------------------------------------------------------------------------------------------------|
|------------------------------------------------------------------------------------------------|
|------------0---------------0---------------0---------------0---------------0---------------0---|
|2---2---2---2---2---2---2---2---2---2---2---2---2---2---2---2---2---2---2---2---2---2---2---2---|
|2---2---2-------2---2---2-------2---2---2-------2---2---2-------2---2---2-------2---2---2-------|
|0---0---0-------0---0---0-------0---0---0-------0---0---0-------0---0---0-------0---0---0-------|


Refrain:
|14--12--12--14*---12--15--12--14--12--12--14----12------12--14--12--12--14----12--15--12--|
|10--10--13--10----10--12--10--10--10--10--10----10--13--10--10--10--13--10----10--12--10--|
|14--14--14--14----14------14--14--14--14--14----14--14--14--14--14--14--14----14------14--|
|------------14----12--12--12--14--12--12--12----12--14--12--------------14----12--12--12--|
|------------------------------------------------------------------------------------------|
|------------------------------------------------------------------------------------------|
|Back!         Bring it back!__             Bring it back!              Bring it back!_
|0-------0---0-----3---3-------0-------0---0-----------------0-------0---0-----3---3-------|
|0-------0---0-----3---3-------0-------0---0-----1---1-------0-------0---0-----3---3-------|
|0---2h--2---2-----0---0-------0---2h--2---2-----0---0-------0---2h--2---2-----0---0-------|
|0---2h--2---2-----0---0-------0---2h--2---2-----------------0---2h--2---2-----0---0-------|
|0-------0---0----(2)--2-------0-------0---0-----3---3-------0-------0---0----(2)--2-------|
|-----------------(3)--3------------------------------------------------------(3)--3-------|
Due to fingering difficulties, all notes on strings (4) and (5) are optional.


|14--12--12--14----12------12--14--12--12--14----12--15--12--14--12--12--14----12------12--|
|10--10--10--10----10--13--10--10--10--10--10----10--12--10--10--10--10--10----10--13--10--|
|14--14--14--14----14--14--14--14--14--14--14----14------14--14--14--14--14----14--14--14--|
|14--12--12--12----12--14--12--------------14----12--12--12--14--12--12--12----12--14--12--|
|------------------------------------------------------------------------------------------|
|------------------------------------------------------------------------------------------|
|___     Bring it back!___            Bring it back!___             Bring it back!__
|0-------0---0-----------------0-------0---0-----3---3-------0-------0---0-----------------|
|0-------0---0-----1---1-------0-------0---0-----3---3-------0-------0---0-----1---1-------|
|0---2h--2---2-----0---0-------0---2h--2---2-----0---0-------0---2h--2---2-----0---0-------|
|0---2h--2---2-----------------0---2h--2---2-----0---0-------0---2h--2---2-----------------|
|0-------0---0-----3---3-------0-------0---0----(2)--2-------0-------0---0-----3---3-------|
|-----------------------------------------------(3)--3-------------------------------------|


|14--12--12--14----12--15--12--14--12--12--14----12------12------17--17--17--17--17--17--17--|
|10--10--13--10----10--12--10--10--10--10--10----10--13--10--10--10--10--10--10--10--10--10--|
|14--14--14--14----14------14--14--14--14--14----14--14--14--14--14--14--14--14--14--14--14--|
|------------14----12--12--12--14--12--12--12----12--14--12-(12)-12--12--12--12--12--12--12--|
|--------------------------------------------------------------------------------------------|
|--------------------------------------------------------------------------------------------|
|___            Bring it back!___                              Oh     now,    oh
|0-------0---0-----3---3-------0-------0---0-----------------2---------------2---------------|
|0-------0---0-----3---3-------0-------0---0-----1---1-------3---------------3---------------|
|0---2h--2---2-----0---0-------0---2h--2---2-----0---0-------2---------------2---------------|
|0---2h--2---2-----0---0-------0---2h--2---2-----------------0---------------0---------------|
|0-------0---0----(2)--2-------0-------0---0-----3---3---------------------------------------|
|-----------------(3)--3---------------------------------------------------------------------|


|17--15--14--12--12--12--12--17--15--14--12--12------12--14--12------12--12--17----12--12--12--|
|10--10--10--10--13--13--13--10--10--10--13--13--13--13--13--13--13--13--13--------13--13--13--|
|14--14--14--14--------------14--14--14--14------14--------------14----------------14--14--14--|
|12--12--12------------------12--12--12-(12)---------------------------------------------------|
|----------------------------------------------------------------------------------------------|
|----------------------------------------------------------------------------------------------|
|now,    oh      now.___                 Oh    now,      oh      now, oh now.Bring it back!_
|2---------------2---2-----------2---------------2---------------2--------------2--------------|
|3---------------3---3-----------3---------------3---------------3--------------3--------------|
|2---------------2---2-----------2---------------2---------------2--------------2--------------|
|0---------------0---0-----------0---------------0---------------0--------------0--------------|
|----------------------------------------------------------------------------------------------|
|----------------------------------------------------------------------------------------------|


|14--14--12--14----12--15--12--14--14--12--14----12--12--12--|
|10--10--10--10----10--12--10--10--10--10--10----------------|
|14--14--14--14----14------14--14--14--14--14----16--16b-16--|
|-----------------------------(14)-14--14--14----14--14--14--|
|-----------------------------(10)-10------------------------|
|------------------------------------------------------------|
|__            Bring it back!__               Bring it back!_
|0-------0---0-----3---3-------0-------0---0-----------------|
|0-------0---0-----3---3-------0-------0---0-----1---1-------|
|0---2h--2---2-----0---0-------0---2h--2---2-----0---0-------|
|0---2h--2---2-----0---0-------0---2h--2---2-----------------|
|0-------0---0----(2)--2-------0-------0---0-----3---3-------|
|-----------------(3)--3-------------------------------------|


|14--12--12--14----12--15--12--14--12--12--14------12------------17--17--17--17----17--17--|
|10--10--10--10----10--12--10--10--10--10--10--10--10--13--13----10--10--10--10----10--10--|
|14--14--14--14----14------14--14--14--14--14--14--14--14--14---(14)-14--14--14----14--14--|
|14--14--14--14----12--12--12--14--14--14-(14)------------------(12)-12--12--12----12--12--|
|------------------10--10--10--10--10--10-(10)---------------------------------------------|
|------------------------------------------------------------------------------------------|
|___           Bring it back!__                                      Oh    now,    oh
|0-------0---0-----3---3-------0-------0---0-------------------2-------------2-------------|
|0-------0---0-----3---3-------0-------0---0-------1---1-------3-------------3-------------|
|0---2---2---2-----0---0-------0---2h--2---2-------0---0-------2-------------2-------------|
|0---2---2---2-----0---0-------0---2h--2---2-------------------0-------------0-------------|
|0-------0---0----(2)--2-------0-------0---0-------3---3-----------------------------------|
|-----------------(3)--3-------------------------------------------------------------------|


|17--15--14--12--12--17--15--14--12----------15----------------15------14----------------|
|10--10--10--10--10--10--10--10--10--13--12--10----13--12--10--10------10----13--12------|
|14--14--14--14--14--14--14--14--14----------14------------14--14------14----14--14--14--|
|12--12--12--12--12--12--12--12--12----------12----------------12------12----12--12-(12)-|
|----------------------------------------------------------------------------10--10-(10)-|
|----------------------------------------------------------------------------------------|
|now     oh      now     oh.             Oh      now   oh      now, oh  now. Bring it!
|2---------------2---------------2---2---2---2---------2---------------2---------2-------|
|3---------------3---------------3---3---3---3---------3---------------3---------3-------|
|2---------------2---------------2---2---2---2---------2---------------2---------2-------|
|0---------------0---------------0---0---0---0---------0---------------0---------0-------|
|----------------------------------------------------------------------------------------|
|----------------------------------------------------------------------------------------|


|-14--14--12--14----12--15--12--14--12----14----12----------|
|-10--10--10--10----10--10--10--10--10----10----10--13------|
|-14--14--14--14----14--14--14--14--14----14----14--14--14--|
|(14)-14--14--14----12--12--12--14--14----14----12-(14)-----|
|-------------10----10--10--10------------------10-(10)-----|
|-----------------------------------------------------------|
|   Bring it!    Bring it!  Bring it!  Bring it!_ Bring it!
|-0---0---0---0--0--0---0---0---0---0--0--0--0--0---0---0---|
|-0---0---0---0--0--0---0---0---0---0--0--0--0--0---0---0---|
|-2---2---2---2--2--2---2---2---2---2--2--2--2--2---2---2---|
|-2---2---2---2--2--2---2---2---2---2--2--2--2--2---2---2---|
|-0---0---0---0--0--0---0---0---0---0--0--0--0--0---0---0---|
|-----------------------------------------------------------|


|-14--14--12--14----12--15--12--14--12----14----12----------|
|-10--10--10--10----10--10--10--10--10----10----10--13------|
|-14--14--14--14----14--14--14--14--14----14----14--14--14--|
|(14)-14--14--14----12--12--12--14--14----14----12-(14)-----|
|-------------10----10--10--10------------------10-(10)-----|
|-----------------------------------------------------------|
|Bring it!   Bring it! Bring it!__ Bring it! Bring it! Bring
|-0---0---0---0--0--0---0---0---0---0--0--0--0--0---0---0---|
|-0---0---0---0--0--0---0---0---0---0--0--0--0--0---0---0---|
|-2---2---2---2--2--2---2---2---2---2--2--2--2--2---2---2---|
|-2---2---2---2--2--2---2---2---2---2--2--2--2--2---2---2---|
|-0---0---0---0--0--0---0---0---0---0--0--0--0--0---0---0---|
|-----------------------------------------------------------|


|-14--14--12--14----15--15--15--14--14----14----12----------14--14--12--14----15--15--15--|
|-10--10--10--10----10--10--10--10--10----10----10--13--13--10--10--10--10----10--10--10--|
|-14--14--14--14----14--14--14--14--14----14----14--14--14--14--14--14--14----14--14--14--|
|(14)-14--14--14----12--12--12--14--14----14----12--14--14-(14)-14--14--14----12--12-(12)-|
|(10)-10--10--10----10--10--10--10--10----10----10--10--10-(10)-10--10--10----10--10-(10)-|
|-----------------------------------------------------------------------------------------|
|it!___________________________________________________________
|-0-------0---0-----3---3-------0------0--0-----------------0-------0---0-----3---3-------|
|-0-------0---0-----3---3-------0------0--0-----1---1-------0-------0---0-----3---3-------|
|-0---2h--2---2-----0---0-------0---2h-2--2-----0---0-------0---2h--2---2-----0---0-------|
|-0---2h--2---2-----0---0-------0---2h-2--2-----------------0---2h--2---2-----0---0-------|
|-0-------0---0----(2)--2-------0------0--0-----3---3-------0-------0---0----(2)--2-------|
|------------------(3)--3----------------------------------------------------(3)--3-------|


|14--14----14----12----------14--14----14--15--15--15--14--12--14------------12--12--14--|
|10--10----10----10--13--13--10--10----10--10--10--10--10--10--10----13--13--10--10--10--|
|14--14----14----14--14--14--14--14----14--14--14--14--14--14--14----14--14--14--14-(14)-|
|14--14----14----12--14-(14)(14)-14----14--12--12--12--14--14--14----14--14--14--14-(14)-|
|10--10----10----10--10-(10)(10)-10----10--10--10--10--10--10--10------------------------|
|----------------------------------------------------------------------------------------|
|
|0------0--0------------0------0--0----3--3----0------0--0------------|
|0------0--0----1--1----0------0--0----3--3----0------0--0----1--1----|
|0--2h--2--2----0--0----0--2h--2--2----0--0----0--2h--2--2----0--0----|
|0--2h--2--2------------0--2h--2--2----0--0----0--2h--2--2------------|
|0------0--0----3--3----0------0--0---(2)-2----0------0--0----3--3----|
|-------------------------------------(3)-3---------------------------|
These 2 parts arn't going to be even but if you listen to it you should figure it out.


|-14--14----14--15--15--15--14--12--14------------12--12--14--|
|-10--10----10--10--10--10--10--10--10----13--13--10--10--10--|
|-14--14----14--14--14--14--14--14--14----14--14--14--14--14--|
|(14)-14----14--12--12--12--14--14--14----14--14--14--14--14--|
|(10)-10----10--10--10--10--10--10--10------------------------|
|-------------------------------------------------------------|
|
|0------0--0----3--3----0------0--0------------|
|0------0--0----3--3----0------0--0----1--1----|
|0--2h--2--2----0--0----0--2h--2--2----0--0----|
|0--2h--2--2----0--0----0--2h--2--2------------|
|0------0--0---(2)-2----0------0--0----3--3----|
|--------------(3)-3---------------------------|


|-14--14----14--15--15--15--14--12--14------------12--12--14--|
|-10--10----10--10--10--10--10--10--10----13--13--10--10--10--|
|-14--14----14--14--14--14--14--14--14----14--14--14--14--14--|
|(14)-14----14--12--12--12--14--14--14----14--14--14--14--14--|
|(10)-10----10--10--10--10--10--10--10------------------------|
|-------------------------------------------------------------|
|
|0------0--0----3--3----0------0--0------------|
|0------0--0----3--3----0------0--0----1--1----|
|0--2h--2--2----0--0----0--2h--2--2----0--0----|
|0--2h--2--2----0--0----0--2h--2--2------------|
|0------0--0---(2)-2----0------0--0----3--3----|
|--------------(3)-3---------------------------|


Begin fade out
|-14--14----14--15--15--15--14--12--14------------12--12--14--|
|-10--10----10--10--10--10--10--10--10----13--13--10--10--10--|
|-14--14----14--14--14--14--14--14--14----14--14--14--14-(14)-|
|(14)-14----14--12--12--12--14--14--14----14--14--14--14-(14)-|
|(10)-10----10--10--10--10--10--10--10------------------------|
|-------------------------------------------------------------|
|
|0------0--0----3--3----0------0--0------------|
|0------0--0----3--3----0------0--0----1--1----|
|0--2h--2--2----0--0----0--2h--2--2----0--0----|
|0--2h--2--2----0--0----0--2h--2--2------------|
|0------0--0---(2)-2----0------0--0----3--3----|
|--------------(3)-3---------------------------|


|-14--14-14-14--14----14-14-15--15--14--14-14-14--14--------------12--|
|-10--10-10-10--10----10-10-12--12--10--10-10-10--10----13-13-13--13--|
|-14--14-14-14--14----14-14---------14--14-14-14--14----12-12-12--12--|
|(14)-14-14-14--14----14-14-12--12--14--14-14-14--14----10-10-10-(10)-|
|(10)-10-10-10--10----10-10-10--10--10--10-10-10--10----10-10-10-(10)-|
|---------------------------------------------------------------------|
|
|0------0--0----3--3----0------0--0------------|
|0------0--0----3--3----0------0--0----1--1----|
|0--2h--2--2----0--0----0--2h--2--2----0--0----|
|0--2h--2--2----0--0----0--2h--2--2------------|
|0------0--0---(2)-2----0------0--0----3--3----|
|--------------(3)-3---------------------------|


|-14--14-14-14--14----14-14-15--15--14--14-14-14--14--------------12--|
|-10--10-10-10--10----10-10-12--12--10--10-10-10--10----13-13-13--13--|
|-14--14-14-14--14----14-14---------14--14-14-14--14----12-12-12--12--|
|(14)-14-14-14--14----14-14-12--12--14--14-14-14--14----10-10-10-(10)-|
|(10)-10-10-10--10----10-10-10--10--10--10-10-10--10----10-10-10-(10)-|
|---------------------------------------------------------------------|
|
|0------0--0----3--3----0------0--0------------|
|0------0--0----3--3----0------0--0----1--1----|
|0--2h--2--2----0--0----0--2h--2--2----0--0----|
|0--2h--2--2----0--0----0--2h--2--2------------|
|0------0--0---(2)-2----0------0--0----3--3----|
|--------------(3)-3---------------------------|


|-14--14-14-14--14----14-14-15--15--14--14-14-14--14--------------12--|
|-10--10-10-10--10----10-10-12--12--10--10-10-10--10----13-13-13--13--|
|-14--14-14-14--14----14-14---------14--14-14-14--14----12-12-12--12--|
|(14)-14-14-14--14----14-14-12--12--14--14-14-14--14----10-10-10-(10)-|
|(10)-10-10-10--10----10-10-10--10--10--10-10-10--10----10-10-10-(10)-|
|---------------------------------------------------------------------|
|
|0------0--0----3--3----0------0--0------------|
|0------0--0----3--3----0------0--0----1--1----|
|0--2h--2--2----0--0----0--2h--2--2----0--0----|
|0--2h--2--2----0--0----0--2h--2--2------------|
|0------0--0---(2)-2----0------0--0----3--3----|
|--------------(3)-3---------------------------|


|---14--14--14--14--12--------------17--12--12--12--------------|
|---10--10--10--10--10--13--12--10--10--10--13--12--10--10--10--|
|--(14)-14--14--14--14----------14--14--14----------14--14--14--|
|--(12)-12--12--12--12--12--12--12--12--12--12--12--10--10--12--|
|---------------------------------------------------------------|
|---------------------------------------------------------------|
|
|0------0--0----3--3----0------0--0------------|
|0------0--0----3--3----0------0--0----1--1----|
|0--2h--2--2----0--0----0--2h--2--2----0--0----|
|0--2h--2--2----0--0----0--2h--2--2------------|
|0------0--0---(2)-2----0------0--0----3--3----|
|--------------(3)-3---------------------------|


                                                                         Fade out
|----------------14--14--14--14----14----12----14----12----15----12----15----12--|
|10--13--12--10--10--10--10--10----10----10----10----10----10----10----10----10--|
|14----------14--14--14--14--14----14----14----14----14----14----14----14----14--|
|12--14--14--14--14--14--10-(12)---12--------------------------------------------|
|--------------------------------------------------------------------------------|
|--------------------------------------------------------------------------------|
|
|0------0--0----3--3----0------0--0------------0------0--0----3--3----|
|0------0--0----3--3----0------0--0----1--1----0------0--0----3--3----|
|0--2h--2--2----0--0----0--2h--2--2----0--0----0--2h--2--2----0--0----|
|0--2h--2--2----0--0----0--2h--2--2------------0--2h--2--2----0--0----|
|0------0--0---(2)-2----0------0--0----3--3----0------0--0---(2)-2----|
|--------------(3)-3-----------------------------------------(3)-3----|


Misty Mountain hop
Led Zeppelin IV
Led Zeppelin

A: E----------------------------------------------------------------------------------------|
   B----------------------------------------------------------------------------------------|
   G--(2)------------(2)-----------(2)-----------(2)-----------(2)-----------(2)------------|
   D---2----------2---2---------2---2---------2---2---------2---2---------2---2---------2---|
   A---0--------------0-------------0-------------0-------------0-------------0-------------|
   E------3b5--0----0---3b5--0----0---3b5--0----0---3b5--0----0---3b5--0----0---3b5--0----0-|


B: E-------------------------------------------------------------|
   B---6--7--5--6--7(7)--5--6--7(7)--5--6--7(7)-5--6--7(7)--5--7-|
   G---6--7--5--6--7(7)--5--6--7(7)--5--6--7(7)-5--6--7(7)--5--7-|
   D---6--7--5--6--7(7)--5--6--7(7)--5--6--7(7)-5--6--7(7)--5--7-|
   A---4--5--3--4--5(5)--3--4--5(5)--3--4--5(7)-3--4--5(5)--3--5-|
   E-------------------------------------------------------------|

A x4

B

A x4

C: E-----------2------------------|
   B---------3---3----------------|
   G-------2-------2---------0----|
   D---0-------------------0------|
   A---------------------2--------|
   E-----------------0h3----------|

A x2  |  C   |  A x4  |  B  |

A x4  |  B   |  A x4  |  C  |

A x2  |  C   |  A x6  |  B  |

A x4  |  B   |  A x4  |  B  |

A x4  |  C   |  A x2  |  C  |

Now don't play anything for about 2 measures. Then comes the solo.

Solo:
E-----------------------------------------------------------------------|
B-----------------------------------------------------------------------|
G---\6--4--0h2h4---\6--4--0h2h4---\6--4--0h2h4---\6--4--0h2h4---\11-9---|
D-----------------------------------------------------------------------|
A-----------------------------------------------------------------------|
E-----------------------------------------------------------------------|

E-----------------------------------------------------------------------|
B-----------------------------------------------------------------------|
G--7-9---12\11--9--7-9---12\11--9--7-9---12\11--9--7-9------11p9--------|
D------------------------------------------------------------------12p9-|
A-----------------------------------------------------------------------|
E-----------------------------------------------------------------------|

E------10----------------------------------------------10--------------|
B---------10b12-10--8---8-10------------------------------10b12---10---|
G---------------------9-------------------11p9-------------------------|
D--12---------------------------7b9--------------12p9------------------|
A----------------------------------------------------------------------|
E----------------------------------------------------------------------|

E-------------------|
B--8---8-10---------|
G----9-------7b9----| Immediately play the next part - no break
D-------------------|
A-------------------|
E-------------------|

E---7/8----7-5-7----------7/9----7-5-7----------|
B-----------------5h7p5-----------------5h7p5---|
G-----------------------------------------------|
D-----------------------------------------------|
A-----------------------------------------------|
E-----------------------------------------------|

E---7/8----7-5-7----------7/9----7-5-7-------------7/8----7-5-7----------7/9----7-5-7----------|
B-----------------5h7p5-----------------5h7p5--------------------5h7p5-----------------5h7p5---|
G----------------------------------------------------------------------------------------------|
D----------------------------------------------------------------------------------------------|
A----------------------------------------------------------------------------------------------|
E----------------------------------------------------------------------------------------------|

E---7/8----7-5-7---------|
B-----------------5h7p5--|
G------------------------|
D------------------------|
A------------------------|
E------------------------|

B  |  A x4  |  B  |  A X4  |

C  |  A x2  |  C  |  A x6  |

Play this till the song fades out.


Stairway to heaven
Led Zeppeling

 
E-------5-7-----7-|-8-----8-2-----2-|-0---------0-----|-----------------|
B-----5-----5-----|---5-------3-----|---1---1-----1---|-0-1-1-----------|
G---5---------5---|-----5-------2---|-----2---------2-|-0-2-2-----------|
D-7-------6-------|-5-------4-------|-3---------------|-----------------|
A-----------------|-----------------|-----------------|-2-0-0---0--/8-7-|
E-----------------|-----------------|-----------------|-----------------|
 
E---------7-----7-|-8-----8-2-----2-|-0---------0-----|-----------------|
B-------5---5-----|---5-------3-----|---1---1-----1---|-0-1-1-----------|
G-----5-------5---|-----5-------2---|-----2---------2-|-0-2-2-----------|
D---7-----6-------|-5-------4-------|-3---------------|-----------------|
A-0---------------|-----------------|-----------------|-2-0-0-------0-2-|
E-----------------|-----------------|-----------------|-----------------|
 
E-------0-2-----2-|-0-----0----------|---------3-----3-|
B-----------3-----|---1-----0h1------|-1-----1---0-----|
G-----0-------2---|-----2-------2----|---0---------0---|
D---2-----0-------|-3----------------|-----2-----------|
A-3---------------|---------0----0-2-|-3---------------|
E-----------------|------------------|---------3-------|
                                                               Intro end.
E---------2-----2-|-0-----0----------|---------------2-|-0-0-0-----------|
B-------1---3-----|---1-----0-1------|-------1-----3---|-1-1-1-----------|
G-----0-------2---|-----2-------2----|-----0-----2-----|-2-2-2-----------|
D---2-----0-------|-3----------------|---2-----0-------|-3-3-3-----------|
A-3---------------|---------0----0-2-|-3---------------|-----------------|
E-----------------|------------------|-----------------|-----------------|
                                                               Theres a
 
E-------5-7-----7-|-8-----8-2-----2-|-0---------0-----|-----------------|
B-----5-----5-----|---5-------3-----|---1---1-----1---|-0-1-1-----------|
G---5---------5---|-----5-------2---|-----2---------2-|-0-2-2-----------|
D-7-------6-------|-5-------4-------|-3---------------|-----------------|
A-----------------|-----------------|-----------------|-2-0-0-----------|
E-----------------|-----------------|-----------------|-----------------|
 lady whos         glitter            buying a          heaven When she
 
E-------5-7-----7-|-8-----8-2-----2-|-0---------0-----|-----------------|
B-----5-----5-----|---5-------3-----|---1---1-----1---|-0-1-1-----------|
G---5---------5---|-----5-------2---|-----2---------2-|-0-2-2-----------|
D-7-------6-------|-5-------4-------|-3---------------|-----------------|
A-----------------|-----------------|-----------------|-2-0-0-------0-2-|
E-----------------|-----------------|-----------------|-----------------|
  gets there        stores are       ord she can get    came for
 
E---------2-----2-|-0-----0---------------|---------3-----3-|-3^2-2-2-------|
B-------1---3-----|---1----1--0-1---------|-1---1-1---0-----|-3---3-3-------|
G-----0-------2---|-----2---------2-------|---0-0-------0---|-2-----2-------|
D---2-----0-------|-3---------------------|-----2-----------|-0-----0-------|
A-3---------------|-----------0------0-2--|-3---------------|-----------0-2-|
E-----------------|-----------------------|---------3-------|---------------|
  Oooh              oooh           and shes buying a          heaven   Theres
 
E-------0-2-----2-|-0-----------------|---------2-----2-|-0-0-0-----------|
B-----------3-----|---1--1--0 1-------|-1-----1---3-----|-1-1-1-----------|
G-----0-------2---|-----2-------2-----|---0---------2---|-2-2-2-----------|
D---2-----0-------|-3-----------------|-----2---0-------|-3-3-3-----------|
A-3---------------|---------------0-2-|-3---------------|-----------------|
E-----------------|-------------------|-----------------|-----------------|
  sign on     she  wants         you   know         two   meanings    In a
 
E-------5-7-----7-|-8-----8-2-----2-|-0---0-----0-----|-----------------|
B-----5-----5-----|---5-------3-----|---1---1-----1---|-0-1-1-----------|
G---5---------5---|-----5-------2---|---------------2-|-0-2-2-----------|
D-7-------6-------|-5-------4-------|-3---------------|-----------------|
A-----------------|-----------------|-----------------|-2-0-0---0--/8-7-|
E-----------------|-----------------|-----------------|-----------------|
  tree    theres a song        times all of our    mis  given
 
E--------5-7---7---|----8-------2------|----0-------0----|-----------------|
B-----------5-5-5--|---5-5-----3-3-----|---1--1----1-1---|-0-1-1-------3---|
G------5-----5---5-|--5---5---2---2--2-|--2----2--2---2--|-0-2-2-------0---|
D----7-----6-------|-5-----5-4-----4---|-3-------3-----3-|-------------0---|
A-0-0--------------|-------------------|-----------------|-2-0-0-------2---|
E------------------|-------------------|-----------------|-----------------|
 
|-3---3-3-3--3--0-0-|-2-------2-------|-3--3-3-3--3--0-0---7-|--5---3---5----|
|-1---1-1-1--1--1-3-|-3--3--3---3-0-0-|-1--1-1-1--1--1-1---8-|--7---5---7----|
|-2---2-2-2--2--2-2-|-2-----------0-0-|-2--2-2-2--2--2-2---9-|--7---5---7----|
|-2---2-2-2--2--2---|---0-------------|-2--2-2-2--2--2-2---0-|-------------0-|
|-------------------|-----------------|----------------------|-------------0-|
|-------------------|-----------------|----------------------|---------------|
                      Oooh it makes me wonder
|-3---3-3-3--3--0-0-|-2-------2-------|-3--3-3-3--3--0-0---7-|--5---3---5----|
|-1---1-1-1--1--1-3-|-3--3--3---3-0-0-|-1--1-1-1--1--1-1---8-|--7---5---7----|
|-2---2-2-2--2--2-2-|-2-----------0-0-|-2--2-2-2--2--2-2---9-|--7---5---7----|
|-2---2-2-2--2--2---|---0-------------|-2--2-2-2--2--2-2---0-|-------------0-|
|-------------------|-----------------|----------------------|-------------0-|
|-------------------|-----------------|----------------------|---------------|
   oooh               makes me wonder                                theres a
 
------------------|------------------------|-----------------0--|--0--------|
---------1------3-|-0h1----------1---------|-------1---------0--|--1--------|
-------0------0---|-----2-------2----------|-----0--------0--2--|--2--------|
-----2------0-----|---------2--------------|---2--------0----3--|--2--------|
-0h3------2-------|-------0----------0--2--|-3--------2------3--|--0---0-2--|
------------------|------------------------|-----------------1--|-----------|
feeling      when  look to             my    spirit          leaving  in my
whispered          all call the tune then the piper will      to  reason  &
 
----------------|--------------------|----------------0-|--0------|---------|
-------1------3-|-0h1---------1------|-------1--------1-|--1------|----1---3|
-----0------0---|-----2-----2--------|-----0-------0--2-|--2------|---0---0-|
---2------0-----|---------2----------|---2-------0----3-|--2------|--2---0--|
-3------2-------|-------0------0--2--|-3-------2------3-|--0--0-2-|-3---2---|
----------------|--------------------|----------------1-|---------|---------|
thoughts I        smoke through         voices of       looking  [goto %]
new day           those who             forests will  laugh - ter
 
|-3--3-3-3--3p-0-0---7-|--5---3---5----|-3--3-3-3--3h-0-0-|-2-----2-2-2-2-0-0-|
|-1--1-1-1--1--1-1---8-|--7---5---7----|-1--1-1-1--1--1-3-|-3-----3-3-3-3-0-0-|
|-2--2-2-2--2--2-2---9-|--7---5---7----|-2--2-2-2--2--2-0-|-2-----2-2-2-2-0-0-|
|-2--2-2-2--2--2-2---0-|----------0----|-2--2-2-2--2--2---|----0--0-----------|
|----------------------|-------------0-|------------------|-------------------|
|----------------------|---------------|------------------|-------------------|
                                                            whoah
|-3--3-3-3--3--0-0---7-|--5---3---5----|
|-1--1-1-1--1--1-1---8-|--7---5---7----|
|-2--2-2-2--2--2-2---9-|--7---5---7----|
|-2--2-2-2--2--2-2---0-|----------0----|
|----------------------|-------------0-|
|----------------------|---------------|
 
 
------------------|------------------------|-----------------0--|--0--------|
---------1------3-|-0h1----------1---------|-------1---------1--|--1--------|
-------0------0---|-----2-------2----------|-----0--------0--2--|--2--------|
-----2------0-----|---------2--------------|---2--------0----3--|--2--------|
-0h3------2-------|-------0----------0--2--|-3--------2------3--|--0---0-2--|
------------------|------------------------|-----------------1--|-----------|
If theres a bust   'edge row dont            its just a           Queen
Yes there are       go by but                 and theres still     your on
 
----------------|-3--3-3-3--3--0-0-|-2-----2-2-2-2-----|-3--3-3-3--3--0-7-|
-------1------0-|-1--1-1-1--1--1-3-|-3-----3-3-3-3-0-0-|-1--1-1-1--1--1-8-|
-----0------0---|-2--2-2-2--2--0-0-|-2--2--2-2-2-2-0-0-|-0--0-2-0--0--0-9-|
---2------0-----|-2--2-2-2--2------|----0--0-----------|-2--2-2-2--2------|
-3------2-------|------------------|-------------------|------------------|
----------------|------------------|-------------------|------------------|
                                          and it    won  der
 
-5--3--5--|-3--3-3-3--3--0-0-|-2-----2-2-2-2-0-0-|-3--3-3-3--3--0-7-|-5--3--5-|
-7--5--7--|-1--1-1-1--1--1-3-|-3--3--3-3-3-3-0-0-|-1--1-1-1--1--1-8-|-7--5--7-|
-7--5--7--|-2--2-2-2--2--0-0-|-2--2--2-2-2-2-0-0-|-0--0-2-0--0--0-9-|-7--5--7-|
----------|-2--2-2-2--2------|-------------------|-2--2-2-2--2------|---------|
--------0-|------------------|-------------------|------------------|--------0|
----------|------------------|-------------------|------------------|---------|
                                oooh
 
------------------|------------------------|-----------------0--|--0--------|
---------1------3-|-0h1----------1---------|-------1---------1--|--1--------|
-------0------0---|-----2-------2----------|-----0--------0--2--|--2--------|
-----2------0-----|---------2--------------|---2--------0----3--|--2--------|
-0h3------2-------|-------0----------0--2--|-3--------2------3--|--0---0-2--|
------------------|------------------------|-----------------1--|-----------|
Your head is        wont go                  the pipers           him
Dear lady can        blow                     your stairw     whispering wind
 
                                                          wierd time (3/4?)
-----3--------3---|--2---------0-2--|-3----0-2--3--0-2--|---3-3-2---------|
---5--------3---4-|--3-------3-3-3--|-3--3-3-3--3--3-3--|---3-3-3-3-------|
-5-----5--4-------|--2-------2-2-2--|-2--2-2-2--2--2-2--|---2-2-2-0-------|
------------------|-----------------|-0--0-0-0--0--0-0--|---0-0-0-2-------|
------------------|-----------------|-------------------|---------3-------|
------------------|-----------------|-------------------|-----------------|
 
---2-2-2---|---2--2-2--0-0-0-2-|-3-0-2--0-2-|-3-3-3-3-|---2--2-2-0-0-|-0-2-2-0|
-3-3-3-3-1-|-1-3--3-3--3-3-3-3-|-3-3-3--3-3-|-3-3-3-3-|-3-3--3-3-3-3-|-3-3-3-3|
-0-0-0-0-0-|-0-0--0-0------2-2-|-2-2-2--2-2-|-2-2-2-0-|-0-0--0-0-0-0-|-0-0-0-0|
---------2-|-----------0-0-0-0-|-0-0-0--0-0-|-0-0-0-2-|-2------------|--------|
---------3-|-------------------|------------|-------3-|--------------|--------|
-----------|-------------------|------------|---------|--------------|--------|
 
Ok this is where the solo starts.                  Am     - x02210
I'll include the chords to play over               Am7    - x02010
it they sound pretty open I think                  Fmaj7  - xx3210
its a 12 string.
 
 Am                   Am7   Fmaj7
|----------5---------------|------------------8--8-|
|------------8-5-----------|-------------8b10------|
|---7b9----------7-5---7p5-|-----------------------|
|--------------------7-----|-7p5-------------------|
|--------------------------|----8------------------|
|--------------------------|-----------------------|
  Am             Am7         Fmaj7
|--8b10---8--5  -----8--10-|-8-----------------------5-------|
|---------------8b10-------|---10-8----8h10------------8-5---|
|--------------------------|--------10-----------7b9-------7-|
|--------------------------|---------------------------------|
|--------------------------|---------------------------------|
|--------------------------|---------------------------------|
  Am             Am7          Fmaj7
|----------------------------|----5------------------------|
|----------------------------|------8-5--------------------|
|-5---7p5------------5---5-5-|----------7-5--7p5-----------|
|---7-----7-5---5-7----7-----|-5------------7----7p5-7p5---|
|-------------7--------------|---------------------------8-|
|----------------------------|-----------------------------|
 
  Am             Am7
|---------------------------------------------|
|------------------------------------------13-|
|---------10-------------------12----12-14----|
|------10----12-10----10-12/14----14----------|
|-8/12-------------12-------------------------|
|---------------------------------------------|
 Fmaj7
|------------------------15b17-15-12----------------|
|--15b17-15-13--15-13-13-------------15b17-15-13----|
|------------------------------------------------14-|
|---------------------------------------------------|
|---------------------------------------------------|
|---------------------------------------------------|
 Am                                        Am7
|----------------------------------------------------------------------------|
|-13-15b17b15p13----13-15b17b15p13----13---15b17b15p13----13--15b17b15p13----|
|----------------14----------------14------------------14-----------------14-|
|----------------------------------------------------------------------------|
|----------------------------------------------------------------------------|
|----------------------------------------------------------------------------|
 Fmaj7
|----------------------------------------------------------------------------|
|-13-15b17b15p13----13--15b17b15p13----13--15b17b15p13----13--15b17b15p13----|
|----------------14-----------------14-----------------14-----------------14-|
|----------------------------------------------------------------------------|
|----------------------------------------------------------------------------|
|----------------------------------------------------------------------------|
 
 Am                       Am7            hold bend
|------------------------------------------15b17--|
|-13--15b17b15p13----13---15b17b15p13----13-------|
|-----------------14------------------14----------|
|-------------------------------------------------|
|-------------------------------------------------|
|-------------------------------------------------|
 Fmaj7
|-b17b15-12---12--------------------------------15--|
|-----------15---15--13----13-15-13---13--15b17-----|
|-----------------------14----------14--------------|
|---------------------------------------------------|
|---------------------------------------------------|
|---------------------------------------------------|
 
                  * this slide riff is another guitar and
                  is actually played on the 1st string
                  ------8/7---8/5----
                   /
 Am          Am7 /---------\   Fmaj7
-----------------------------|-----------17----------------------------------|
-15b17b15p13----13/12--13/10-|--------20----20-20----------------------------|
-------------14--------------|--19b21-21----------19b21b19p17---19--17----19-|
-----------------------------|--------------------------------19-------19----|
-----------------------------|-----------------------------------------------|
-----------------------------|-----------------------------------------------|
 Am       Am7         Fmaj7                             Am    Am7
|--------------------|--------------------------------|--------------|
|--------------------|--------------------------------|--------------|
|-19b21--13/12 13/10-|--14b17--14b17-14--12--14--12-12b14------------|
|--------------------|--------------------------------|--------------|
|--------------------|--------------------------------|--------------|
|--------------------|--------------------------------|--------------|
 Fmaj7                               Am        Am7
|-----------------------------------|----------8/7--8/5--|
|-----------------------------------|--------------------|
|-10b14----10b12b10-9-7----7--------|-7-9-7--------------|
|-----------------------10----10----|-------10-7---------|
|-----------------------------------|--------------------|
|-----------------------------------|--------------------|
 
 Fmaj7
|----20-p17------20-p17------20-p17------20-p17------20-p17-----20b22-|
|-17--------17----------17----------17----------17----------17--------|
|---------------------------------------------------------------------|
|---------------------------------------------------------------------|
|---------------------------------------------------------------------|
|---------------------------------------------------------------------|
 
The two guitars continue into this section. Walloping (a technical term
meaning hit very hard &) the strings using the full barre sounds pretty
good. The lead basically follows the bass. You can do both (like you
can tweak the slide riff with one guitar)
 
I think i can probably tabascii the bass now, ive listened to it enough.
But ive had it for this song!! unless someone really needs it please dont
ask just yet.. Ive gotten transfixed by a few other zepplin tracks
that where on the album, their slower more melodic stuff like no quarter
down by the seaside etc..
 
  Am           G                  F  G   Am           G                F  G
|-5------------3----------------|-1--3-|-5------------3-------------|--1--3-|
|-5------------3----------------|-1--3-|-5------------3-------------|--1--3-|
|-5------------4----------------|-2--4-|-5------------4-------------|--2--4-|
|-7------------5----------------|-3--5-|-7------------5-------------|--3--5-|
|-7------------5----------------|-3--5-|-7------------5-------------|--3--5-|
|-5------------3----------------|-1--4-|-5------------3-------------|--1--4-|
 And as we   wind on down the road       Our shadows taller than our  soul
 
  Am           G               F  G    Am           G
|-5------------3-------------|-1--3--|-5------------3----------|
|-5------------3-------------|-1--3--|-5------------3----------|
|-5------------4-------------|-2--4--|-5------------4----------|
|-7------------5-------------|-3--5--|-7------------5----------|
|-7------------5-------------|-3--5--|-7------------5----------|
|-5------------3-------------|-1--4--|-5------------3----------|
 there walks a lady we all know         who shines w' light and to
 
  F                       G    Am       G
--1-----------------------3--|-------------------------------|
--1-----------------------3--|-------------------------------|
--2-----------------------4--|-------------------------------|
--3-----------------------5--|-------------------------------|
--3----------3--5h7--5--3-5--|-------------------------------|
--1----1-3h5--------------3--|-5---5--------3--3-------------|
  show                          how everything still turns to
 
                      Am           G               F  G    Am     G
|---------------------5------------3-------------|-1--3--|-5------3----------|
|---------------------5------------3-------------|-1--3--|-5------3----------|
|---------------------5------------4-------------|-2--4--|-5------4----------|
|---------------------7------------5-------------|-3--5--|-7------5----------|
|-------3--5h7--5--3--7------------5-------------|-3--5--|-7------5----------|
|-1-3h5---------------5------------3-------------|-1--4--|-5-5----3--3-------|
 gold                and if you listen very hard the tune will   come to u at
 
 
   F                     G   Am    G     F
|--1------------------------|----------0-|---0-0-0-0-----|
|--1------------------------|----------1-|---1-1-1-1-----|
|--2------------------------|----------2-|---2-2-2-2-----|
|--3------------------------|----------3-|---3-3-3-3-----|
|--3----------3--5h7--5--3--|------------|---------------|
|--1----1-3h5---------------|-5-5--3-3-1-|-1----------5-5|
  last                        when   all __  yeah
 
 Am    G       Fmaj7          Am      Am7/G      Fmaj7
|-----------0-|-0-0-0-0------|--------8-10-----|-------------------------|
|-----------1-|-1-1-1-0------|-8/10--------10--|--8h10p10----------3-3---|
|-----------2-|-2-2-2-0------|-----------------|-----------------5b7-2---|
|-----------3-|-3-3-3-0------|-----------------|---------------------3---|
|-------------|--------------|-----------------|-------------------------|
|-5-5--3-3--1-|--------------|-----------------|-------------------------|
  to be a rock  roll__
 
 
Am       Am7/G            Fmaj7              Am        Am7/G
|----------------------0--|-------------------|-------------------------|
|----5-------8------10-3--|-----13-------12---|-----13------12------13__|
|--7b9----10b12--12b14-0--|--15b17----14b16---|--15b17---14b16---15b17__|
|----------------------0--|-------------------|-------------------------|
|-------------------------|-------------------|-------------------------|
|-------------------------|-------------------|-------------------------|
 Fmaj7
|-----------------------------------------|
|-13------12-------13------15-------------|
|_17---14b16----15b17---17b19-------------|
|-----------------------------------------|
|-----------------------------------------|
|-----------------------------------------|
 
 
slow
Am        Am7/G         Fmaj7
|----------------------|-0---------------------------------------------|
|----13------12-----15-|-1----13---------------------------------------|
|-15b17---14b16--17b19-|-2-15b17---------------------------------------|
|----------------------|-3---------------------------------------------|
|----------------------|-----------------------------------------------|
|----------------------|-----------------------------------------------|
                                  And shes buying a stairway to heaven
 
@SONG: Stairway To Heaven
 
 
There's a lady who's sure
All that glitters is gold
And she's buying a stairway to heaven.
When she gets there she knows
If the stores are all closed
With a word she can get what she came for.
Ooh, ooh, and she's buying a stairway to heaven.
 
There's a sign on the wall
But she wants to be sure
'Cause you know sometimes words have two meanings.
In a tree by the brook
There's a songbird who sings,
Sometimes all of our thoughts are misgiven.
Ooh, it makes me wonder,
Ooh, it makes me wonder.
 
There's a feeling I get
When I look to the west,
And my spirit is crying for leaving.
In my thoughts I have seen
Rings of smoke through the trees,
And the voices of those who standing looking.
Ooh, it makes me wonder,
Ooh, it really makes me wonder.
 
And it's whispered that soon
If we all call the tune
Then the piper will lead us to reason.
And a new day will dawn
For those who stand long
And the forests will echo with laughter.
 
If there's a bustle in your hedgerow
Don't be alarmed now,
It's just a spring clean for the May queen.
Yes, there are two paths you can go by
But in the long run
There's still time to change the road you're on.
And it makes me wonder.
 
Your head is humming and it won't go
In case you don't know,
The piper's calling you to join him,
Dear lady, can you hear the wind blow,
And did you know
Your stairway lies on the whispering wind.
 
And as we wind on down the road
Our shadows taller than our soul.
There walks a lady we all know
Who shines white light and wants to show
How ev'rything still turns to gold.
And if you listen very hard
The tune will come to you at last.
When all are one and one is all
To be a rock and not to roll.
 
And she's buying a stairway to heaven.
 
 



comments
We did not receive enough feedback on this tab! Please rate:
print report bad tab
1 2 3 4 5
1 comment total.
0 reply
natethegreat14 wrote on March 3 2009, 07:46 pm

hey this is awesome!!!!!! it was really helpful. i learned just about every song

I want to post or [tab]
guest
You may want to rate the tab now too:
select rating
Please do not post tabs as comments. Select "correction" instead!