Oops, an error
Loading. Please wait.

Remasters Disc 2 Tab

6,519 views 9 this week
no commentswrite comment
1 2 3 4 5
excellent!
x 3
add to favorites launch autoscroll
font size
0
reset
Autoscroll
+/-
esc
set tempo
stop
Contributor
WARNING: You are trying to view
                                    content from Ultimate-Guitar.com
                                    in an unauthorized application,
                                    which is prohibited.

                                    Please use an official Ultimate
                                    Guitar Tabs application for iPhone,
                                    iPad or Android to access legitimate
                                    chords, guitar, bass, and drum tabs
                                    from Ultimate-Guitar.com database.

                                    Type "ultimate guitar tabs" in Apple
                                    App Store's or Android Market's
                                    search to find the application.
This is the complete tab for remasters disc 2. i've tabed out remasters disc 1, please check
it out too. i didn't tab out all of these. i'm simply reposting  them in the order of the 
discs. PLEASE RATE!!!!!!

Songs in order
1. The song remains the same
2.The rain song
3.Dy'er mak'er
4.No quarter
5.Houses of the holy
6.Kashmir
7.Trampeled under foot
8.Nobody's fault but mine
9.Archilies last stand
10.All my love
11.In the evening


The Song Remains the Same
Led Zeppelin


This song has 3 12-string electrics and 2 6-strings(telecaster thru supro)
Ill try to keep them all straight for you.

The intro is 1 12string banging out an open D repeatedly.  One 12-string
plays this set of chords over it:

e--2-----5-----7-----9\----14------14\-----------------------------------|
b--3-----6-----8----10\----15------15\-----------------------------------|
g--2-----5-----7-----9\----14------14\-----------------------------------|
d------------------------------------------------------------------------|
a------------------------------------------------------------------------|
E------------------------------------------------------------------------|

and the third 12 plays these chords:

e--------------12----12---------14-----14\-------------------------------|
b--7-----8-----12----14---------15-----15\-------------------------------|
g--7-----7-----12----14---------14-----14\-------------------------------|
d--7----10---------------------------------------------------------------|
a------------------------------------------------------------------------|
E------------------------------------------------------------------------|

Now one 12 stops playing and one 12 plays these chords
while the second 12 plays the same chords but with an open D-string
instead of a second fret D.
e--0----0-0--2------2-2--0---0-0--2--2-2--3--3-3-0--0-0--3--3-3--2------|
b--3----3-3--3------3-3--3---3-3--3--3-3--3--3-3-3--3-3--3--3-3--3------|
g--2----2-2--2------2-2--2---2-2--2--2-2--2--2-2-2--2-2--2--2-2--2------|
d--2----2-2--2------2-2--2---2-2--2--2-2--2--2-2-2--2-2--2--2-2--2------|
a-----------------------------------------------------------------------|
E-----------------------------------------------------------------------|

Now this chord sequence is played by 2 12's the same way
and repeat it.                  /-again the 2nd 12 plays the open D on this chd
e-2--2-2-----2--2--3--3-3----2--0-----------------------------------------|
b-3--3-3-----3--3--3--3-3----3--3-----------------------------------------|
g-2--2-2-----2--2--2--2-2----2--2-----------------------------------------|
d-0--0-0-----0--0--0--0-0----0--0-----------------------------------------|
a-------------------------------------------------------------------------|
E-------------------------------------------------------------------------|

Next is both 12's playing this:

e---0----0---0-0----0---0---0-------0--------0----0-0-0-0-0-0-0-0-0-0----|
b---1-1----1---0-0--0-----0----1--3---3-1-3-------0-0-0-0-0-0-0-0-0-0----|
g------------------------------------------------------------------------|
d-3-----------------3----------3-----------------------------------------|
a------------------------------------------------------------------------|
E------------------------------------------------------------------------|

Next one of the 6 strings come in with the 2 12's to play this:

e--0----0-0--2------2-2--0---0-0--2--2-2--3--3-3-0--0-0--3--3-3--2------|
b--3----3-3--3------3-3--3---3-3--3--3-3--3--3-3-3--3-3--3--3-3--3------|
g--2----2-2--2------2-2--2---2-2--2--2-2--2--2-2-2--2-2--2--2-2--2------|
d--2----2-2--2------2-2--2---2-2--2--2-2--2--2-2-2--2-2--2--2-2--2------|
a-----------------------------------------------------------------------|
E-----------------------------------------------------------------------|

One this next distorted part,
the six string plays this:           and 12's play this
e-------------------------------------------------2-----------------------|
b-------------------------------------------------3-----------------------|
g-------------------------------------------------2-----------------------|
d-------------------------------------------------2-----------------------|
a---------------0------------------------------0--------------------------|
E---3^4--0-3^4--0-----------------3^4--0--3^4-----------------------------|

Here is the 2 12's backing part to the first solo:

e---2------2---3--3-------5--3-------------------------------------------|
b-----3------3------3-----3--5-------------------------------------------|
g-------2-------------2--------------------------------------------------|
d-0----------------------------------------------------------------------|
a------------------------------------------------------------------------|
E------------------------------------------------------------------------|

And the first 6 string solo:

e------------------------------------------------------------------------|
b------------------------------------------------------------------------|
g-----------------------------------------------------7-9-7---7----------|
d------------------------7-9-7---9-7---7--7-7-----7-9-------9------------|
a-3^4--0--3^4--5-7p5-7/9-------9-----9-----------------------------------|
E------------------------------------------------------------------------|

e-------------7----------------------------------------10----------------|
b---------------10-7-----------------------------------------------------|
g----7--9^11---------9-7---9-7---7-9-7---7-7----7-9^11----(11)^9--7------|
d--9---------------------9-----9-------9-----9---------------------------|
a------------------------------------------------------------------------|
E------------------------------------------------------------------------|

e------------------------------------7------------------------------------|
b--7^8-7-------------------------------10-7-------------------------------|
g--------7------7-9-7---7----7-9^11---------9-7---9-7---7-----------------|
d-----------7-9-------9----9--------------------9-----9-------------------|
a-------------------------------------------------------------------------|
E-------------------------------------------------------------------------|

Now the 6 string plays this figure a few times:

e------------------------------0------------------------------------------|
b------------------------------0------------------------------------------|
g--/5-4-2---2----/5-4--2-----2--------------------------------------------|
d---------3--------------3-3----------------------------------------------|
a-------------------------------------------------------------------------|
E-------------------------------------------------------------------------|

And ends it with this:
e------------------------------------------------------------------------------|
b------------------------------------------------------------------------------|
g--/5-4-2-0--------------------------------------------------------------------|
d------------3-2-0-------------------------------------------------------------|
a------------------3-2-0-------------------------------------------------------|
E------------------------------------------------------------------------------|

The 2 12's play this after the solo: and end that section with a bunch of
                                             /-these
e--3-5---8--8--8------3--5---8--8--8--7-7---8---------------------------|
b--5-7--10-10-10------5--7--10-10-10--9-9--10---------------------------|
g-----------------------------------------------------------------------|
d----------------------------0------------------------------------------|
a-----------------------------------------------------------------------|
E-----------------------------------------------------------------------|

During the vocals, the 2 12's play on this basic pattern with a few
subtle changes on the first couple of measures.

e--0---0---------------3-----0------0-----------------------------------|
b--1---1-----3-----3h5----3--3--3-3---3p1-----0-------------------------|
g--0---0-----0-----------------------------0----------------------------|
d--2---2----------------------------------------------------------------|
a--3---3----------------------------------------------------------------|
E-----------------------------------------------------------------------|

While the 6 plays this on the first two measures.

e-----------------------3----------------------------3------------------------|
b----------------1---------------------------------3-------3---0--------------|
g-2^4^2----------------------0--0--------------5^6-----3/4---4--------0-------|
d---------0-0-2----2---------2--2------0----5---------------------0h2---------|
a----------------------------3--3---------5-----------------------------1h2---|
E---------------------------------------------------------------------------3-|

And on the third measure the 12's play this:

e-0--0----0--0---0-----------0--0----------0--0----0--0---0---0---0--0-------|
b-1--1----2--2---2-----2-----0-------0-2--------0--1----0-1-----0-1---1-0--0-|
g-0--0--------------3-----3--------3---3---3-------------------------------0-|
d-2--2----4----4----4--4--4------------------------------------------------0-|
a-3--3-----------------------------------------------------------------------|
E----------------------------------------------------------------------------|

And the 6 plays this:

e-----------------------------------7--------6-------5--5--/10-8-/13-13/12--|
b--2-----2---------------------------------5-------5------------------------|
g----------3-------------------4/7-----4/6-----4h5------5-------------------|
d----4-----4-----------------4----------------------------------------------|
a--------------------------4------------------------------------------------|
E---------------------------------------------------------------------------|

              Heres that mid section thing:

e--------15-|-(5)^7^5-5-3------3------------3-------------------------------|
b-----------|-------------------------3-----------4-------------------------|
g--14/16----|--------------3h4----3-4---3h4---3-4---3^4---------------------|
d-----------|-------------------------------------------5-------------------|
a-----------|---------------------------------------------------------------|
E-----------|---------------------------------------------------------------|

On the last measure of the vocal part, the 6 plays this:

e---------------------------------1--------5-------10--8-----8-------10--|
b-------------------------0-----1---1--------------------------10/12-----|
g---------------------------1-2-------3/5-----5/10----10-10-10-----------|
d-6^8-6^8-6-5-4 --6^8-6-4------------------------------------------------|
a------------------------------------------------------------------------|
E------------------------------------------------------------------------|
Then just bend the g-string 5th fret up and pick it as you release the bend.


The second solo is this:

e----------------------------------------7-------------------------------|
b--7-----7-----------------------------7---10-10-7-----------------------|
g--9^11--9^11--9p7h9----7-7-7-----9^11-------------9p7-9p7----7-7--------|
d---------------------9-------9----------------------------9------9------|
a------------------------------------------------------------------------|
E------------------------------------------------------------------------|

e-------7-----------------------------------------------------------------|
b---------10-7------------------------------------------------------------|
g--9^11--------9-7-9-7---7-9-7--------------------------------------------|
d----------------------9-------9-7-9-7---7-9-7---7-9-7/9-7-9-7---7--------|
a--------------------------------------9-------9---------------9----------|
E-------------------------------------------------------------------------|

e---------------------------------------10--------------------------------|
b-------------------------------------------13-10----10-------------------|
g------------------------9p7-7---7-9/11-----------12----10^11-------------|
d----------------------7-------9------------------------------12----------|
a-9\7-5-5--5-5--5h7/9-----------------------------------------------------|
E-------------------------------------------------------------------------|

e--------------------------------------------------15--------------------|
b--------13-15^17-15-------------13-15-(15)^16^17-----15^17-15-----------|
g--9/14---------------12----9/14-----------------------------------------|
d------------------------------------------------------------------------|
a------------------------------------------------------------------------|
E------------------------------------------------------------------------|

e--------------------------------------------------------------15-----------|
b--15^17--15---------------------------------------------15^17-----15^17-15-|
g-------------12-14^16^14---------16^18---14----14-16-----------------------|
d---------------------------------------------------------------------------|
a---------------------------------------------------------------------------|
E---------------------------------------------------------------------------|

e-------------------------------7----------------------------------------|
b--12^13---12^13^12---------------10-7-10-7\-----------------------------|
g--------------------14------0-------------------------------7-----------|
d-------------------------------------------------7-10-7---7-7-----------|
a---------------------------------------------7/9--------9---------------|
E------------------------------------------------------------------------|

e------------------------------------------------------------------------|
b------------------------------------------------------------------------|
g-----------------7-------------------7-7-7\-----------------------------|
d------7-10-7---7-7-------10p7----7---7-7-7\-----------------------------|
a--7/9--------9-------7/9------10---9------------------------------------|
E------------------------------------------------------------------------|

After the next vocals bit, The 12's play this chord sequence
hitting each one 3 or 4 times:
			  /--now just arpeggiate this chord
e--8--7--10---8--12---10/14---------------------------------------------|
b-10--8--12--10--13---12/15---------------------------------------------|
g------------------------16---------------------------------------------|
d-----------------------------------------------------------------------|
a-----------------------------------------------------------------------|
E-----------------------------------------------------------------------|

After that, the 12's play this:

e-0-----------------------------2---3---2---0------------0------0---------|
b-------3-------------------3----3---3---3---3---1-3---1------------------|
g-0-0-0-0--0-0-0--0-0-0-0---0-----2---2---2---2------2--------------------|
d-------------------------0-2-----------------------------------2---2---2-|
a-------------------------------------------------------------3-----3-3---|
E-------------------------------------------------------------------------|

e------------------------------------------------------------------------|
b--------------------------------3---------------------------------------|
g--------------------------------2---------------------------------------|
d--5-5-5-4-4-4-2-----------------0---------------------------------------|
a--3-3-3-2-2-2-0--7-7-7-5-5-5-5--2---------------------------------------|
E-----------------5-5-5-3-3-2-0--0---------------------------------------|

The 6 string part over that is:

e--15--------------------------------------------------------------------|
b------(15)^17^15-------------------------8^10---(8)^10^8----------------|
g------------------(14)^16^14--9--7-8-9-7------7-------------------------|
d------------------------------------------------------------------------|
a------------------------------------------------------------------------|
E------------------------------------------------------------------------|

e-15---------------------------------------------------------------------|
b----15^17^15------------------------------------------------------------|
g-------------14^16^14-14--14\12-----------------------------------------|
d--------------------------------12-12/14--------------------------------|
a------------------------------------------------------------------------|
E------------------------------------------------------------------------|

e--------------------------------7^9-7-5-----------(7)^9^7-7-5-----------|
b------------------6---5-----5------------7^9-7-5------------------------|
g------------5-5-7---7---7-7---------------------------------------------|
d------5-5-7-------------------------------------------------------------|
a--5-7-------------------------------------------------------------------|
E------------------------------------------------------------------------|
And then the power chords with the 12's and the 6

Next is as little soloing over the rythym laid down by the 2 12's and
1 6

e------------------------------------------------------------------------|
b------------------------------------------------------------------------|
g---7^9^7p5-------------2h4p2---2----------2h4p2---2------2h4p2---2------|
d-----------7-------2-4-------4--------2-4-------4--------------4--------|
a------------------------------------------------------------------------|
E------------------------------------------------------------------------|

e-------2----------------------------------------------------------------|
b---------5-2---------2----10h13p10--12-15-15^16--15-12-12---------------|
g--4^6--------4-2-4-2----------------------------------------------------|
d------------------------------------------------------------------------|
a------------------------------------------------------------------------|
E------------------------------------------------------------------------|

e------------------------------------------------------------------------|
b-------10-12-10----10----10--------10-12-10----10----12------10-12-10---|
g--9/11----------11----11------9/11----------11----11-----9/11-----------|
d------------------------------------------------------------------------|
a------------------------------------------------------------------------|
E------------------------------------------------------------------------|

e---------------------5---------------------------------------------------|
b-----10-10-------------5^7-5-3-3-----------------------------------------|
g--11-------12----------------------2p0---0-2p0---0-----------------------|
d---------------------------------------4-------4----2p0---0-2p0---0------|
a--------------------------------------------------------4-------4--------|
E-------------------------------------------------------------------------|

e------------------------------------------------------------------------|
b------------------------------------------------------------------------|
g--2p0--0---------2p0--0---------2p0---0---------------------------------|
d------4---2p0--0-----4--2p0---0-----4---2p0---0-2p0-0-------------------|
a--------------4-------------4---------------4---------------------------|
E------------------------------------------------------------------------|

e---------------------15------------------------13-14-15--------------------|
b------13-15-15^17-15----15^17-15------13-15^17----------15^17-15-13-15-13\-|
g--/14------------------------------14--------------------------------------|
d---------------------------------------------------------------------------|
a---------------------------------------------------------------------------|
E---------------------------------------------------------------------------|

Now w/heavy distortion repeat this figure a few times and end it w/
that last little chord.
e------------------------------------------------------------------------|
b------------------------------------------------------------------------|
g--------------2----------------------4p2-----------------2--------------|
d--2-2-----2-4---4-2--2-2------2-4-2------4p2-------------0--------------|
a--0-0-2/4------------0-0--2/4-------------------------------------------|
E------------------------------------------------------------------------|

Well that's about all of it.  Sorry for any mistakes.
CHUCK

From: bobz@crl.com (Robert Zawalski)
Subject: TAB: The Song Remains the Same (Led Zeppelin)


Of course you all realize that I expect a complete tab of Jethro Tull's
'The Minstrel in the Gallery' for this. ;)

guit. 1 (12 string)
E:--------------2---7---9---12\---14---14\--|
B:--------------3---8---10--13\---15---15\--|
G:--------------2---7---9---12\---14---14\--|
D:--0R--------------------------------------|
A:------------------------------------------|
E:------------------------------------------|
ride on the open d throughout (listen to tape for rythem)

guit. 2 (6 string)
E:------------------5---7---9----|
B:------------------6---8---10---|
G:------------------5---7---9----|
D:
A:
E:
========
**1**
(12 string)
E:--0-0-0---2-2-2--|
B:--3-3-3---3-3-3--|
G:--0-0-0---0-0-0--|
D:--2-2-2---2-2-2--| x3
A:--0-0-0---0-0-0--|
E:

**2**
E:--2-2-2--2-2--3-3-3--2-0--|
B:--3-3-3--3-3--3-3-3--3-3--|
G:--2-2-2--2-2--2-2-2--2-2--|
D:--0-0-0--0-0--0-0-0--0-0--|  x4
A:--------------------------|
E:--------------------------|


E:--0----0-----0----0------------0-----------0------|
B:----1----1-----0----0----1--3-----3--1--3----0----|
G:------2----2-----0----0--2---------------------0--|
D:
A:
E:
(let all notes ring) [end of **2**]

Guitar 1 goes to **1**

then

**3**
(guitar 1 (12 string))
E:---------------2------|
B:---------------3------|
G:---------------0------|  <\
D:---------------2------|    \
A:---------------0------|     \
E:                      |
(guitar 2)              x4
E:                      |
B:                     /
G:-----------2---------|      /
D:-----------2--  <----|
A:-----------0---------|
E:--2b3-2b3--0---------|
[end of **3**]
then guitar 1 does **2** (finger pick notes of chords separately)
while guitar 2 solos (the solo isn't too difficult to figure out if
ya listen to the tape..)

==
**4**
(guit. 1)
E:--5-7--8--8--8------|--5-7---8--7--8-|
B:--6-8--10-10-10-    |--6-8--10--9-10-|
G:--7-9--10-10-10- x4 |--7-9--10--9-10-| x4 (keep strumming final chord)
D:
A:
E:

(guit. 2)
E:-------------------------0---|
B:-----------------------2-----|
G:--5-4-2---2--5-4-2---2-------|x3
D:--------3----------3---------|

E:--------------------------------------|
B:--------------------------------------|
G:--5-4-2---2--5-4-2--0-----------------|
D:--------3--------------3--2--0--------|
A:--------------------------------3-2-0-|
[end of **4**]
==
(verse) (guit. 1)
chords: C C G(6) x2 (on G chord play the high 'E' open rather than 3rd fret)
(guit. 2) (the little figure he plays between the G and the C of part b))
E:------3-----------------------------------------|
B:--2^3--------3----------------------------------|
G:---------3^4-------4----------------------------|
D:---------------4^5--------5------  <--- Riff:#1-|
A:----------------------4^5-----------------------|
E:-----------------------------3------------------|

part b (guit. 1)
chords: C C F# F
(guit. 2)
E:--6---    --8-----8-----8-----10--|8/13
B:---7-- x4 ---10----10-----10------|
G:----6-    -----10----10-------10--|9/14
D:
(guit. 1)
chord: G
(while the 'G' is ringing guit. 2 plays:
             (guit.1 2nd verse)--> C        C         G
B:--10b12r10-8-10-8------8-------------8----------------|
G:------------------------------7-------------7---------|
D:-------------------8-9----8-9----8-9----8-9----8-9----|
A:----------------------------------------------------8-|
Guitar 1 begins 2nd verse (same as first) in the middle (the chords
are indicated above guit.2's tab.)

2nd verse (guitar 1)
chords: (the C C G written in above figure) and repeat (without guitar
2 until riff #1 is replayed)

then replay 'part b'
after you play that (adjust the ending appropriately)
the song gets fast again.

(guit.1) chord: G
(guit.2)
E:
B:
G:
D:--12-11-10-9-7
as guit.2 plays the '7' guit.1 begins **1** again.
then both guitars do **3**
then guit.1 does **2** (as written) while guit.2 solos.
then guit.1 does **1**
then guitars 1 and 2 do **3** and guit.3 solos
then vocals come back in and guit.1 plays **2** (play notes of chord
separately again)

(guit. 1)
E:--5-7--8--8--8------|--5-7---8--7--8-|
B:--6-8--10-10-10-    |--6-8--10--9-10-|
G:--7-9--10-10-10- x4 |--7-9--10--9-10-| x3
D:
A:
E:

(guit. 2)
E:-------------------------0---|
B:-----------------------1-----|
G:--5-4-2---2--5-4-2---2-------|x3
D:--------3----------3---------|

(guit.1)
E:--5-7---8--7--10--8---12--10--14--14-----14-----14-----|
B:--6-8--10--8--12--10--13--12--15----15-----15-----15---|
G:--7-9--10--9--12--10--14--12--16------16-----16-----16-|
D:
    | |   |  |   |  |   |   |   |
g.2 | |   |  |   |  |   |   |   |
E:--------------------------------|
B:--------------------------------|
G:--5-4---2--0--------------------|
D:---------------3--2---0---------|
A:--------------------------3-2-0-|

$$$
(guit.1)
chords: G

(guit.2)
E:--14b15----------------------------------|
B:--------15b17r15-------------------------|
G:-----------------14b16r14--12--------12--|
D:-------------------------------12^14-----|

(guit.1)
E:------0-----2-----3-----2-----0-----|
B:--------3-----3-----3-----3-----3---|
G:----------2-----2-----2-----2-----2-|
D:------------------------------------|
A:--0---------------------------------|

(guit.2)
E:-----------------------|
B:-----------------------|
G:---------12------------|
D:--12b14------14r12-10--|
repeat from $$$
then (guit.1)
chords: C

(guit.2)
E:
B:-------------------6---5-----------------------------------------|
G:------------5-5^7----7---5-7-----12b13-12-10------------13^12^10-|
D:------5-5^7------------------7----------------12-10-9------------|
A:--5^7------------------------------------------------------------|
E:
                                E:--0-0-0-|
(guit.1)                        B:--0-0-0-|
G:----------------------------------0-0-0-|
D:--5-5-5--4-4-4--2--2-2-2----------0-0-0-|
A:--3-3-3--2-2-2--0--0-0-0---5-5-4--2-2-2-|
E:---------------------------3-3-2--0-0-0-|

then guit.1 does **1** while guit.3 solos
then guitars 1 and 2 do **3** while guit.3 solos
then guit.1 does **2** while guit.3 solos
then guit.1 plays **1** while guit.3 plays this:
E:-----------------------|
B:-----------------------|
G:----------------2------|
D:-----------2-4-----4-2-|
A:--0-0--3-4-------------|
E:-----------------------|
guit.3 continues to play that lick and guitars 1 and 2 play **3**

then vocals return and guit.1 plays **2** (notes of chord broken)
then **4** is played

THE END

LEGEND:
================
--4^6- = play 4 hammer on 6-------|
--4b5- = play 4 bend up to 5------|
--5r4- = play 5 release down to 4-|
--4R- = ride on that note
====================================


The Rain Song
By Led Zeppelin:
Jimmy Page, Robert Plant, John Paul Jones, John Bonham

Tuning : 12 String accoustic
---------

Studio Tuning: D G C G C D
Live Tuning:   E A D A D E (One step higher)

Intro

---0-------0--0--0----0-------0--0--0-------------------------------------------|
----7------7--7--7-----6------6--6--6-------5-5-3-2---3----3--3-----------------|
-----0-----0--0--0------0-----0--0--0-------4-4-4-4---3----3--3-----------------|
------7----7--7--7-------6----6--6--6-------5-5-5-5---3----3--3-----------------|
-------0---0--0--0--------0---0--0--0---0---0---------0----0--0-----------------|
--------------------------------------------------------------------------------|


-----------------0---0---0---0---0---0-0-----0---0---0---0---0---0-0------------|
-----------------11--9---12--11--4---9-9-----11--9---12--11--4---9-9------------|
-----2---4-4-----0---0---0---0---0---0-0-----0---0---0---0---0---0-0------------|
-----2---2-2-----11--9---12--11--4---9-9-----11--9---12--11--4---9-9------------|
-0-0-0---0-0-----0---0---0---0---0---8-8-----0---0---0---0---0---8-8------------|
--------------------------------------------------------------------------------|

Verse
[--0----------------0---------------------------5--5--5-------5--5--5-----------|
[--10/9----9---9----9-----9---9-----------------0--0--0-------0--0--0-----------|
[--11/10---10--10---10----10--10----------------0--0--0-------0--0--0-----------|
[--12/11---11--11---10----10--10----------------5--4--0---0-4-5--4--0-----------|
[--0-------0---0----0-----0---0-------------------------------------------------|
[-------------------------------------------------------------------------------|
1) It is the springtime of my loving,  The second season I am to know...
2) Slight variation with mellotron see below
3)It is the summer of my smiles       Flee from me keepers of the gloom
4) These are the seasons of emotion And like the winds they rise and
fall


--0----------------0---------------------------5--5--5-------5--5--5------------|
--10/9----9---9----9-----9---9-----------------0--0--0-------0--0--0------------|
--11/10---10--10---10----10--10----------------0--0--0-------0--0--0------------|
--12/11---11--11---10----10--10----------------5--4--0---0-4-5--4--0------------|
--0-------0---0----0-----0---0--------------------------------------------------|
--------------------------------------------------------------------------------|
You are the sunlight in my growing,    So little warmth I've felt before
Mellotron solo
Speak to me only with your eyes ohhhh  It is to you I give this tune
This is the wonder of devotion         I see the torch we all must hold

--0----------------0----------------------------5--5--5-------5--5--5-----------|
--10/9----9---9----9-----9---9------------------0--0--0-------0--0--0-----------|
--11/10---10--10---10----10--10-----------------0--0--0-------0--0--0-----------|
--12/11---11--11---10----10--10-----------------5--4--0---0-4-5--4--0-----------|
--0-------0---0----0-----0---0--------------------------------------------------|
--------------------------------------------------------------------------------|
It isn't hard to feel Me Glowing        I watched the fire that Grew so
mellatron solo
It isn't hard to recognize These things are clear from all from time to
This is the mistery of the quotient.quotient Upon us all a little rain
must fall

--------------------------------------------------------------------------------|
-2--2--2-------------------2--2--2-------------------2--2--2--------------------|
-2--4--4---2-4-0-2---0-----2--4--4--2-4-0-2---0------2--4--4--2-4-0-2---0-------|
-2--2--2-----------4---2---3--3--3----------4---2----4--4--4----------4---2-----|
-0-----0-------------------0-----0-------------------0-----0--------------------|
--------------------------------------------------------------------------------|
low.......
mellotron solo
time....  Ooooooooh...                 oh ohhh                   oh
ohhhhhhhh
Just a little rain... Oooooh... yeah...yeah....yeah...

----2-----------------5---------------4---4------0---2--0h2p0------0--2--0h2p0---|
2-2---2-----------0-4h--4---4-----4-2p--2---2----0-----------0-----0----------0--|
2-4-----4------(4)--------4-------2--------------0------------0----0-----------0-|
5-5-------5-4------------------------------------0-----------------0-------------|
0---------------------------------4--------------2-----------------2-------------|
---------------------------------------------------------------------------------|

-------------|
-------------|
--2--4--4----|
--2--2--2----|
--0--0--0----|
-------------|

3) Goto Bridge

Second Verse with mellotron,

---0-------0--0--0----0-------0--0--0-------------------------------------------|
----7------7--7--7-----6------6--6--6-------5-5-3-2---3----3--3-----------------|
-----0-----0--0--0------0-----0--0--0-------4-4-4-4---3----3--3-----------------|
------7----7--7--7-------6----6--6--6-------5-5-5-5---3----3--3-----------------|
-------0---0--0--0--------0---0--0--0---0---0---------0----0--0-----------------|
--------------------------------------------------------------------------------|


-----------------0---0---0---0---0---0-0-----0---0---0---0---0---0-0------------|
-----------------11--9---12--11--4---9-9-----11--9---12--11--4---9-9------------|
-----2---4-4-----0---0---0---0---0---0-0-----0---0---0---0---0---0-0------------|
-----2---2-2-----11--9---12--11--4---9-9-----11--9---12--11--4---9-9------------|
-0-0-0---0-0-----0---0---0---0---0---8-8-----0---0---0---0---0---8-8------------|
--------------------------------------------------------------------------------|

--0----------------0----------------------------5--5--5-------5--5--5-----------|
--10/9----9---9------9-----------9-12h-9p-------0--0--0-------0--0--0-----------|
--11/10---10--10------10-----10-----------------0--0--0-------0--0--0-----------|
--12/11---11--11-------10-----------------------5--4--0---0-4-5--4--0-----------|
--0-------0---0----------0------------------------------------------------------|
--------------------------------------------------------------------------------|

0------------------------------0-------------------------5--5--5-------5--5--5--|
10/9----9---9------9-12h-9p------9--------9-12h-9p-------0--0--0-------0--0--0--|
11/10---10--10--10----------------10---10----------------0--0--0-------0--0--0--|
12/11---11--11---------------------10--------------------5--4--0---0-4-5--4--0--|
0-------0---0------------------------0------------------------------------------|
--------------------------------------------------------------------------------|


0------------------------------0-------------------------5--5--5-------5--5--5--|
10/9----9---9------9-12h-9p------9--------9-12h-9p-------0--0--0-------0--0--0--|
11/10---10--10--10----------------10---10----------------0--0--0-------0--0--0--|
12/11---11--11---------------------10--------------------5--4--0---0-4-5--4--0--|
0-------0---0------------------------0------------------------------------------|
--------------------------------------------------------------------------------|

---------------------------------------------------------------------------|
2--2--2-------------------2--2--2-------------------2--2--2----------------|
2--4--4---2-4-0-2---0-----2--4--4--2-4-0-2---0------2--4--4--2-4-0-2---0---|
2--2--2-----------4---2---3--3--3----------4---2----4--4--4----------4---2-|
0-----0-------------------0-----0-------------------0-----0----------------|
---------------------------------------------------------------------------|


-----2--------------5--4h5p4-----4----4---4--------|
-2-2---2-----------4--------4----2--2---2---2------|
-2-4-----4--------4----------4---2-----------------|
-5-5-------5-4---0---------------------------------|
-0-------------------------------4-----------------|
---------------------------------------------------|


------5--4h5p4-------7------7--7-------|
-----4--------4----5----5---5--5-------|
----4----------4---5------5-5--5-------|
--0------------------------------------|
-------------------7--------7--7-------|
---------------------------------------|

---------------5---------------4---4------0---2--0h2p0------0--2--0h2p0----|
-----------0-4h--4---4-----4-2p--2---2----0-----------0-----0----------0---|
--------(4)--------4-------2--------------0------------0----0-----------0--|
------------------------------------------0-----------------0--------------|
---------------------------4--------------2-----------------2--------------|
---------------------------------------------------------------------------|


Played Louder and faster
---------------------------------------------------------------------------|
-----------------------------0--0--0---------------------------------------|
-0--0--0-------5------5------0--0--0------0--------0-0------0-0-------0----|
-2--2--2-------5------5------0--0--0------2---------------------------2----|
-0--0--0----2--3----2-3---0---------0-3b4-0---2-4h-----2-4h-----0-3b4-0----|
----------0-------0--------------------------------------------------------|

Ohh...    ........ Talk Talk Talk  Talk
..................................


---------------------------------------------------------------------------|
-----------------------------0--0--0---------------------------------------|
-0--0--0-------5------5------0--0--0------0--------0-0------0-0-------0----|
-2--2--2-------5------5------0--0--0------2---------------------------2----|
-0--0--0----2--3----2-3---0---------0-3b4-0---2-4h-----2-4h-----0-3b4-0----|
----------0-------0--------------------------------------------------------|

I've felt the coldness of my winter I never thought you would ever go...


---------------------------------------------------------------------------|
-----------------------------0--0--0---------------------------------------|
-0--0--0-------5------5------0--0--0------0--------0-0------0-0-------0----|
-2--2--2-------5------5------0--0--0------2---------------------------2----|
-0--0--0----2--3----2-3---0---------0-3b4-0---2-4h-----2-4h-----0-3b4-0----|
----------0-------0--------------------------------------------------------|

I cursed the gloom they set upon us pon us but I know that I love you so


------------------------------------------------------------------------]
-----------------------------0--0--0------------------------------------]
-0--0--0-------5------5------0--0--0------0--------0-0------0-0-------0-]
-2--2--2-------5------5------0--0--0------2---------------------------2-]
-0--0--0----2--3----2-3---0---------0-3b4-0---2-4h-----2-4h-----0-3b4-0-]
----------0-------0-----------------------------------------------------]

ooohhhhhhhhhhhhhhhhhh                  but I know that I love you so.

  4)These are the seasons...


Outtro:
---------


---/9--9---9--7----7--5----------5-7h-----5--5---5-4p-----4-2-4--5---------|
---/7--7---7----7--5-------------5--------4--4---4----4---2-2-2--4---------|
---/7--7---7-------5-----------5----------4--4---4--------2-2-2--4---------|
---/7--7---7-------5----------------------0--0---0---------------0---------|
---0---0-----------0--------------------------------------4-4-4------------|
---------------------------------------------------------------------------|


---7-5-7--8----10-10---10--8--10--12/----------3---3---3---------3---3---3----|
---5-5-5--7----8---8---8------8--------------1---2---1---------1---2---1------|
---5-5-5--7----8---8---8------8------------0-----------------0----------------|
------------------------------------------------------------------------------|
---7-7-7-------10-10---10-----10--------0------------------0------------------|
------------------------------------------------------------------------------|


     p
---7-5-------5--2p0----------5p3---3----------0-----0---|
-------4------------------------4-4-4--------5-----4----|
---------3----------0------------5---5------0-----0-----|
--(0)-----------0---------0--0-------------0------------|
-------------------------------------------------4------|
--------------------------------------------------------|

-----0----0----0----0--------0------------|
----2----2----2----2--------2-------------|
---0----0----0----0--------2--------------|
--------------------------2---------------|
--2----2----2----2-------0----------------|
------------------------0-----------------|


  	 Dyer Maker Tab by Led Zeppelin, www.Ultimate-Guitar.Com

Led Zepplin- Dyer Maker tab+ chord.
Tabbed by Storm - sleazystreak@teenagedirtbag.com.

Dyer maker


Am : [577555]
G  : [355433]

(1)
    C                   Am               F               G
e:------------10s12--|-----------7s8---|----------3s5--|---------5s7-|
B:-------8-----------|------5----------|-----1---------|-----3-------|
G:-----9---9---------|----5---5--------|---2---2-------|---4---4-----|
D:--10---------------|--7--------------|-3-------------|-5-----------|
A:-------------------|-----------------|---------------|-------------|
E:-------------------|-----------------|---------------|-------------|

(2)
     C                      Am
e:-----------0---0----------0---0-----------------------|
B:-----------1---1----------1---1-------------1---------|
G:--------0------------0h2--------------0h2------0------|
D:---0h2------------------------------------------------|
A:------------------------------------------------------|
E:------------------------------------------------------|

(3)
   Am                            G
e:-5-5--5-5---5-5--5-5-5-5-5-----3-3--3-3--3-3--3-3-3-3-3------------|
B:-5-5--5-5---5-5--5-5-5-5-5-----3-3--3-3--3-3--3-3-3-3-3------------|
G:-5-5--5-5---5-5--5-5-5-5-5-----4-4--4-4--4-4--4-4-4-4-4------------|
D:-7-7--7-7---7-7--7-7-7-7-7-----5-5--5-5--5-5--5-5-5-5-5------------|
A:-7-7--7-7---7-7--7-7-7-7-7-----5-5--5-5--5-5--5-5-5-5-5------------|
E:-5-5--5-5---5-5--5-5-5-5-5-----3-3--3-3--3-3--3-3-3-3-3------------|

(4)
    F                                        G
e:----------------------------------------|--------------------------|
B:-----1------1------1------1------1------|--3-------3------------3--|
G:-------2------2------2------2------2----|----4---4---4---4----0----|
D:--3------3------3------3------3------3--|------5-------5----3------|
A:----------------------------------------|--------------------------|
E:----------------------------------------|--------------------------|

e:-------------------------|
B:-------------------------|
G:-------0---0-------------|
D:--2~-----0---------------|
A:-------------------------|
E:-------------------------|

Progression:

(1) 2x

(1) 3x w lyrics:

Oh, oh oh oh oh, you don't have to go,
Oh, oh oh oh,  you don't have to go,

                                     [Am]
Oh, oh oh oh oh, you don't have to.. go.

(2) 1x

(1) 3x w lyrics:

Ay, ay ay ay ay ay, all those tears I cry.
Ay ay ay ay, all those tears I cry.

                          [Am]
Oh oh ay ay, baby, please...  don't go.

(3) 3x w lyrics:

When I read the letter you wrote me it made me mad, mad, mad.
When I read the words that it told me it made me sad, sad, sad.
But I still love you so, I can't let you go.

[Riff 4] x1 /w lyrics:

I love you. Ooh, baby I love ya. Ay!

(1) 3x w lyrics:

Oh, oh oh oh oh oh, every breath I take,
Oh, oh oh oh, ooh every move I make,

                      [Am]
Ay ay, oh baby please...  don't go.

(2) 1x

(1) 3x w lyrics:

Ay, ay ay ay ay ay, you hurt me to my soul,
Oh oh oh oh, you hurt me to my soul,

                             [Am]
Ooh, oh, ooh, darlin' please...  don't go...

(3) 3x w lyrics:

When I read the letter you sent me it made me mad, mad, mad.
When I read the news that it brought me it made me sad, sad, sad.
But I still love you so, I can't let you go.

(4) 1x w lyrics:

I love you. Ooh, baby I love ya. Ay!

[Guitar Solo]

e:-------------------------------------------------10b12~--10-8------|
B:---------------6b8-6-5----------10b12-10b12-10-8-------------------|
G:--7b9~r7p5-------------7------9------------------------------------|
D:-------------------------7~~---------------------------------------|
A:-------------------------------------------------------------------|
E:-------------------------------------------------------------------|

e:-10b12--10-8-------------------------------------------------------|
B:--------------8b10~~~r8----------------------------------8-10b12---|
G:------------------------7b9r7p5---5~~--7b8~~~r7-5-5-5~~------------|
D:--------------------------------7----------------------------------|
A:-------------------------------------------------------------------|
E:-------------------------------------------------------------------|

e:--------------10b12~~----------------------------------------------|
B:--10b12-10-8-------------------------------------------------------|
G:-------------------------------------------------------------------|
D:-------------------------------------------------------------------|
A:-------------------------------------------------------------------|
E:-------------------------------------------------------------------|

(1) 3x w lyrics:

Oh, oh, oh oh oh oh, you don't have to go,
Oh oh oh oh, you don't have to go,

                  [Am]
Oh oh oh oh, ooh baby,

(2) x1 w lyrics:

Baby, please, please, please, please.

(1) until fadeout w lyrics ad lib.

Houses Of The Holy

notation    h = hammer on
            p = pull-off
            b = bend

Intro
Repeat these first 2 bars twice
e---------------------------------------------------------------------------|
e-----------------------|--------------2--2---------------------------------|
B-----------------------|--------------2--2---------------------------------|
G-------------2--2------|--------2--2--2--2---------------------------------|
D----2--2-----2--2----2-|--2-----2--2--2--2---------------------------------|
A----3--4--0--0--0----3-|--4--0--0--0---------------------------------------|
E-----------------------|---------------------------------------------------|


e-----------------------|--------------2--2-2-|-2---------------------------|
B-----------------------|--------------2--2-2-|-2---------------------------|
G-------------2--2------|--------2--2--2--2-2-|-2-------2-2-----------------|
D----2--2-----2--2----2-|--2-----2--2--2--2-2-|-2-2-----2-2--2--------------|
A----3--4--0--0--0----3-|--4--0--0--0---------|---3-4-0-0-0--3--------------|
E-----------------------|---------------------|-----------------------------|

e-------------2--2----------------------------------------------------------|
B-------------2--0----------------------------------------------------------|
G-------2-2---2--1----------------------------------------------------------|
D--2----2-2---2--2----------------------------------------------------------|
A--4--0-0-0-----------------------------------------------------------------|
E---------------------------------------------------------------------------|


Note that the chords on the verses sustain a little, but notation wasn't easy
so listen to the record to get the timing and feel.

Verses     D        G  D  A    E

e----------2--|--2--3--2--0-|-----------------------------------------------|
B----------3--|--3--3--3--2-|-0-0-------------------------------------------|
G----------2--|--2--4--2--2-|-1-1-------------------------------------------|
D-------2--0--|--0--0--0--2-|-2-2-------------------------------------------|
A---2h4-------|-------------|-----------------------------------------------|
E-------------|-------------|-----------------------------------------------|


                          bend from b to c# and then back to b
e---------------|------------------------------|----------------------------|
B--------2-2----|-----2------------------------|----------------------------|
G--------2-2----|-----2--4b-6b-4-2-4p2-4p2-----|----------------------------|
D--2-----2-2--2-|-2---2--------------------4p2-|----------------------------|
A--3-4-0------3-|-4-0--------------------------|-0--------------------------|
E---------------|------------------------------|----------------------------|
                          riff fill

                         variation something like this
e---------------|--------------2-------------------------------------------|
B--------2-2----|-----2----------5p2---------------------------------------|
G--------2-2----|-----2--4b-6b-------4p2---4p2---2-------------------------|
D--2-----2-2--2-|-2---2------------------4-----4---------------------------|
A--3-4-0------3-|-4-0------------------------------------------------------|
E---------------|----------------------------------------------------------|


Words :

Let me take you to the movies, can I take you to the show?
Let me be yours ever truly, can I make your garden grow?

>From the houses of the holy, we can watch the white doves go.
>From the door comes Satans daughter, and it only goes to show.  and you know.

There's an angel on my shoulder, in my hand a sword of gold.
Let me wander in your garden, and the seeds of love I'll sow.  You know.

So the world is spinning faster, are you dizzy when you stall
Let the music be your master will you heed the master's call    Ohhh

Said there aint no use in crying, cause it will only, only drive you mad
Does it hurt to hear them lying?  Was this the only world you had?

So let me take you take you to the movies, can I take you baby to the show
Why don't you let me be yours ever truly, Can I make your garden grow?

  	 Kashmir Tab by Led Zeppelin, www.Ultimate-Guitar.Com

-----------------------------------------------------------------------------
                          Led Zeppelin - Kashmir
-----------------------------------------------------------------------------

DADGAD (low to high) Tuning


Main Riff 1

D|----------------------------------------------------------------------------|
A|----------------------------------------------------------------------------|
G|--2---2---2------2---2---2-------3---3---3------3---3---3-------------------|
D|--0---0---0------0---0---0-------0---0---0------0---0---0-------------------|
A|--5---5---5------5---5---5-------5---5---5------5---5---5-------------------|
D|-----------------------------0------------------------------0---------------|

D|---------------------------------------------------------------------------|
A|---------------------------------------------------------------------------|
G|--4---4---4------4---4---4-------5---5---5------5---5---5------------------|
D|--0---0---0------0---0---0-------0---0---0------0---0---0------------------|
A|--5---5---5------5---5---5-------5---5---5------5---5---5------------------|
D|-----------------------------0------------------------------0--------------|

D|---------------------------------------------------------------------------|
A|---------------------------------------------------------------------------|
G|--7---7---7------2---2---2-------3---3---3---------------------------------|
D|--0---0---0------0---0---0-------0---0---0---repeat------------------------|
A|--5---5---5------5---5---5-------5---5---5---------------------------------|
D|-----------------------------0---------------------------------------------|

Riff 2

D|--12---12---10---10----7----7----5----5----3----3-------------------------|
A|---0----0----0----0----0----0----0----0----0----0-------------------------|
G|--12---11---10----9----7----6----5----4----3---2--------------------------|
D|---0----0----0----0----0----0----0----0----0----0----3-2-0----------------|
A|--------------------------------------------------------------------------|
D|--------------------------------------------------------------------------|

D|--12---12---10---10----7----7----5----5----3---3--------------------------|
A|---0----0----0----0----0----0----0----0----0---0--------------------------|
G|--12---11---10----9----7----6----5----4----3---2--------------------------|
D|---0----0----0----0----0----0----0----0----0---0----3-2-0-----------------|
A|--------------------------------------------------------------------------|
D|--------------------------------------------------------------------------|

When you go back to the Main Riff start here and then proceed as usual.
D|--------------------------------------------------------------------------|
A|--------------------------------------------------------------------------|
G|--3---3---3------3---3---3------4---4---4------4---4---4------------------|
D|--0---0---0------0---0---0------0---0---0------0---0---0------------------|
A|--5---5---5------5---5---5------5---5---5------5---5---5------------------|
D|--------------------------------------------------------------------------|

D|--------------------------------------------------------------------------|
A|--------------------------------------------------------------------------|
G|--5---5---5------5---5---5------7---7---7------2---2---2------------------|
D|--0---0---0------0---0---0------0---0---0------0---0---0----etc.----------|
A|--5---5---5------5---5---5------5---5---5------5---5---5------------------|
D|--------------------------------------------------------------------------|

Interlude 1-After Riff 2

D|--12---12---10---10----7----7----5----5----3----3-------------------------|
A|---0----0----0----0----0----0----0----0----0----0-------------------------|
G|--12---11---10----9----7----6----5----4----3----2-------------------------|
D|---0----0----0----0----0----0----0----0----0----0----3-2-0------0---------|
A|-------------------------------------------------------------0-2----------|
D|--------------------------------------------------------------------------|

D|--------------------------------------------------------------------------|
A|--------------------------------------------------------------------------|
G|--------------------------------------------------------------------------|
D|--2------2---2---11\-2-----------2------2---2---11\-2-----3-2-0-----0-----|
A|--0------0---0---12\-0-----------0------0---0---12\-0-----------0-2-------|
D|--------------------------------------------------------------------------|

D|--------------------------------------------------------------------------|
A|--------------------------------------------------------------------------|
G|--------------------------------------------------------------------------|
D|--2------2---2---11\-2-----------2------2---2---11\-2----3-2-0-----0------|
A|--0------0---0---12\-0-----------0------0---0---12\-0-----------0-2-------|
D|--------------------------------------------------------------------------|

Repeat
Back to Riff 2

Interlude 2-After Riff 2
Interlude 2 is two chords that are alternated in this section of the song.

D|--12---12---10---10----7----7----5----5----3---3--------------------------|
A|---0----0----0----0----0----0----0----0----0---0--------------------------|
G|--12---11---10----9----7----6----5----4----3---2--------------------------|
D|---0----0----0----0----0----0----0----0----0---0-----3-2-0----------------|
A|--------------------------------------------------------------------------|
D|--------------------------------------------------------------------------|

D|--5---------------------------7-------------------------------------------|
A|--5---------------------------7-------------------------------------------|
G|--7---------------------------9-------------------------------------------|
D|--5---------------------------7-------------------------------------------|
A|--5---------------------------7-------------------------------------------|
D|--5---------------------------7-------------------------------------------|

The rest of the song alternates between the Main Riff and Riff 2.
End on Interlude 2.

Trampled Underfoot
Led Zeppelin

Heres the main riff:

e---------------------------------------------------------------------------|
b-2-3-----------------------------------------------------------------------|
g-2-3--2-3-0-------0--------------------------------------------------------|
d------------3-0-3----------------------------------------------------------|
a---------------------------------------------------------------------------|
E---------------------------------------------------------------------------|

And this ascending part:

e------5-5-5-------7-7-7---------10-10-10----------12-12-12-----------------|
b---------------------------------------------------------------------------|
g--4/6---------6/8---------9/11--------------11/13--------------------------|
d---------------------------------------------------------------------------|
a---------------------------------------------------------------------------|
E---------------------------------------------------------------------------|

And after that this is played:

e--11--11-------------------------11-11-------------------------------------|
b--11--12--11-12------------------11-12-11-12-------------------------------|
g-----------------12-10----10-12--------------12-10----10-12\---------------|
d-----------------------12--------------------------12----------------------|
a---------------------------------------------------------------------------|
E---------------------------------------------------------------------------|

And the chord before the keyboard solo and at the end of the song:

e---------------------------------------------------------------------------|
b---------------------------------------------------------------------------|
g---7-----------------------------------------------------------------------|
d---5-----------------------------------------------------------------------|
a---------------------------------------------------------------------------|
E---------------------------------------------------------------------------|


NOBODY'S FAULT BUT MINE
As recorded by Led Zeppelin
(From the 1976 Album PRESENCE)

 Words and Music by Jimmy Page & Robert Plant


   Intro
    Q=92
    (E)
   4/4
    Gtr I
                          ~~~~~                           ~~~~~
||--------------------------------|-------------------------------|
||o-15p12-12-15p12-12-15-15b17----|-15p12-12-15p12-12-------------|
||--------------------------------|-------------------12-14b16----|
||--------------------------------|-------------------------------|
||o-------------------------------|-------------------------------|
||--------------------------------|-------------------------------|
|
|   Gtr II
|                         ~~~~~                           ~~~~~
||--------------------------------|-------------------------------|
||o--3p=0--0--3p=0--0--3--3b5-----|--3p=0--0--3p=0--0-------------|
||--------------------------------|--------------------0--2b4-----|
||--------------------------------|-------------------------------|
||o-------------------------------|-------------------------------|
||--------------------------------|-------------------------------|


            ~~~~~~~
|--------------------------------------|
|-15p12-12-15-(15)--15b17r15-12--------|
|-------------------------------14p12--|
|--------------------------------------|
|--------------------------------------|
|--------------------------------------|
|
|           ~~~~~~~
|--------------------------------------|
|--3p=0--0--3--(3)---3b5r==3--0--------|
|--------------------------------2p=0--|
|--------------------------------------|
|--------------------------------------|
|--------------------------------------|


                                             5x
|--------------------------------------------||
|------------------------------------9-(9)--o||
|-14p13-13-14p13-13-14-14b16r(14)-13-9-(9)---||
|------------------------------------9-(9)---||
|-------------------------------------------o||
|------------------------------------0-(0)---||
|
|                                            5x
|--------------------------------------------||
|-------------------------------------------o||
|--2p=1--1--2p=1--1--2--2b4r==(2)--1-1-(1)---||
|------------------------------------2-(2)---||
|------------------------------------2-(2)--o||
|------------------------------------0-(0)---||


|-------------------------------|-------------------------------|
|-15p12-12-15p12-12-15-15b17----|-15p12-12-15p12-12-------------|
|-------------------------------|-------------------12-14b16----|
|-------------------------------|-------------------------------|
|-------------------------------|-------------------------------|
|-------------------------------|-------------------------------|
|
|-------------------------------|-------------------------------|
|--3p=0--0--3p=0--0--3--3b5-----|--3p=0--0--3p=0--0-------------|
|-------------------------------|--------------------0--2b4-----|
|-------------------------------|-------------------------------|
|-------------------------------|-------------------------------|
|-------------------------------|-------------------------------|


|--------------------------------------|
|-15p12-12-15-(15)--15b17r15-12--------|
|-------------------------------14p12--|
|--------------------------------------|
|--------------------------------------|
|--------------------------------------|
|
|--------------------------------------|
|--3p=0--0--3--(3)---3b5r==3--0--------|
|--------------------------------2p=0--|
|--------------------------------------|
|--------------------------------------|
|--------------------------------------|


|---------------------------------------------||
|--------------------------------------9-(9)--||
|-14p13-13-14p13-13-14b16r(14)-(14)p13-9-(9)--||
|--------------------------------------9-(9)--||
|---------------------------------------------||
|--------------------------------------0-(0)--||
|
|---------------------------------------------||
|---------------------------------------------||
|--2p=1--1--2p=1--1--2b4r==(2)--(2)p=1-1-(1)--||
|--------------------------------------2-(2)--||
|--------------------------------------2-(2)--||
|--------------------------------------0-(0)--||


                                                      A5
  Gtr II
|----------------------------|-----------------------------|
|----------------------------|-----------------------------|
|-------7--------------------|-----------------------------|
|-9s7---7--------------------|-9s7-7-7----------------2----|
|-7s5-7-5s2-2----------------|-7s5-5-5--0-------------0----|
|-------------3b4==(3)r-0----|------------3b4==(3)rp0------|


  (D)           (E)
|--------------------------------|
|--------------------------------|
|-7-----7---7----------9-x-x-9---|
|-7---7-7---7-7-9-(9)--9-x-x-9---|
|-5-0-0-5-0-0-5-7-(7)--7-x-x-7---|
|-------------0-0-(0)------------|


  (D)                  (E)               (D)           (E)
|--------------------------------------|-------------------------|
|----------------------9-9-10-10-9-10--|-------------------------|
|-7-----7-(7)--------9-9-9--9--9-9--9--|-7-----7---7---9---9-9-9-|
|-7---7-7-(7)-------11-9-9-11-11-9-11--|-7---7-7---7---9---9-9-9-|
|-5-0-0-5p=0--10-11--------------------|-5-0-0-5-0-0---7---7-7-7-|
|--------------------------------------|-------------0---0-0-----|


                                           1st Verse
  (D)                  (E)                  (D)                 (E)
|----------------------------------------||--------------------------------|
|----------------------9-9-10-9-9-10-----||--------------------------------|
|-7-7---7-(7)--------9-9-9--9-9-9--9-----||-7-----7-(7)-7-------9---9-9-9--|
|-7-7-7-7-(7)-------11-9-9-11-9-9-11-----||-7---7-7-(7)-7-------9---9-9-9--|
|-5-0-0-5p=0--10-11------------------0-0-||-5-0-0-5p=0----------7---7-7-7--|
|----------------------------------------||---------------0-(0)---0-0------|


  (D)                 (E)
|----------------------------------------|
|---------------------9-9-10-9-10-9-10-x-|
|-7-----7-(7)-------9-9-9--9-9--9-9--9-x-|
|-7---7-7-(7)-------9-9-9-11-9-11-9-11-x-|
|-5-0-0-5p=0--10-11----------------------|
|----------------------------------------|


      F#5     G5    A5
|--------------------------|----------------------|
|--------------------------|----------------------|
|--------------------------|----------------------|
|-----4-(4)-x-5-5-5-7-(7)--|-7-7-7-7-7-7-7-7-7-7--|
|-----4-(4)-x-5-5-5-7-(7)--|-7-7-7-7-7-7-7-7-7-7--|
|-x-x-2-(2)-x-3-3-3-5-(5)--|-5-5-5-5-5-5-5-5-5-5--|


  H.=H    a tempo Q=92
            (E)                                                A5
|---------|----------------------------|----------------------------|
|---------|----------------------------|----------------------------|
|---------|----------------------------|-----------------------2----|
|---------|-2p0-0----------------------|-2p0-0-----------------2----|
|---------|-------2p0-0----------------|-------2p0-0-----------0----|
|---------|-------------3b4==(3)r-0----|-------------3b4==(3)r------|


  (D)                   (E)          (D)                 (E)
|----------------------------------|-------------------------------------|
|----------------------------------|---------------------9-10-10-9-10-9--|
|-7-----7-(7)-----------9-x-x-9--9-|-7-7---7-(7)-------9-9--9--9-9--9-9--|
|-7---7-7-(7)---7-9-(9)-9-x-x-9--9-|-7-7-7-7-(7)-------9-9-11-11-9-11-9--|
|-5-0-0-5p=0--0-7-7-(7)-7-x-x-7--7-|-5p0-0-5p=0--10-11-------------------|
|---------------0-0-(0)------------|-------------------------------------|


  (D)                 (E)         (D)             (E)
|-------------------------------|-----------------------|
|-------------------------------|-----------------------|
|-7-----7-(7)-x-------9---9-9-9-|-7-----7-(7)---7-9-----|
|-7---7-7-(7)-x-------9---9-9-9-|-7-----7-(7)-7-7-9-----|
|-5-0-0-5p=0----------7-7-7-7-7-|-5-----5p=0--0-5-7-----|
|---------------0-(0)-----------|---5-5-----------------|


  (D)                   (E)
|-----------------------------------|
|-----------------------------------|
|-7-----7-(7)-7---------9-------9-x-|
|-7---7-7-(7)-7-7-9-(9)-9-------9-x-|
|-5-0-0-5p=0--0-5-7-(7)-7-0-(0)-7-x-|
|---------------0-0-(0)-------------|


  (D)                 (E)                E5F#5    G5A5
|--------------------------------------|---------------------|
|---------------------9-9-10-10-9-10---|---------------------|
|-7-----7-(7)-------9-9-9--9--9-9--9-x-|---------------------|
|-7---7-7-(7)-------9-9-9-11-11-9-11-x-|-2-4-(4)--5-7-(7)-7--|
|-5p0-0-5p=0--10-11--------------------|-2-4-(4)--5-7-(7)-7--|
|--------------------------------------|-0-2-(2)--3-5-(5)-5--|


                             H.=H    a tempo Q=92
                                        (E(D)
|--------------------------|---------||------------------------------|
|--------------------------|---------||------------------------------|
|--------------------------|---------||-9s7-7------------------------|
|-7-7-7-7-7-7-7-7-7-7-7-7--|---------||-9S7-7-7-(7)------------------|
|-7-7-7-7-7-7-7-7-7-7-7-7--|---------||-7s5-5-7-(7)------------------|
|-5-5-5-5-5-5-5-5-5-5-5-5--|---------||-------5p=0--0-3b4==(3)r-0----|


                                Interlude
                        A5       (E)
  Gtr I
                                                       ~~~~~
|----------------------------||--------------------------------|
|----------------------------||o-15p12-12-15p12-12-15-15b17----|
|----------------------------||--------------------------------|
|----------------------------||--------------------------------|
|----------------------------||o-------------------------------|
|----------------------------||--------------------------------|
|
| Gtr II
|                                                      ~~~~~
|----------------------------||--------------------------------|
|----------------------------||o--3p=0--0--3p=0--0--3--3b5-----|
|-----------------------2----||--------------------------------|
|-9s7-7-7-5-------------2----||--------------------------------|
|-7s5-5-5-5-5-----------0----||o-------------------------------|
|-----------5-3b4==(3)r------||--------------------------------|


                        ~~~~~
|-------------------------------|
|-15p12-12-15p12-12-------------|
|-------------------12-14b16----|
|-------------------------------|
|-------------------------------|
|-------------------------------|
|
|                       ~~~~~
|-------------------------------|
|--3p=0--0--3p=0--0-------------|
|--------------------0--2b4-----|
|-------------------------------|
|-------------------------------|
|-------------------------------|


            ~~~~~~~
|--------------------------------------|
|-15p12-12-15-(15)--15b17r15-12--------|
|-------------------------------14p12--|
|--------------------------------------|
|--------------------------------------|
|--------------------------------------|
|
|           ~~~~~~~
|--------------------------------------|
|--3p=0--0--3--(3)---3b5r==3--0--------|
|--------------------------------2p=0--|
|--------------------------------------|
|--------------------------------------|
|--------------------------------------|


                                             3x
|--------------------------------------------||
|------------------------------------9-(9)--o||
|-14p13-13-14p13-13-14-14b16r(14)-13-9-(9)---||
|------------------------------------9-(9)---||
|-------------------------------------------o||
|------------------------------------0-(0)---||
|
|                                            3x
|--------------------------------------------||
|-------------------------------------------o||
|--2p=1--1--2p=1--1--2--2b4r==(2)--1-1-(1)---||
|------------------------------------2-(2)---||
|------------------------------------2-(2)--o||
|------------------------------------0-(0)---||


  (E(D)                                                  A5
  Gtr II
|------------------------------|------------------------------|
|------------------------------|------------------------------|
|-9s7-7-7-(7)------------------|------------------------------|
|-9s7-7-7-(7)-------------2----|-9s7-7-7-(7)-------------2----|
|-7s5-5-5-(5)-0-----------2----|-7s5-5-5-(5)-0-----------0----|
|---------------3b4==(3)r-0----|---------------3b4==(3)r------|


  (E(D)                                                  A5 D5
|------------------------------|---------------------------------|
|------------------------------|----------------------------3-3--|
|-9s7-7-7-(7)------------------|----------------------------2-2--|
|-9s7-7-7-(7)-------------2----|-9s7-7-7-(7)-------------2--0-0--|
|-7s5-5-5-(5)-0-----------2----|-7s5-5-5-(5)-0-----------0-------|
|---------------3b4==(3)r-0----|---------------3b4==(3)r---------|


  (D)           (E)
|-------------------------------------|
|--------------------------9-10-------|
|-7-----7-(7)-7-9-(9)-9--9-9--9-9-9---|
|-7---7-7-(7)-7-9-(9)-9-11-9-11-9-9---|
|-5-0-0-5p=0--5-7-(7)-----------------|
|-------------------------------------|


  (D)                 (E)               (D)               (E)
|-------------------------------------|-------------------------------------|
|---------------------9-9-9-10-9------|-------------------9-9-10-9-9-10p9-9-|
|-7-----7-(7)---x-x-x-9-9-9--9-9--9-9-|-7-----7-(7)-------9-9--9-9-9--9-9-9-|
|-7---7-7-(7)---x-x-x-9-9-9--9-9-11-9-|-7---7-7-(7)-------9-9-11-9-9-11p9-9-|
|-5-0-0-5p=0--0-----------------------|-5-0-0-5p=0--10-11-------------------|
|-------------------------------------|-------------------------------------|


  (D)                   (E)      (D)           (E)
|------------------------------|-------------------------------|
|-----------------------9------|-------------------------------|
|-7-----7-(7)-----------9--9-9-|-7-7---7-(7)---9-----9-9-9-9-9-|
|-7---7-7-(7)-7-x-x-(x)-9--9-9-|-7-7-7-7-(7)---9-----9-9-9-9-9-|
|-5-0-0-5p=0--0-x-x-(x)-7--7-7-|-5-0-0-5p=0--0-7---7-7-7-7-7-7-|
|------------------------------|-----------------0-------------|


  (D)               (E)                 (D)              (E)
|-------------------------------------|----------------------------|
|-------------------9-9-10-9-9-10p9-9-|----------------------------|
|-7-----7-(7)-------9-9--9-9-9--9-9-9-|-7-----7-(7)------9-9-9-9-9-|
|-7---7-7-(7)-------9-9-11-9-9-11p9-9-|-7---7-7-(7)---x--9-9-9-9-9-|
|-5-0-0-5p=0--10-11-------------------|-5-0-0-5p=0----x--7-7-7-7-7-|
|-------------------------------------|-------------0-0------------|


  (D)                 (E)                 (D)             (E)
|---------------------------------------|-------------------------------------|
|---------------------9-10-10-9-10-10-9-|-------------------------------------|
|-7-----7-(7)-------9-9--9--9-9--9--9-9-|-7-----7-(7)---x-9-(9)-9-9-9-(9)-9-9-|
|-7---7-7-(7)-------9-9-11-11-9-11-11-9-|-7---7-7-(7)-7-x-9-(9)-9-9-9-(9)-9-9-|
|-5-0-0-5p=0--10-11---------------------|-5-0-0-5p=0--0-x-7-(7)-7-7-7-(7)-7-7-|
|---------------------------------------|-------------------------------------|


  (D)             (E)                 (D)             (E)
|-----------------------------------|-----------------------------------|
|-----------------------------------|-----------------------------------|
|-7-----7-(7)-----------------------|-7-----7-(7)-----------------------|
|-7---7-7-(7)-----9---9-9-9-(9)-9-9-|-7---7-7-(7)-----9---9-9-9-(9)-9-9-|
|-5-0-0-5p=0------7---7-7-7-(7)-7-7-|-5-0-0-5p=0------7---7-7-7-(7)-7-7-|
|-------------0-0-0-0-0-0-0-(0)-0-0-|-------------0-0-0-0-0-0-0-(0)-0-0-|


  (D)              (E)         (D)             (E)
|----------------------------|-------------------------------------|
|----------------------------|-------------------------------------|
|-7-----7-(7)------9-9-9-9-9-|-7-----7-(7)-----9-(9)-9-9-9-(9)-9-9-|
|-7---7-7-(7)---x--9-9-9-9-9-|-7---7-7-(7)-----9-(9)-9-9-9-(9)-9-9-|
|-5-0-0-5p=0----x--7-7-7-7-7-|-5-0-0-5p=0------7-(7)-7-7-7-(7)-7-7-|
|-------------0-0------------|-------------0-0---------------------|


  (D)                  (E)                  (D)             (E)
|-----------------------------------------|-----------------------------------|
|----------------------9-9-10-10-9-10-x-x-|-----------------------------------|
|-7-----7-(7)--------9-9-9--9--9-9--9-x-x-|-7-----7-(7)-----------------------|
|-7---7-7-(7)-------11-9-9-11-11-9-11-x-x-|-7---7-7-(7)-----9---9-9-9-(9)-9-9-|
|-5-0-0-5p=0--10-11-----------------------|-5-0-0-5p=0------7---7-7-7-(7)-7-7-|
|-----------------------------------------|-------------0-0-0-0-0-0-0-(0)-0-0-|


  (D)               (E)
|---------------------------|--------------------------------|
|---------------------------|-10-10-9-9-7-7----------------x-|
|-7-----7-(7)-7-----9---9---|-11-11-9-9-6-6-9-9---11-x-9---x-|
|-7---7-7-(7)-7-----9---9---|-11-11-9-9-----9-9---11-x-9---x-|
|-5-0-0-5p=0--5-----7---7-0-|----------------------9-x-7-----|
|---------------0-0---0-----|-------------------0--------5---|


|----------------------------------|-----------------------------||
|-10-10-9-9----------------------x-|-10-10-9-9-------------------||
|-11-11-9-9-11-11-9-9---11-x-9---x-|-11-11-9-9-11-11-9----11--9--||
|-11-11-9-9-11-11-9-9---11-x-9---x-|-11-11-9-9-11-11-9-0--11--9--||
|------------------------9-x-7-----|-----------------------9--7--||
|---------------------0--------5---|-----------------------------||


 2nd Verse
  (D)                   (E)
|--------------------------------|
|--------------------------------|
|-7-----7-(7)-7---------9-x-x-9--|
|-7---7-7-(7)-7-7-9-(9)-9-x-x-9--|
|-5-0-0-5p=0--0-5-7-(7)-7-x-x-7--|
|---------------0-0-(0)----------|


  (D)              (E)               E5F#5    G5A5
|----------------------------------|---------------------|
|------------------9-9-10-9-9-10---|---------------------|
|-7-----7--------9-9-9--9-9-9--9---|---------------------|
|-7---7-7--------9-9-9-11-9-9-11---|-2-4-(4)--5-7-(7)-7--|
|-5-0-0-5--10h11-----------------0-|-2-4-(4)--5-7-(7)-7--|
|----------------------------------|-0-2-(2)--3-5-(5)-5--|


                               H.=H    a tempo Q=92
                                         (E)
|----------------------------|---------|----------------------------|
|----------------------------|---------|----------------------------|
|----------------------------|---------|----------------------------|
|-7-7-7-7-7-7-7-7-7-7-7-7-7--|---------|-2p0-0----------------------|
|-7-7-7-7-7-7-7-7-7-7-7-7-7--|---------|-------2p0-0----------------|
|-5-5-5-5-5-5-5-5-5-5-5-5-5--|---------|-------------3b4==(3)r-0----|


                        A5     (D)             (E)
|----------------------------|-----------------------------------|
|----------------------------|-----------------------------------|
|-----------------------2----|-7-----7-(7)-7---9-(9)-x-9---x-9-x-|
|-2p0-0-----------------2----|-7---7-7-(7)-7---9-(9)-x-9---x-9-x-|
|-------2p0-0-----------0----|-5-0-0-5p=0--5-5-7-(7)-x-7-x-x-7-x-|
|-------------3b4==(3)r------|-----------------------------------|


  (D)            (E)                    (D)               (E)
|-------------------------------------|----------------------------------|
|------------------------------10-----|----------------------------------|
|-7-----7--------9-9-9--9--9-9--9-x-x-|-7-----7-(7)-------9-----9-----9S=|
|-7---7-7--------9-9-9-11-11-9-11-x-x-|-7---7-7-(7)-------9-----9-----9S=|
|-5-0-0-5--10-11----------------------|-5-0-0-5p=0--------7-----7-----7S=|
|-------------------------------------|-------------0-0-0---0-0---0-0----|


  (D)           (E)     (D)                   (E)
|---------------------|----------------------------------|
|---------------------|----------------------------------|
|-7-----7-----7-9-----|-7-----7-(7)-----------9-x-x-9--x-|
|-7-----7---7-7-9-----|-7---7-7-(7)---7-9-(9)-9-x-x-9--x-|
|-5-0-0-5-0-0-5-7-----|-5-0-0-5p=0----7-7-(7)-7-x-x-7--x-|
|---------------------|-------------5-0-0-(0)------------|


  (D)                 (E)               E5F#5     G5  A5
|-------------------------------------|---------------------------|
|---------------------9-10-10-9-10-9--|---------------------------|
|-7-----7-(7)-------9-9--9--9-9--9-9--|---------------------------|
|-7---7-7-(7)-------9-9-11-11-9-11-9--|-2-4-(4)-----5-7-(7)-7-7-7-|
|-5-0-0-5p=0--10-11-------------------|-2-4-(4)-4-5-5-7-(7)-7-7-7-|
|-------------------------------------|-0-2-(2)-2-3-3-5-(5)-5-5-5-|


                                         Guitar Solo
                               H.=H    a tempo Q=91
                                          (E)
  Gtr I
|----------------------------|---------||-------------------------------|
|----------------------------|---------||-----------------------------3-|
|----------------------------|---------||-------------------2b4r(2)-----|
|----------------------------|---------||-------------------------------|
|----------------------------|---------||-------------------------------|
|----------------------------|---------||-------------------------------|
|
| Gtr II
|----------------------------|---------||-------------------------------|
|----------------------------|---------||-------------------------------|
|----------------------------|---------||-------------------------------|
|-7-7-7-7-7-7-7-7-7-7-7-7-7--|---------||-9p7-7-7-----------------------|
|-7-7-7-7-7-7-7-7-7-7-7-7-7--|---------||-7-7-7-5p0-0-------------------|
|-5-5-5-5-5-5-5-5-5-5-5-5-5--|---------||-------------3b4==(3)r--0------|


|----------------------------------------------|
|-(3)------------------------------------------|
|------2b3==(2)r(2)b3r(2)p0---------0---(0)----|
|-----------------------------2----------------|
|----------------------------------------------|
|----------------------------------------------|
|
|----------------------------------------------|
|----------------------------------------------|
|----------------------------------------------|
|--9p7-7---------7-----------------------2-----|
|--7-7-7---------5p=======0-0------------0-----|
|-----------------------------3b4==(3)r--------|


  (E)                                                         A5
  ~~
|----------------------------------|------3---------3---------5b6--5-3-(3)-5-3-----|
|----------------------------------|----3---5-(5)---------5--------------------5---|
|-0---------------------(0)--------|-/4--------------------------------------------|
|---------------------------2-(2)--|-----------------------------------------------|
|----------------------------------|-----------------------------------------------|
|----------------------------------|-----------------------------------------------|
|
|----------------------------------|-----------------------------------------------|
|----------------------------------|-----------------------------------------------|
|----------------------------------|-----------------------------------------------|
|-9p7-7-7--------------------------|--9p7-7-7-----------------2--------------------|
|-7-7-7-5p0-0----------------------|--7-7-7-5p=0--0-----------0--------------------|
|-------------3b4==(3)r--0---------|----------------3b4==(3)r----------------------|


  (D)               (E)
|-------3--------------------------------------------|
|-(5)------------------------------------------------|
|------------------------------9---(9)---11b13==(11)-|
|-------------------------9h11-----------------------|
|-------------------7s11-----------------------------|
|----------------------------------------------------|
|
|----------------------------------------------------|
|----------------------------------------------------|
|--7------7-(7)----------------9-x--x--9----------9--|
|--7----7-7-(7)---7-9-(9)------9-x--x--9----------9--|
|--5--0-0-5p=0----7-7-(7)------7-x--x--7----------7--|
|---------------5-0-0-(0)----------------------------|


  (D)                       (E)
|------------------------------------------12-------|
|---------------------------------------------14-12-|
|-(11)r(11)---9-11---9----9-(9)---------------------|
|----------------------11-------11------------------|
|---------------------------------------------------|
|---------------------------------------------------|
|
|---------------------------------------------------|
|----------------------------9--10-10-9-10--9-------|
|---7---------7-(7)-------9--9---9--9-9--9--9-------|
|---7-------7-7-(7)-------9--9--11-11-9-11--9-------|
|---5----0--0-5p=0--10-11---------------------------|
|---------------------------------------------------|


  (D)                             (E)
|-----------------------------------------------------------|
|-14-12-----------------12--14-12-14-12---(12)--------------|
|-------13-11b13==(11)r------------------------13-11-11b13==|
|-----------------------------------------------------------|
|-----------------------------------------------------------|
|-----------------------------------------------------------|
|
|-----------------------------------------------------------|
|-----------------------------------------------------------|
|--7--------7------(7)-------------9--x-x---9---9--9--------|
|--7-----7--7------(7)-------------9--x-x---9---9--9--------|
|--5--0--0--5p======0--------------7--x-x---7---7--7--------|
|------------------------0----------------------------------|


  (D)                       (E)
|---------------------------------------------------------------|
|-----------------------------------------12pb14r(12)b14==(12)--|
|-(11)r-11-9-----9---9----9-(9)-9-------------------------------|
|------------11--------11---------11----------------------------|
|---------------------------------------------------------------|
|---------------------------------------------------------------|
|
|---------------------------------------------------------------|
|----------------------------9--9-10-9-10--9------10--------x---|
|---7---------7-(7)-------x--9--9--9-9--9--9-------9--------x---|
|---7------7--7-(7)-------x--9--9-11-9-11--9------11--------x---|
|---5----0-0--5p=0--10-11---------------------------------------|
|---------------------------------------------------------------|


  (D)                         (E)
|-----------------------------------------------------|
|-(12)r---12---11b12-10-------10----------------------|
|-----------------------12b14----12--11-9---(9)-9-----|
|-------------------------------------------------11--|
|-----------------------------------------------------|
|-----------------------------------------------------|
|
|-----------------------------------------------------|
|-----------------------------------------------------|
|---7--------7-(7)-------7-----9-(9)--9---x--9-----9--|
|---7------7-7-(7)----7--7-----9-(9)--9---x--9-----9--|
|---5---0--0-5p=0-----0--5-----7-(7)--7---x--7-----7--|
|-----------------------------------------------------|


  (D)                             (E)
|------------------------------------------------------|
|-12pb14r==(12)---12---9----9-(9)-x-10--------11b12----|
|------------------------11----------9-----------------|
|------------------------------------------------------|
|------------------------------------------------------|
|------------------------------------------------------|
|
|------------------------------------------------------|
|---------------------------------9-10-9--9-9--9-------|
|--7------------7-(7)-------9-(9)-9--9-9-10-9--9-------|
|--7---------7--7-(7)-------9-(9)-9-11-9-11-9--9-------|
|--5-----0---0--5p=0--10h11-------------------------0--|
|------------------------------------------------------|


  (D)                   (E)
|------------------------------------------------------------------------|
|---11b12-----11b12-----11b12==(11)r---11b12==(11)r-----11b12==(11)r-----|
|-x---------x---------x--------------x---------------x---------------x-x-|
|------------------------------------------------------------------------|
|------------------------------------------------------------------------|
|------------------------------------------------------------------------|
|
|------------------------------------------------------------------------|
|------------------------------------------------------------------------|
|-7---------7-(7)--------------------------------------------------------|
|-7-------7-7-(7)--------9------(9)--9--9-------9---(9)--9-------9-------|
|-5--0----0-5p=0---------7------(7)--7--7-------7---(7)--7-------7-------|
|-------------------0-0--0------(0)--0--0-------0---(0)--0-------0-------|


  (D)                        (E)
|-------------------------12------------------------|
|----------------------12----15b17------------------|
|-9----9------9-11s=13------------------------------|
|---11---11-----------------------------------------|
|---------------------------------------------------|
|---------------------------------------------------|
|
|---------------------------------------------------|
|-----------------------------9----9-10-9-10-9-10-x-|
|-7---------7---(7)--------9--9----9--9-9--9-9--9-x-|
|-7----7----7---(7)--------9--9----9-11-9-11-9-11-x-|
|-5--0-0----5p===0--10-11---------------------------|
|---------------------------------------------------|


  (D)                     (E)
|-15------------15----------15------------------------|
|----15b17==========15r---------15--------------------|
|----------------------------------14b15==(14)r(14)---|
|-----------------------------------------------------|
|-----------------------------------------------------|
|-----------------------------------------------------|
|
|-----------------------------------------------------|
|-----------------------------------------------------|
|--7----------7-(7)-----7-9-(9)--9--x-------9-------9-|
|--7--------7-7-(7)--7--7-9-(9)--9--x-------9-------9-|
|--5--0-----0-5p=0---0--5-7-(7)--7--x-------7-------7-|
|-----------------------0-0-(0)-----------------------|


  (D)                         (E)
|-15------------15----------------------------------------------|
|----15b17==========15r----12----------10-----------------------|
|-----------------------------14b15-12----12b13==(12)r------12s=|
|------------------------------------------------------14-------|
|---------------------------------------------------------------|
|---------------------------------------------------------------|
|
|---------------------------------------------------------------|
|------------------------------9-----9-10--9------10----9-------|
|--7----------7-(7)---------9--9-----9--9--9-------9----9-------|
|--7--------7-7-(7)---------9--9-----9-11--9------11----9-------|
|--5--0-----0-5p=0--10--11--------------------------------0--0--|
|---------------------------------------------------------------|


  (D)                              (E)
|----12------------------------------------------------10-|
|-------15---(15)---------12-12-15-------------12---12----|
|-13----------------12s13----------------12s13------------|
|---------------------------------------------------------|
|---------------------------------------------------------|
|---------------------------------------------------------|
|
|---------------------------------------------------------|
|---------------------------------------------------------|
|--7-------7--(7)------------------9-x-x-----9----9-----9-|
|--7-----7-7--(7)------------------9-x-x-----9----9-----9-|
|--5--0--0-5p==0-------------------7-x-x-----7----7-----7-|
|-----------------0---------------------------------------|


  (D)                          (E)
|-(10)-------(10)-------------------------------|
|-----------------10b12r==(10)------------------|
|------------------------------9-9----9--9----9-|
|------------------------------------------11---|
|-----------------------------------------------|
|-----------------------------------------------|
|
|-----------------------------------------------|
|------------------------------------10-10--9-9-|
|---7------7--(7)--------------9-9-9--9--9--9-9-|
|---7----7-7--(7)--7-----------9-9-9--9--9--9-9-|
|---5--0-0-5p==0---0-----------7-7-7--7--7--7-7-|
|-----------------------0--(0)------------------|


  (D)                                        (E)
|---------9----------------------------------------------------------|
|-------9---12p==9-12p=9------9-----------------------------------12-|
|-11b13--------------------11---11p==9-11p=9--------9-----9-11s13----|
|-----------------------------------------------11----11-------------|
|--------------------------------------------------------------------|
|--------------------------------------------------------------------|
|
|--------------------------------------------------------------------|
|--------------------------------------------10----10--9-10-----9--9-|
|--7-----------7---(7)------------------------9-----9--9--9-----9--9-|
|--7------7----7---(7)---7-------------------11----11--9-11-----9--9-|
|--5----0-0----5p===0----0-------------------------------------------|
|----------------------------------0---(0)---------------------------|


  (D)                     (E)
|-14b16========(14)r---14-12-(12)-12-10-------------12---|
|------------------------------------------------12------|
|---------------------------------------------13---------|
|--------------------------------------------------------|
|--------------------------------------------------------|
|--------------------------------------------------------|
|
|--------------------------------------------------------|
|--------------------------------------------------------|
|--7---------7--(7)--------9--(9)--9--9-----------9------|
|--7-------7-7--(7)--------9--(9)--9--9-9-(9)-----9------|
|--5-------0-5p==0---------7--(7)--7--7-7-(7)-----7--0---|
|--------5-0---------0--0---------------0-(0)------------|


|-14b16=====(14)r---14----12-10-12--------------12-|
|--------------------------------------------12----|
|------------------------------------------x-------|
|--------------------------------------------------|
|--------------------------------------------------|
|--------------------------------------------------|
|
|--------------------------------------------------|
|-10-----10---9---9------------------------------x-|
|-11-----11---9---9-11-11--9--9----11--x-9-------x-|
|-11-----11---9---9-11-11--9--9----11--x-9-------x-|
|-----------------------------------9--x-7----0----|
|--------------------------------0-----------------|


|-14b16------14b16r(14)-12---12-(12)-12s9---------------|
|--------------------------x--------------12-9----------|
|-------------------------------------------------9-----|
|----------------------------------------------11---11--|
|-------------------------------------------------------|
|-------------------------------------------------------|
|
|-------------------------------------------------------|
|-10----10-9--9--------------------------------------x--|
|-11----11-9--9-----11--11-9--9------11----x-9-------x--|
|-11----11-9--9-----11--11-9--9------11----x-9-------x--|
|-------------------------------------9----x-7----0-----|
|---------------------------------0---------------------|


|---------------------------------|
|--------------10-----------------|
|-11----9----9-11-9-9-(9)---------|
|----11---11----------------------|
|---------------------------------|
|---------------------------------|
|
|---------------------------------|
|-10-10-9--9-7--7-----------------|
|-11-11-9--9-6--6-9-9-----11-x-7--|
|-11-11-9--9------9-9-----11-x-9--|
|--------------------------9-x-7--|
|---------------------------------|


   Outro
    (E)
||--------------------------------|-------------------------------|
||o-15p12-12-15p12-12-15-15b17----|-15p12-12-15p12-12-------------|
||--------------------------------|-------------------12-14b16----|
||--------------------------------|-------------------------------|
||o-------------------------------|-------------------------------|
||--------------------------------|-------------------------------|
|
||--------------------------------|-------------------------------|
||o--3p=0--0--3p=0--0--3--3b5-----|--3p=0--0--3p=0--0-------------|
||--------------------------------|--------------------0--2b4-----|
||--------------------------------|-------------------------------|
||o-------------------------------|-------------------------------|
||--------------------------------|-------------------------------|


|--------------------------------------|
|-15p12-12-15-(15)--15b17r15-12--------|
|-------------------------------14p12--|
|--------------------------------------|
|--------------------------------------|
|--------------------------------------|
|
|--------------------------------------|
|--3p=0--0--3--(3)---3b5r==3--0--------|
|--------------------------------2p=0--|
|--------------------------------------|
|--------------------------------------|
|--------------------------------------|


|--------------------------------------------||
|------------------------------------9-(9)--o||
|-14p13-13-14p13-13-14-14b16r(14)-13-9-(9)---||
|------------------------------------9-(9)---||
|-------------------------------------------o||
|------------------------------------0-(0)---||
|
|--------------------------------------------||
|-------------------------------------------o||
|--2p=1--1--2p=1--1--2--2b4r==(2)--1-1-(1)---||
|------------------------------------2-(2)---||
|------------------------------------2-(2)--o||
|------------------------------------0-(0)---||


|-------------------------------|
|-15p12-12-15p12-12-15-15b17----|
|-------------------------------|
|-------------------------------|
|-------------------------------|
|-------------------------------|
|
|-------------------------------|
|--3p=0--0--3p=0--0--3--3b5-----|
|-------------------------------|
|-------------------------------|
|-------------------------------|
|-------------------------------|


                                  E5F#5    G5A5
|-------------------------------|---------------------------|
|-15p12-12-15p12-12-------------|---------------------------|
|-------------------12-14b16----|-4-6-(6)--7-7b9==(7)-------|
|-------------------------------|---------------------------|
|-------------------------------|---------------------------|
|-------------------------------|---------------------------|
|
|-------------------------------|---------------------------|
|--3p=0--0--3p=0--0-------------|---------------------------|
|--------------------0--2b4-----|---------------------------|
|-------------------------------|-2-4-(4)--5-7----(7)-7-7-7-|
|-------------------------------|-2-4-(4)--5-7----(7)-7-7-7-|
|-------------------------------|-0-2-(2)--3-5----(5)-5-5-5-|


                                H.=H
                                 6/4
|-------------------------------|-----|
|-------------------------------|-----|
|-(7)r--------------------------|-----|
|-------------------------------|-----|
|-------------------------------|-----|
|-------------------------------|-----|
|
|-------------------------------|-----|
|-------------------------------|-----|
|-------------------------------|-----|
|--7---7-7-7-7-7-7-7-7-7-7-7-7--|-----|
|--7---7-7-7-7-7-7-7-7-7-7-7-7--|-----|
|--5---5-5-5-5-5-5-5-5-5-5-5-5--|-----|


  a tempo Q=92
  (D)             (E)        E5D5    B5    A5  G5    E5
 4/4
  Gtr II
|--------------------------|----------------------------------*|
|--------------------------|----------------------------------*|
|-7-----7-(7)---7-9-(9)----|----------------------------------*|
|-7---7-7-(7)-7-7-9-(9)----|-9s7-7-7s4-4-4-2-2----------------*|
|-5-0-0-5p=0--0-5-7-(7)----|-7s5-5-5s2-2-2-0-0-5-5-5-2-2-2-2--*|
|--------------------------|-------------------3-3-3-0-0-0-0--*|


Achilles Last Stand

| = not a standard bar line; just used to separate music
~ = vibrato or held note
x = percussive note with no pitch; muted note
. = staccato; mute the note immediately after striking it
h = hammer on
p = pull off
s = slide
b = bend string up to indicated pitch/fret
r = release bend to indicated string/fret
/ = slide up from infinity
\ = slide down into infinity


[Intro] - Let bottom note ring throughout, and open G (when it is played)

   Em9                         F#m(add b6)
e:-------------2p0----------|--------------2p0--------------------|
B:----------3------3p0------|-----------3-------3p0---------------|
G:-0------0-------------0---|--0------2--------------0------------|
D:------4-------------------|-------4-----------------------------|
A:----2---------------------|-----4-------------------------------|
E:-0------------------------|--2----------------------------------|

[Intro2]
    F#m7(add 4)
e:----------------0--------------------------------------------------|
B:------------0--(0)-------------------------------------------------|
G:--0------2---------------------------------------------------------|
D:-------4-----------------------------------------------------------|
A:-------------------------------------------------------------------|
E:--2----------------------------------------------------------------|

[Riff 1]
    F#m       Em                                 D6/E
e:----9.-------7----7~-----------------------------7~----------------|
B:---10.-------8----8~-----------------------------7~----------------|
G:---11.-------9----9~-----------------------------7~----------------|
D:------------------------7-7--7-7-8-9--7-7--------7~----------------|
A:------------------------------------------7-7----------------------|
E:----------------------------------------------0--------------------|

[Riff 2a]
                              D/E
e:---------9------7~----------------5~-------------------------------|
B:--------10------8~-----------7----7~-------------------------------|
G:--------11------9~-----------7----7~-------------------------------|
D:-----------------------------7-------------------------------------|
A:-------------------------------------------------------------------|
E:---0~--------------------0~----------------------------------------|

[Riff 2b]
                                   D/E
e:---------9------7~----------------7~-------------------------------|
B:--------10------8~-----------7----7~-------------------------------|
G:--------11------9~-----------7----7~-------------------------------|
D:-----------------------------7-------------------------------------|
A:-------------------------------------------------------------------|
E:---0~--------------------0~----------------------------------------|

[Riff 3]
    E                                       F5
e:---------------------------------------|---------|-----------------|
B:--9---7--8--9--------------------------|---------|-----------------|
G:--9---7--8--9---7-8-9-9--7-8-9--7-9----|--10~----|--10~~\----------|
D:--9---7--8--9---7-8-9-9--7-8-9--7-9----|--10~----|--10~~\----------|
A:---------------------------------------|---------|-----------------|
E:---------------------------------------|---------|-----------------|

[Ascending octave progression 1]
   Em
e:-------------------------------------------------------------------|
B:-------------------------------------------------------------------|
G:-------------------------------------------------------------------|
D:--4s5----5s7---7s9-----10-----10s12--------------------------------|
A:------7------9-----10------12--------14----------------------------|
E:-------------------------------------------------------------------|

[Ascending octave progression 2]
   C(add9 #11)
e:-------------------------------------------------------------------|
B:-------------------------------------------------------------------|
G:--7s9-----11----12-----12s14-----14s16-----------------------------|
D:------10-----12----14---------16--------17s12----------------------|
A:-------------------------------------------------------------------|
E:-------------------------------------------------------------------|

[Ascending octave progression 3]
   Em
e:-------------------------------------------------------------------|
B:-------------------------------------------------------------------|
G:-2s4----5----5s7---7s9-----9s11------------------------------------|
D:-----5----7------9-----10-------12s9-------------------------------|
A:-------------------------------------------------------------------|
E:-------------------------------------------------------------------|

[Ascending octave progression 4]
    C(add9 #11)                             F#m/E     Em
e:-------------------------------------------------------------------|
B:--7s8----10----10s12------13------15--------17s19---17--17~~~------|
G:------9-----11---------12------14-----16---------------------------|
D:-------------------------------------------------------------------|
A:-------------------------------------------------------------------|
E:-------------------------------------------------------------------|

[Riff 4a] - the notes in ()'s can be played, if you are skilled enough

e:---(9.)---(7)-(7~)----'12--9---------------------------------------|
B:--(10.)---(8)-(8~)---'10-----10--10b12--10--8~---------------------|
G:--(11.)---(9)-(9~)---11--------------------------------------------|
D:-------------------------------------------------------------------|
A:-------------------------------------------------------------------|
E:-------------------------------------------------------------------|
                       rake

[Riff 4b] - the notes in ()'s can be played, if you are skilled enough

e:--------------------(7~)----'10---7--------------------------------|
B:--------------------(7~)---'7-------8--8s10--7---------------------|
G:--------------------(7~)---7--------------------7~-----------------|
D:--(7)-(7)-----------(7~)-------------------------------------------|
A:----------(7)-(7)--------------------------------------------------|
E:-----------------(0)-----------------------------------------------|
                             rake

[Riff 4c]
e:---(9.)---(7)-(7~)----'12--9-----9b10---9--7~----------------------|
B:--(10.)---(8)-(8~)---'10-----10------------------------------------|
G:--(11.)---(9)-(9~)---11--------------------------------------------|
D:-------------------------------------------------------------------|
A:-------------------------------------------------------------------|
E:-------------------------------------------------------------------|
                       rake

[Riff 4d]
e:---------------------(7~)----'10--7----7s9--------|----------------|
B:---------------------(7~)---'7------8------10-----|----------------|
G:---------------------(7~)---7-----------------11--|--9b11r9---9~---|
D:--(7)-(7)------------(7~)-------------------------|----------------|
A:----------(7)-(7)---------------------------------|----------------|
E:-----------------(0)------------------------------|----------------|
                              rake

[Riff 5a]
e:-------------------------------------------------------------------|
B:---------8--------7--5---7b8---------------------------------------|
G:--11-------9--------------------7b9r7------------------------------|
D:----11-------9-9------------------------9--------------------------|
A:-------------------------------------------------------------------|
E:-------------------------------------------------------------------|

[Riff 5b]
e:-------------------------------------------------------------------|
B:--8-8--------7-----------------------------------------------------|
G:------9-9-------7------9--7----9b11--7b9---------------------------|
D:----------9-------7-7-----------------------7----------------------|
A:-------------------------------------------------------------------|
E:-------------------------------------------------------------------|

[Riff 5c]
e:-9---9--------7----------------------------------------------------|
B:-------10---------8-------10------10b12----8b10r8------------------|
G:----------11--------9-9-------9----------------------9-------------|
D:-------------------------------------------------------------------|
A:-------------------------------------------------------------------|
E:-------------------------------------------------------------------|

[Riff 5d]
e:--7-7--------5-5---------------------------------------------------|
B:------8-8--------7-------8--7--8b10---8b10-------------------------|
G:----------9--------7-7------------------------11-------------------|
D:-------------------------------------------------------------------|
A:-------------------------------------------------------------------|
E:-------------------------------------------------------------------|

[Riff 6a]                     [Riff 6b]
e:-------------------------|-----------------------|-----------------|
B:--8-8--------8b10r8------|--7-7--------7b8r7-----|-----------------|
G:------9-9----------------|------7-7--------------|---9b11---9--9---|
D:----------9--------------|----------7------------|-----------------|
A:-------------------------|-----------------------|-----------------|
E:-------------------------|-----------------------|-----------------|

[Riff 7a]
    Em
e:-------0------0------0-----0---------------------------------------|
B:-----0------0------0-----0-----------------------------------------|
G:--------------------------------0----------------------------------|
D:--2------4------5------7------5----4p2-----------------------------|
A:-------------------------------------------------------------------|
E:-------------------------------------------------------------------|

[Riff 7b]
    C(add9 #11)
e:----------2p0-------2p0--------------------------------------------|
B:-------3------3----------3-----------------------------------------|
G:-----0----------------------0--0-----------------------------------|
D:-------------------------------------------------------------------|
A:--3--------------3-------------------------------------------------|
E:-------------------------------------------------------------------|

[Riff 7c]                          [Riff 7d]
    C(add9 #11)
e:---------------0------2p0-----0-|----------2p0---------------0-----|
B:-------3----------3--------3----|--------3-----3---------------3---|
G:-----0---0--0-------------------|------0-------------------0-----0-|
D:--------------------------------|----2-------------4--2--4---------|
A:--3-----------------------------|--3-------------------------------|
E:--------------------------------|----------------------------------|

[Riff 8]
   Em                                      D
e:-7-7-7-7--7-7-7-7--7-7-7-7--7-7-7-7---7----------------------------|
B:-8-8-8-7--8-8-8-7--8-8-8-7--8-8-8-7---8--7-------------------------|
G:-9-9-9-9--9-9-9-9--9-9-9-9--9-9-9-9---9--7-------------------------|
D:-----------------------------------------7-------------------------|
A:-------------------------------------------------------------------|
E:-------------------------------------------------------------------|
   C
e:-8-8-8-7--8-8-8-7--8-8-8-7--8-8-8-7---8----------------------------|
B:-8-8-8-7--8-8-8-7--8-8-8-7--8-8-8-7---8--7-------------------------|
G:-9-9-9-7--9-9-9-7--9-9-9-7--9-9-9-7---9--7-------------------------|
D:-----------------------------------------7-------------------------|
A:-------------------------------------------------------------------|
E:-------------------------------------------------------------------|

[Riff 9]
e:-------------------------------------------------------------------|
B:--5s7--5--5~~----7s8--7--5---3---5---------------------------------|
G:------------------------------------5~~~---------------------------|
D:-------------------------------------------------------------------|
A:-------------------------------------------------------------------|
E:-------------------------------------------------------------------|

[Riff 10]
              Repeat 4x
e:---------|--9s12--12~--|---12ss15~~--------------------------------|
B:---------|-10s12--12~--|---12ss17~~--------------------------------|
G:-5sssss9-|-------------|-------------------------------------------|
D:---------|-------------|-------------------------------------------|
A:---------|-------------|-------------------------------------------|
E:---------|-------------|-------------------------------------------|

[Riff 11a]                      [Riff 11b]
    E                           E
e:----------------------------|--------------------------------------|
B:--------------8~---7--8--x--|------------7-------------------------|
G:--------------9~---7--9--x--|------------7-------------------------|
D:--------7-9-----------------|-------7-9--7---9-9-7-7---------------|
A:--7-9-9---------------------|-7-9-9------------------9-------------|
E:----------------------------|--------------------------------------|

[Riff 12]
    Em                                C(add9 #11)
e:--0-(0)~-----------------------------0-(0)~--------------0---------|
B:--0-(0)~-----------------------------3-(3)~-----------------3--3p0-|
G:--0--0-------------------------------0-(0)~------0--(0)------------|
D:--2-(2)----4~---5~---7~--5~---4p2----x-------2~--------------------|
A:--2-(2)------------------------------3-(3)~----------3-------------|
E:--0-(0)~-----------------------------------------------------------|

[Riff 13] - the section where the guitars are randomly brought to the
                foreground - cleaned up a bit
e:-------------------------------------------------------------------|
B:-13--12---15b17~~------------------------------------12--13--12----|
G:-----------------------12b14r12~~~-----14b16r14~-------------------|
D:-------------------------------------------------------------------|
A:-------------------------------------------------------------------|
E:-------------------------------------------------------------------|

e:-------------15b17----15-------------------------------------------|
B:-15b17~-------------------15b17~--------12b13----12----------------|
G:-----------------------------------------------------14--12--------|
D:-------------------------------------------------------------------|
A:-------------------------------------------------------------------|
E:-------------------------------------------------------------------|

e:-----------------------------------15b17~------15--12------12------|
B:------------12--13b15----13.--12-----------------------15------15--|
G:--14b16~-----------------------------------------------------------|
D:-------------------------------------------------------------------|
A:-------------------------------------------------------------------|
E:-------------------------------------------------------------------|

e:-----------------------------------------------15b17r15----12--12~-|
B:-12--15~----12b15r12~~----10---------------------------------------|
G:-----------------------------12----12-14-12~~----------------------|
D:--------------------------------14---------------------------------|
A:-------------------------------------------------------------------|
E:-------------------------------------------------------------------|

Song progression:

 Fade into [Intro] x3

 [Intro] x1, replace last half with [Intro2]

 [Riff 1] x4

 [Riff 2a] x2 /w lyrics:

        It was an April morning when the told us we should go,
        And as I turned to you, you smiled at me, how could we say no?

 [Riff 2b] x2 /w lyrics:

        Woah the fun to have to live the dreams we always had.
        Woah the songs to sing when we at last return again.

 [Riff 1] x2

 [Riff 2b] x1 /w lyrics:

        Swept New York a glancing kiss to those who claim they know,

 [Riff 2a] x2 /w lyrics:

        Below the streets that steam and hiss, the devil's in his hold.
        Oh to sail away to sandy lands and holidays.

 [Riff 2b] x1 /w lyrics:

        Oh to touch the dream, hides inside and's never seen yeah.

 [Riff 3] x2, second time do 10th fret slide down

 [Ascending octave progression 1] x1
 [Ascending octave progression 2] x1
 [Ascending octave progression 3] x1
 [Ascending octave progression 4] x1

        [final two notes over [Riff 1] x2]

 [Riff 2a] x1 /w lyrics:

        Into the sun the South and on, at last the birds had flown,

 [Riff 2b] x1 /w lyrics:

        As shackles of commitment fell in pieces on the ground.

 [Riff 2a] x1 /w lyrics:

        Oh to ride the wind, to tread the air above the din,

 [Riff 2b] x1 /w lyrics:

        Oh to laugh aloud, with dancing eyes we court the crowd, yeah.

 [Riff 4a] x1
 [Riff 4b] x1
 [Riff 4c] x1
 [Riff 4d] x1

        [final two notes over [Riff 2a] x1 /w lyrics]:

        To seek the man whose pointing hand, the giant step unfolds,

 [Riff 2b] x1 /w lyrics:

        To guide us from the curling path that turns our face to stone.

 [Riff 2a] x1 /w lyrics:

        And if one bell should ring in celebration for a King,

 [Riff 2b] x1 /w lyrics:

        So fast the heart should beat as proud's the head with heavy
                feet, yeah.

 [Riff 3] x4 (at the end of the first time, sing "Ooh......")

 [Guitar Solo]

e:----------7---------------------------------------------------5----|
B:--------------7--5--5~~----8b10r8--------------5--5~-------8-------|
G:-------7-----------------------------7b9r7-----5--5~----5-(5)------|
D:--7s9------------------------------------------5--5~---------------|
A:-------------------------------------------------------------------|
E:-------------------------------------------------------------------|

e:--3h5p3----3~--------3------3h5p3-------3-----5~---------------7---|
B:--------5---------------------------5------5-(5)~------------------|
G:--------4--4~-----4----4------------5------5-(5)~-----------7------|
D:--------------------------------------------------------7s9--------|
A:-------------------------------------------------------------------|
E:-------------------------------------------------------------------|

e:-------------------------------------------10b12r10---------12.-14.|
B:--7--5--5~----7-8-10--8h10p8--7--8--7--8----------------12.--------|
G:-------------------------------------------------------------------|
D:-------------------------------------------------------------------|
A:-------------------------------------------------------------------|
E:-------------------------------------------------------------------|

e:---14b15r14p12--14b15r14p12---12--14--14b15r14p12---15b17r15-------|
B:-------------------------------------------------------------------|
G:-------------------------------------------------------------------|
D:-------------------------------------------------------------------|
A:-------------------------------------------------------------------|
E:-------------------------------------------------------------------|

e:-------------------------------------------------------------------|
B:--13--13~~----12--13----12-----------------------------------------|
G:---------------------14------12------------------12--14------------|
D:---------------------------------14--14~~~----14-------------------|
A:-------------------------------------------------------------------|
E:-------------------------------------------------------------------|

e:-------------------------------------------------------------------|
B:---------------------------------------------12-13--15p13p12-13p12-|
G:--14b16r14b16r14p12-------------------12--14-----------------------|
D:----------------------14--14~~----14-------------------------------|
A:-------------------------------------------------------------------|
E:-------------------------------------------------------------------|

e:----------------------------------------12-14-15.-15p14p12---------|
B:----12-----12h13p12----12-----12-13-15-----------------------------|
G:-14----14-----------14---------------------------------------------|
D:-------------------------------------------------------------------|
A:-------------------------------------------------------------------|
E:-------------------------------------------------------------------|

e:-14~~~~p12-----12-------12-----------------------------------------|
B:------------15----15p12-13--12-----12------------------------------|
G:--------------------------------14----14-12----14-----12h14p12-----|
D:--------------------------------------------14----14---------------|
A:-------------------------------------------------------------------|
E:-------------------------------------------------------------------|

e:-----------------------------------15------15------17b19-----------|
B:--------------------------------15----17.-----17-------------------|
G:----------12--------------14s16------------------------------------|
D:--14--14-----------------------------------------------------------|
A:-------------------------------------------------------------------|
E:-------------------------------------------------------------------|

e:-x--17.--x----12--12~~~~---15b17r15~----15p14p12h14~~---12h14p12~--|
B:-------------------------------------------------------------------|
G:-------------------------------------------------------------------|
D:-------------------------------------------------------------------|
A:-------------------------------------------------------------------|
E:-------------------------------------------------------------------|

e:-12h14p12---------------------------------------------------12-----|
B:-----------15b17-----15-13----13--12-12-12~~~~--------12-15--------|
G:---------------------------14----------------------12--------------|
D:-------------------------------------------------------------------|
A:-------------------------------------------------------------------|
E:-------------------------------------------------------------------|

e:-14--15p14p12--14~---12-14-15-17-19-20b22~~~-----20.--19.--17------|
B:-------------------------------------------------------------------|
G:-------------------------------------------------------------------|
D:-------------------------------------------------------------------|
A:-------------------------------------------------------------------|
E:-------------------------------------------------------------------|

e:-19~~~--x------17b18-------17--15--17--17b19~-------17b19----17----|
B:------------0.-----------------------------------------------------|
G:------------------------0.-----------------------0-----------------|
D:-------------------------------------------------------------------|
A:-------------------------------------------------------------------|
E:-------------------------------------------------------------------|

e:--15---17b19----17--15---14~~~~~----14h15p14p12--14~~---12--14-15--|
B:-------------------------------------------------------------------|
G:-------------------------------------------------------------------|
D:-------------------------------------------------------------------|
A:-------------------------------------------------------------------|
E:-------------------------------------------------------------------|

e:--17p15~~---15--15~~----12--15s14~---------------------------------|
B:-----------------------------------------13s12~--------------------|
G:-------------------------------------14-------------14--12.--------|
D:--------------------------------------------------------------14---|
A:-------------------------------------------------------------------|
E:-------------------------------------------------------------------|

e:-------------------------------------------------------------------|
B:--------------------------------------------12---------------------|
G:--12-----12~~--------12~~~~--------------12------------------------|
D:-----14----------------------------12h14---------------------------|
A:-------------------------------------------------------------------|
E:-------------------------------------------------------------------|

[Ascending octave progression 1] x1
[Ascending octave progression 2] x1

then:

e:--17b19r17----15~--------------------------------------------------|
B:-------------------17~--15.----------------------------------------|
G:-----------------------------16--14---14b16r14----12---------------|
D:------------------------------------------------------14--12.------|
A:-------------------------------------------------------------------|
E:-------------------------------------------------------------------|

e:-------------------------------------------------------------------|
B:--------------17b19----17--17~~~-----------------------------------|
G:-------------------------------------------------------------------|
D:--9----12----------------------------------------------------------|
A:----10-------------------------------------------------------------|
E:-------------------------------------------------------------------|

 (last part of solo:  17b19    17  17~~~ over lyrics):

                                  [last half of Riff 2a]
        Days fly by and you and I bathed in eternal summer's glow

 [Riff 2a] x2 /w lyrics:

        As far away and distant, our mutual child did grow.
        Woah the sweet refrain soothes the soul and calms the pain,

 [Riff 2b] x2 /w lyrics:

        Oh Albion remain sleeping now to rise again.

 [Riff 5a] x1
 [Riff 5b] x1
 [Riff 5c] x1
 [Riff 5d] x1

 [Riff 6a] x2 /w lyrics:

        Wondering and wanderings,

 [Riff 6b] x2 /w lyrics:

        one place to rest the search,

 [Riff 6a] x2 /w lyrics:

        Where the mighty arms of Atlas

 [Riff 6b] x2 /w lyrics:

        hold the heavens from the earth.

 [Riff 6a] x2
 [Riff 6b] x2

 [Riff 6a] x2 /w lyrics:

        Oh the mighty arms of Atlas

 [Riff 6b] x2 /w lyrics:

        hold the heavens from the earth,

 last half of [Riff 6b] x1 /w lyrics:

        from the earth......

 last half of [Riff 7a] x1 (from 7)

 [Riff 7b] x1

 [Riff 7a] x1

 [Riff 7c] x1

 [Riff 7a] x1 /w lyrics:

        I'm gonna reign, gonna reign, gonna reign,

 [Riff 7d] x1 /w lyrics:

        gonna reign,

 [Riff 7a] x1 /w lyrics:

        I'm gonna reign, gonna reign, gonna reign, gonna

 [Riff 7c] x1 /w lyrics:

        reign.

 [Riff 8] x1

 [Ascending octave progression 1] x1
 [Ascending octave progression 2] x1

 [Riff 9] x2

 [Riff 10] x1

 [Riff 11a] x2 (beginning of each one sing "Aah..." along /w guitar)
 [Riff 11b] x2

 [Riff 11a] x2
 [Riff 11b] x2

 [Riff 11a] x2
 [Riff 11b] x2

 [Riff 11a] x2
 [Riff 11b] x2

 [Riff 11a] x2
 [Riff 11b] x2

 [Riff 12] x2  (first "Aahhh..." then "Oohhh...." /w guitar)

 "Aah..." (stops before next one)
 [Ascending octave progression 1] x1

 [Ascending octave progression 2] x1

 "oh..." (stops before next one)
 [Ascending octave progression 3] x1

 [Ascending octave progression 4] x1

 [Riff 13] x1

 [last part played over [Riff 1] x1]

 [Riff 1] x1 /w lyrics:

 Where the mighty arms of Atlas hold the heavens of the earth.

 [Riff 11a] x2 (sing "Oh.." x5 with increased force and pitch)
 [Riff 11b] x2

 [Riff 11a] x2
 [Riff 11b] x2 (sing "Aah" at start of each line /w guitar)

 [Riff 11a] x2
 [Riff 11b] x2

 [Riff 11a] x2
 [Riff 11b] x2

 [Riff 1] x2 (sing "Ooohhh... first time only)

 [Intro] reversed, at least 2 times, then begin fadeout


led zeppelin - all of my love


Tuning: Standard (E A D G B E)

the timing is very hard in this song.

Little fill right before plant starts to sing.
E|---------------------------------------------------------------------------||
B|------13----12-----10------------------------------------------------------||
G|---------------------------------------------------------------------------||
D|--/14----/12---/12---------------------------------------------------------||
A|---------------------------------------------------------------------------||
E|---------------------------------------------------------------------------||
During all the main riffs, Page keeps tapping the
guitar slightly muted.  He does this once between
each fill.

E|--8----7-------------------------------------------------------------------||
B|--8----8-------------------------------------------------------------------||
G|--x----x-------------------------------------------------------------------||
D|---------------------------------------------------------------------------||
A|---------------------------------------------------------------------------||
E|---------------------------------------------------------------------------||

fill 1                            Fill 2
E|------------------------------------5--7p5---------------------------------||
B|-6b8(and hold)-----------------------5-----7/5-3-5p3-----------------------||
G|--------------------------------7b9----------------------------------------||
D|---------------------------------------------------------------------------||
A|---------------------------------------------------------------------------||
E|---------------------------------------------------------------------------||

fill 3                           fill 4
E|---------------------------------------------------------------------------||
B|-6b8r6-6b8r6---------------------------------------------------------------||
G|---------------------------------7-7/9-9/7---7-----------------------------||
D|-------------------------------------------7-------------------------------||
A|---------------------------------------------------------------------------||
E|---------------------------------------------------------------------------||

fill 5
E|-------5h7p5---------------------------------------------------------------||
B|-------------7/5-5---------------------------------------------------------||
G|--7b9----------------------------------------------------------------------||
D|---------------------------------------------------------------------------||
A|---------------------------------------------------------------------------||
E|---------------------------------------------------------------------------||

Should I fall out of love, my fire in the night,(fill 1)
To chase a feather in the wind.(fill 2)
Within the glow that weaves a cloak of delight,(fill 3)
There moves a thread that has no end.(fill 2)
For many hours and days that pass ever soon,(fill 1)
The tides have caused the flame to dim.(fill 4)
At last the arm is straight, the hand to the loom,(fill 3)
Is this the end or just begin?(fill 5)


chorus 1
E|---------------------------------------------------------------------------||
B|-15b17-15b17--13-15-15b17-----15-13-15-13h15p13----------------------------||
G|---------------------------------------------------------------------------||
D|---------------------------------------------------------------------------||
A|---------------------------------------------------------------------------||
E|---------------------------------------------------------------------------||


E|---------------------------------------------------------------------------||
B|---------------------------------------------------------------------------||
G|-10-12-12b14-12b14-12-10h12p10---------------------------------------------||
D|---------------------------------------------------------------------------||
A|---------------------------------------------------------------------------||
E|---------------------------------------------------------------------------||


E|---------------------------------------------------------------------------||
B|-/17----15-13-15-15b17-15-13h15p13-13h15p13--13h15p13----------------------||
G|---------------------------------------------------------------------------||
D|---------------------------------------------------------------------------||
A|---------------------------------------------------------------------------||
E|---------------------------------------------------------------------------||


E|---------------------------------------------------------------------------||
B|---------------------------------------------------------------------------||
G|-10-12-12b14-12b14---------------------------------------------------------||
D|---------------------------------------------------------------------------||
A|---------------------------------------------------------------------------||
E|---------------------------------------------------------------------------||
end of chorus 1

fill 6                              fill 7
E|-----5--7p5----7h5---------------------------------------------------------||
B|------5-----6p5---6p5------------------------------------------------------||
G|-7b9--------------------------------7-7/9\7/9\7----------------------------||
D|----------------------------------7----------------------------------------||
A|---------------------------------------------------------------------------||
E|---------------------------------------------------------------------------||

The cup is raised the toast is made yet again,(fill 3)
One voice is clear above the din.(fill 6)
Proud Arian, one word my will to sustain,(fill 1)
For me the cloth once more to spin, oh.(fill 7)

Chorus 2
E|---------------------------------------------------------------------------||
B|-/17--15-13-15-15b17-15-15-13h15p13-13h15p13--13h15p13---------------------||
G|---------------------------------------------------------------------------||
D|---------------------------------------------------------------------------||
A|---------------------------------------------------------------------------||
E|---------------------------------------------------------------------------||


E|---------------------------------------------------------------------------||
B|-10-12-12b14-12b14---------------------------------------------------------||
G|---------------------------------------------------------------------------||
D|---------------------------------------------------------------------------||
A|---------------------------------------------------------------------------||
E|---------------------------------------------------------------------------||


E|---------------------------------------------------------------------------||
B|-15b17---15-13-15-15b17--15-13-15-13h15p13--13h15p13-----------------------||
G|---------------------------------------------------------------------------||
D|---------------------------------------------------------------------------||
A|---------------------------------------------------------------------------||
E|---------------------------------------------------------------------------||


E|---------------------------------------------------------------------------||
B|---------------------------------------------------------------------------||
G|-10-12-12b14-12b14---------------------------------------------------------||
D|---------------------------------------------------------------------------||
A|---------------------------------------------------------------------------||
E|---------------------------------------------------------------------------||
end of chorus 2

This next part is hard to get the timing right.
Its the part right after the 2nd chorus.

1st riff                          2nd riff
E|---------------------------------------------------------------------------||
B|---------------------------------10b11r10----------------------------------||
G|------5-5-7b9-7-5-------------------------7p5-7p5--5vv---------------------||
D|---5h7-7-------------------------------------7---7-------------------------||
A|-/7------------------------------------------------------------------------||
E|---------------------------------------------------------------------------||
3rd riff
E|---------------------------------------------------------------------------||
B|-8b10r8--6b8r6--10b12r10--8b10r8--6b8r6--4/5-------------------------------||
G|--------------------------------------------0-7b9r7-0----------------------||
D|---------------------------------------------------------------------------||
A|---------------------------------------------------------------------------||
E|---------------------------------------------------------------------------||

Then it goes into the keyboard trumpet solo.
Page just keeps doing the little short popping things
I showed you earlier.

Now it goes to the keyboard with a riff behind it.

E|---------------------------------------------------------------------------||
B|-----12-13-15b17-15b17-15-15----13-12---12---------------------------------||
G|-/14---------------------------------14---14-12----------------------------||
D|---------------------------------------------------------------------------||
A|---------------------------------------------------------------------------||
E|---------------------------------------------------------------------------||

E|---------------------------------------------------------------------------||
B|-----12-13-15b17-15b17-15-15----13-12---12---------------------------------||
G|-/14---------------------------------14---14-12----------------------------||
D|---------------------------------------------------------------------------||
A|---------------------------------------------------------------------------||
E|---------------------------------------------------------------------------||

E|---------------------------------------------------------------------------||
B|-----12-13-15b17-15b17-15-15----13-12---12---------------------------------||
G|-/14---------------------------------14---14-12----------------------------||
D|---------------------------------------------------------------------------||
A|---------------------------------------------------------------------------||
E|---------------------------------------------------------------------------||

E|---------------------------------------------------------------------------||
B|-----12-13-15b17-15b17-15-15----13-12---------10--12p10----10h17-----------||
G|-/14---------------------------------14---------9------10p9-----10p9-------||
D|----------------------------------------12b14------------------------------||
A|---------------------------------------------------------------------------||
E|---------------------------------------------------------------------------||

now back to the hard timing part but with diff. riffs


4th riff
E|---------------5-----------------------------------------------------------||
B|----------------5-8p5--8b10r8----------------------------------------------||
G|----5-5-7b9-77-------------------------------------------------------------||
D|-5h7-7---------------------------------------------------------------------||
A|---------------------------------------------------------------------------||
E|---------------------------------------------------------------------------||

5th riff
E|------5-5------------------------------------------------------------------||
B|-----5-7--5b7r5-7-7p5------------------------------------------------------||
G|-7b9-----------------------------------------------------------------------||
D|---------------------------------------------------------------------------||
A|---------------------------------------------------------------------------||
E|---------------------------------------------------------------------------||

6th riff
E|---------------------------------------------------------------------------||
B|-7b9r7--8b10r8--6b8r6--10b12r10--8b10r8--6b8r6--4/5------------------------||
G|---------------------------------------------------0-7b9r7-0---------------||
D|---------------------------------------------------------------------------||
A|---------------------------------------------------------------------------||
E|---------------------------------------------------------------------------||

back to verse riffs

fill 8
E|---------------------------------------------------------------------------||
B|-5-------------------------------------------------------------------------||
G|---7-7---7b9r7-7b9r7-------------------------------------------------------||
D|-------7-------------------------------------------------------------------||
A|---------------------------------------------------------------------------||
E|---------------------------------------------------------------------------||

Yours is the cloth, mine is the hand that sews time, (fill 3)
His is the voice that lies within.(fill 6)
Ours is the fire all the warmth we can find,(fill 1)
He is a feather in the wind, oh.(fill 8)

final chorus


E|---------------------------------------------------------------------------||
B|-7b9r7-15-13-15-15b17-15-15-13h15p13-13h15p13--13h15p13--------------------||
G|---------------------------------------------------------------------------||
D|---------------------------------------------------------------------------||
A|---------------------------------------------------------------------------||
E|---------------------------------------------------------------------------||

E|---------------------------------------------------------------------------||
B|-10-12-12b14-12b14---------------------------------------------------------||
G|---------------------------------------------------------------------------||
D|---------------------------------------------------------------------------||
A|---------------------------------------------------------------------------||
E|---------------------------------------------------------------------------||

E|---------------------------------------------------------------------------||
B|-----12-13-15b17-15b17-15-15----13-12---12---------------------------------||
G|-/14---------------------------------14---14-12----------------------------||
D|---------------------------------------------------------------------------||
A|---------------------------------------------------------------------------||
E|---------------------------------------------------------------------------||

E|---------------------------------------------------------------------------||
B|-----12-13-15b17-15b17-15-15----13-12---------10--12p10----10h17-----------||
G|-/14---------------------------------14---------9------10p9-----10p9-------||
D|----------------------------------------12b14------------------------------||
A|---------------------------------------------------------------------------||
E|---------------------------------------------------------------------------||

now you do the same thing as that just two frets higher..


In The Evening
Led Zeppeling

The intro thing is just a droning synthesizer and Jimmy playing the open
E-string with a bow.  The overdub is called(I think) a rotovibe which
is a little spinning wheel which when you touch it to the string,
produces that rolling sound.

The main riff is double-tracked and with a little adlibbing is basically:
by the way this is with a strat, or something with a whammy bar:

e-----------------------------------------------------------------------|
b---5--5-5--3--3--2\\0//2\\0-------------5-5-5-3-3--2\\0//2-------------|
g---4--4-4--2--0--2\\0//2\\0-------------4-4-4-2-0--2\\0//2-------------|
d---2--2-2--0--0--2\\0//2\\0----2-5-2----2-2-2-0-0--2\\0//2-------------|
a-----------------------------------------------------------------------|
E-0-----------------------------------0---------------------------------|
                     ^^^Thats a bend down on the whammy bar

The first chorus has something like this:

e---------5--------------------------------------------------------------|
b--7--7---5--7---------7--7/8-7----------------5--7-----------7/8--7-----|
g--7--7---6--7------7--7--7/9-7---7-7/9-7--7---6--7--------7--7/9--7-----|
d--7--7---7--7------7-------------7-7/9-7--7---7--7----7/9-7-------------|
a--5--5---7--5--9-9-------------9---------9----7--5--9-------------------|
E---------5--------------------------------------------------------------|

e--------------------------------------------------------------------------|
b------------------7-----------7------------------7------------------------|
g---------------6--7------7/9--7--------7------6--7------------------------|
d----7/9-7---7--7--7----------------7/9-7------7--7------------------------|
a--9-------9----7--5----9---------9------------7--5------------------------|
E---------------5------------------------------5---------------------------|


The second and fourth choruses  go with this chord sequence:

e---3--3---------3--3---3-------5--5---5--5--------------------------------|
b---3--3--7------3--3---3----9--5--5---5--5--9-----------------------------|
g---4--4--7------4--4---4----9--6--6---6--6--9-----------------------------|
d---5--5--7------5--5---5----9--7--7---7--7--9------4-4-4------------------|
a---5--5--5------5--5---5----7--7--7---7--7--7--7---2-2-2------------------|
E---3--3---------3--3---3-------5--5---5--5-----5--------------------------|

The fourth chorus has this backing line:

e-------------------7\\6//7------------------------7\\6//7--------------|
b---------8-----8---8\\7//8--------------8---8-10--8\\7//8--------------|
g-------7---7-7------------------------7---7----------------------------|
d--9-9-----------------------------9-9----------------------------------|
a-----------------------------------------------------------------------|
E-----------------------------------------------------------------------|

e----------------------9\\\8//9--------------------9--11-11-11-11-------|
b----------10---10-12--10\\9//10-----------10---10----12-12-12-12-------|
g--------9----9-------------------------9-----9-------------------------|
d-11-11---------------------------11-11---------------------------------|
a-----------------------------------------------------------------------|
E-----------------------------------------------------------------------|

The chorus before the solo goes like this:

e-----------------------------------------------------------------------|
b---7-7-----7-7--------------------7----------7/8--7----------------7---|
g---7-7-----7-7----------------6---7-----7-7--7/9--7----7--------6--7---|
d---7-7-----7-7--------9-7-----7---7-----7-7------------7-7---7--7--7---|
a---5-5-----5-5------9-----9---7---5---9--------------9-----9----7--5---|
E------------------------------5---------------------------------5------|

e-----------------------------------------------------------------------|
b------------7/8-7------------------7--7h8-7------------7-----7---------|
g------------7/9-7------------7--6--7--7h9-7------------7---6-7---------|
d----7/9--7-----------7/9-7---7--7--7-----------7/9-7---7---7-7---------|
a--9----------------9-------9----7--5---------9-------9-----7-5---------|
E--------------------------------5--------------------------5-----------|

The solo is something like this:
The starting thing is Jimmy holding down the Whammy Bar as hard as he can
and forcefully picking out a E-Chord and letting up on the bar:

e-------0----12----------------12-------------------12---------------12--|
b------0--------14----------12----15~------------12----15~---------12----|
g-----1---14------14--14^16----------------14^16-------------14^16-------|
d----2-------------------------------------------------------------------|
a---2--------------------------------------------------------------------|
E--0---------------------------------------------------------------------|
                                             Repeat this^^^^^^^^^^^ 5 times
                                                   pretty quickly

e--17^19--17-15-17--15^16--------------------21^22--19-18-17------------|
b---------------------------17--15\\14//15--------------------19^20-----|
g-----------------------------------------------------------------------|
d-----------------------------------------------------------------------|
a-----------------------------------------------------------------------|
E-----------------------------------------------------------------------|


e--17-18-19-------------------------------------------------------------|
b-----------19^21--19-17----19-17----19----17---------------------------|
g------------------------18-------18----18------------------------------|
d-----------------------------------------------------------------------|
a-----------------------------------------------------------------------|
E-----------------------------------------------------------------------|

Then do the whammy thing again
e------12----------------------12-----------------------------------|
b---------14p12-------------12-----15^17^15--12-10-12---------------|
g---------------12^13--14^16--------------------------11^12-9-------|
d---0---------------------------------------------------------------|
a--0----------------------------------------------------------------|
E-0-----------------------------------------------------------------|
                repeat ^^^^^this 4
		times quickly

e--12----------------------------------------------------------------------|
b---------------------------------------------12---------------------------|
g-------12----12--14 14^16--14^16-14^16-14^16------15-14-12-14^15-14-12-14-|
d----------14--------------------------------------------------------------|
a--------------------------------------------------------------------------|
E--------------------------------------------------------------------------|
e--------------------------------------------------------------------------|
b--------------------------------------------------------------------------|
g--12----12-12----------12---------14^15^14--12-15-14-14-12----------------|
d-----14--------12--14-----14-------------------------------14-14----------|
a--------------------------------------------------------------------------|
E--------------------------------------------------------------------------|

e--------------------------12------15^17-(15)^17-(15)^17^15---------------|
b-----------------------12----15------------------------------13-13-------|
g-----------------14^16---------------------------------------------------|
d--14-14\\11//14----------------------------------------------------------|
a-------------------------------------------------------------------------|
E-------------------------------------------------------------------------|

This slowed part is backed with these arpeggiated chords
using a chorus in this series

e----------3----------------0-----------------0------------------------------|
b--------5---5------------3---3-------------0---0-------------------------3--|
g------4-------4-4------4-------4---------2-------2---2---------0-------0----|
d----5----------------4-----------4-----2-----------2---------4-------4------|
a--3----------------2-----------------0---------------------2-------2--------|
E-------------------------------------------------------0-0-------0----------|

e----------2--------------3----------------2-------------------------------|
b--------0---0----------5---5------------3---3-----------------------------|
g------2-------2------4-------4--------4-------4---4-------2---------------|
d----2--------------5-----------5----4-----------4---4---2---2-------------|
a--0--------------3----------------2-------------------0-------0-----------|
E--------------------------------------------------------------------------|

The solo over it goes like this:

e-----------------------------------------------------------------------|
b------------------------------------------------8-7---7----------------|
g--14-14-14^16------(14)^16^14-----14p12h14----------9---9--9-7---------|
d-------------------------------14------------------------------9-7\5-7-|
a-----------------------------------------------------------------------|
E-----------------------------------------------------------------------|

e-----------------------------------------------------------------------|
b-----------------------------------------------------------------------|
g----7-7-9-9-------9^11^9---------------9^11^9--------------------------|
d--9-------------------------7-7----------------------------------------|
a-----------------------------------------------10-10/12----------------|
E-----------------------------------------------------------------------|

The outro solo:

e------15-17-17^19-17-15-17-15~--------------------12\\9//12-------------|
b---17---------------------------17-15-17-15-17-17------------12\\8//12--|
g------------------------------------------------------------------------|
d------------------------------------------------------------------------|
a------------------------------------------------------------------------|
comments
We did not receive enough feedback on this tab! Please rate:
1 2 3 4 5
I want to post or [tab]
guest
You may want to rate the tab now too:
select rating
Please do not post tabs as comments. Select "correction" instead!