Oops, an error
Loading. Please wait.

Rock And Roll Tab

ver2
ver2

Solo

Whole song

Video

More versions @911Tabs.com
24,607 views 24 this week
5 commentsread comments
1 2 3 4 5
worth learning
x 12
Autoscroll
+/-
esc
set tempo
stop
Contributor
Hey! There's an official Ultimate Guitar app which is ideal
for learning songs when you're away from computer. Get the app
WARNING: You are trying to view
                                    content from Ultimate-Guitar.com
                                    in an unauthorized application,
                                    which is prohibited.

                                    Please use an official Ultimate
                                    Guitar Tabs application for iPhone,
                                    iPad or Android to access legitimate
                                    chords, guitar, bass, and drum tabs
                                    from Ultimate-Guitar.com database.

                                    Type "ultimate guitar tabs" in Apple
                                    App Store's or Android Market's
                                    search to find the application.
Band:  Led Zeppelin
Album: Led Zeppelin IV
Song:  Rock & Roll

Transcribed By: Guitarzan Freak

Legend:
x  - mute                /  - slide up to
\  - slide down to       ~  - vibrato/ vibrato bend
h  - hammer on           p  - pull off            
b  - bend                r  - release bend
*  - see comment        ()  - sustained note 
o\_- repeat             pm  - palm mute   
o/

Robert Plant - Singer
Jimmy Page   - Guitar
John Bonham  - Drums
John Paul Jones - Bass    Led Zeppelin.

Tuning:
Gtr. 1 - Standard (EADGBe) w/ distortion (Jimmy Page)
Gtr. 2 - Standard (EADGBe) w/ distortion (Jimmy Page)
    
Intro 0:07-0:24:
 
  Gtr. 1
e|---------------|------------------|
B|---------------|------------------|
G|---------------|------------------|
D|-------5---4---|------------------|
A|---4-7---7---7-|-7-7-9-7--7-7-9-7-|
E|-5-------------|-5-5-5-5--5-5-5-5-|

  Gtr. 1
e|---------------|------------------|
B|---------------|------------------|
G|---------------|------------------|
D|-------5---4---|------------------|
A|---4-7---7---7-|-7-7-9-7--7-7-9-7-|
E|-5-------------|-5-5-5-5--5-5-5-5-|

  Gtr. 2
e|---------------|------------------|
B|---------------|------------------|
G|---------------|----------------2-|
D|---------------|------------2p0---|
A|---------------|--------3p0-------|
E|---------------|------------------|


  Gtr. 1
e|---------------|------------------|
B|---------------|------------------|
G|-------5---4---|------------------|
D|---4-7---7---7-|-7-7-9-7--7-7-9-7-|
A|-5-------------|-5-5-5-5--5-5-5-5-|
E|---------------|------------------|

  Gtr. 2
e|---------------|------------------|
B|---------------|------------------|
G|---------------|----------------0-|
D|---------------|------------2p0---|
A|---------------|--------3p0-------|
E|---------------|------------------|


  Gtr. 1
e|---------------|------------------|
B|---------------|------------------|
G|---------------|------------------|
D|-------5---4---|------------------|
A|---4-7---7---7-|-7-7-9-7--7-7-9-7-|
E|-5-------------|-5-5-5-5--5-5-5-5-|

  Gtr. 2
e|--------------------|-------------|
B|--------------------|-------------|
G|--------------------|-------2p0---|
D|--------------------|---2p0-----2-|
A|--------------------|-------------|
E|--------------------|-------------|


  Gtr. 1
e|---------------|------------------|
B|---------------|------------------|
G|---------------|------------------|
D|---------------|------------------|
A|-----2-5-2-4-2-|-2-2-4-2--2-2-4-2-|
E|-0-4-----------|-0-0-0-0--0-0-0-0-|

  Gtr. 2
e|---------------|------------------|
B|---------------|------------------|
G|---------------|------------------|
D|---------------|------------2p0---|
A|---------------|--------3p0-------|
E|---------------|----------------3-|


  Gtr. 1
e|---------------|------------------|
B|---------------|------------------|
G|---------------|------------------|
D|-------5---4---|------------------|
A|---4-7---7---7-|-7-7-9-7--7-7-9-7-|
E|-5-------------|-5-5-5-5--5-5-5-5-|

  Gtr. 2
e|---------------|------------------|
B|---------------|------------------|
G|---------2-----|-----2p0----------|
D|-----2p0-------|-2p0-----2-0-2p0--|
A|-3p0-----------|------------------|
E|---------------|------------------|

e|-------------------------|-----------------|
B|-------------------------|-----------------| 
G|-------------------------|-----2p0---------| 
D|-----------------2p0-0-2-|-2p0-----2-0-2p0-| 
A|-0---0-3-0-3p0-3---------|-----------------| 
E|---3---------------------|-----------------| 


Verse 1 0:25-0:54:

  Gtr. 1
e|---------|---------------------|---------------------------------|
B|---------|---------------------|---------------------------------|
G|---------|---------------------|---------------------------------|
D|---2-(2)-|-(2)-(2)-(2)---2-(2)-|-(2)-(2)-(2)---2-(2)---2---2-----|
A|---0-(0)-|-(0)-(0)-(0)---0-(0)-|-(0)-(0)-(0)---0-(0)---0---0-----|
E|-3-------|-------------3-------|-------------3-------3---3---3p0-|
  It's been a long time since I rock and rolled,

  Gtr. 1
e|---------|---------------------|---------------------------------|
B|---------|---------------------|---------------------------------|
G|---------|---------------------|---------------------------------|
D|---2-(2)-|-(2)-(2)-(2)---2-(2)-|-(2)-(2)-(2)---2-(2)---2---2-----|
A|---0-(0)-|-(0)-(0)-(0)---0-(0)-|-(0)-(0)-(0)---0-(0)---0---0-----|
E|-3-------|-------------3-------|-------------3-------3---3---3p0-|
  It's been a long time since I did the stroll.
  
  Gtr. 1
e|---------|---------------------|---------------------------------|
B|---3-(3)-|-(3)-(3)-(3)---3-(3)-|-(3)-(3)-(3)---3-(3)---3---3-----|
G|---2-(2)-|-(2)-(2)-(2)---2-(2)-|-(2)-(2)-(2)---2-(2)---2---2-----|
D|---0-(0)-|-(0)-(0)-(0)---0-(0)-|-(0)-(0)-(0)---0-(0)---0---0-----|
A|-3-------|-------------3-------|-------------3-------3---3---3p0-|
E|---------|---------------------|---------------------------------|
  Ooh, let me get it back, let me get it back, Let me get it back, baby, 

  Gtr. 1
e|---------|---------------------|---------------------------------|
B|---------|---------------------|---------------------------------|
G|---------|---------------------|---------------------------------|
D|---2-(2)-|-(2)-(2)-(2)---2-(2)-|-(2)-(2)-(2)---2-(2)---2---2-----|
A|---0-(0)-|-(0)-(0)-(0)---0-(0)-|-(0)-(0)-(0)---0-(0)---0---0-----|
E|-3-------|-------------3-------|-------------3-------3---3---3p0-| 
  where I come from.

  Gtr. 1
e|----------|----------|----------|----------|-----|
B|----------|----------|----------|----------|-----|
G|----------|----------|----------|----------|-----|
D|-9-9-11-9-|-9-9-11-9-|-9-9-11-9-|-9-9-11-9-|--7--|
A|-7-7-7--7-|-7-7-7--7-|-7-7-7--7-|-7-7-7—-7-|--5--|
E|----------|----------|----------|----------|-----|
 It's been a long time, been a long time, 

  Gtr. 1                                    *            Repeat              *
e|-----------------------------------------|---------------|------------------|
B|-----------------------------------------|---------------|------------------|
G|-----------------------------------------|o--------------|-----------------o|
D|-----------------------------------------|o------5---4---|-----------------o|
A|-----------------------------------------|---4-7---7---7-|-7-7-9-7--7-7-9-7-|
E|-----------------------------------------|-5-------------|-5-5-5-5--5-5-5-5-|

  Gtr. 2
e|--------------------------------------------------------------|-------------|
B|--------------------------------------------------------------|-------------|
G|--------------------------------------------------------------|-------2p0---|
D|--------------------------------------------------------------|---2p0-----2-|
A|--------------------------------------------------------------|-------------|
E|--------------------------------------------------------------|-------------|
  Been a long lonely, lonely, lonely, lonely, lonely time.         Yes it has. 

Verse 2 0:57-1:27:
 
  Gtr. 1
e|---------|---------------------|---------------------------------|
B|---------|---------------------|---------------------------------|
G|---------|---------------------|---------------------------------|
D|---2-(2)-|-(2)-(2)-(2)---2-(2)-|-(2)-(2)-(2)---2-(2)---2---2-----|
A|---0-(0)-|-(0)-(0)-(0)---0-(0)-|-(0)-(0)-(0)---0-(0)---0---0-----|
E|-3-------|-------------3-------|-------------3-------3---3---3p0-|
  It's been a long time since the book of love, 

  Gtr. 1
e|---------|---------------------|---------------------------------|
B|---------|---------------------|---------------------------------|
G|---------|---------------------|---------------------------------|
D|---2-(2)-|-(2)-(2)-(2)---2-(2)-|-(2)-(2)-(2)---2-(2)---2---2-----|
A|---0-(0)-|-(0)-(0)-(0)---0-(0)-|-(0)-(0)-(0)---0-(0)---0---0-----|
E|-3-------|-------------3-------|-------------3-------3---3---3p0-|
  I can't count the tears of a life with no love.

  Gtr. 1
e|---------|---------------------|---------------------------------|
B|---3-(3)-|-(3)-(3)-(3)---3-(3)-|-(3)-(3)-(3)---3-(3)---3---3-----|
G|---2-(2)-|-(2)-(2)-(2)---2-(2)-|-(2)-(2)-(2)---2-(2)---2---2-----|
D|---0-(0)-|-(0)-(0)-(0)---0-(0)-|-(0)-(0)-(0)---0-(0)---0---0-----|
A|-3-------|-------------3-------|-------------3-------3---3---3p0-|
E|---------|---------------------|---------------------------------|       

Carry me back, carry me back, Carry me back, baby, where I come from. 

  Gtr. 1
e|---------|---------------------|---------------------------------|
B|---------|---------------------|---------------------------------|
G|---------|---------------------|---------------------------------|
D|---2-(2)-|-(2)-(2)-(2)---2-(2)-|-(2)-(2)-(2)---2-(2)---2---2-----|
A|---0-(0)-|-(0)-(0)-(0)---0-(0)-|-(0)-(0)-(0)---0-(0)---0---0-----|
E|-3-------|-------------3-------|-------------3-------3---3---3p0-|
  
  Gtr. 1
e|----------|----------|----------|----------|-----|
B|----------|----------|----------|----------|-----|
G|----------|----------|----------|----------|-----|
D|-9-9-11-9-|-9-9-11-9-|-9-9-11-9-|-9-9-11-9-|--7--|
A|-7-7-7--7-|-7-7-7--7-|-7-7-7--7-|-7-7-7—-7-|--5--|
E|----------|----------|----------|----------|-----|
 It's been a long time, been a long time,

Gtr. 1                                    *            Repeat              *
e|-----------------------------------------|---------------|------------------|
B|-----------------------------------------|---------------|------------------|
G|-----------------------------------------|o--------------|-----------------o|
D|-----------------------------------------|o------5---4---|-----------------o|
A|-----------------------------------------|---4-7---7---7-|-7-7-9-7--7-7-9-7-|
E|-----------------------------------------|-5-------------|-5-5-5-5--5-5-5-5-|

  Gtr. 2
e|--------------------------------------------------------------|-------------|
B|--------------------------------------------------------------|-------------|
G|--------------------------------------------------------------|-------2p0---|
D|--------------------------------------------------------------|---2p0-----2-|
A|--------------------------------------------------------------|-------------|
E|--------------------------------------------------------------|-------------|
  Been a long lonely, lonely, lonely, lonely, lonely time.         


Solo 1:27-2:21:

  Gtr. 2:
e|-------------------------|-----------------| 
B|-------------------------|-----------------| 
G|-------------------------|-----------0-----| 
D|-------------------------|-------2p0-------| 
A|-3p0-3p0---3p0h3---3p0---|-3p0-0-------3-0-| 
E|---------3-------------3-|-----------------| 
 
Gtr. 1
e|---------|---------------------|---------------------------------|
B|---------|---------------------|---------------------------------|
G|---------|---------------------|---------------------------------|
D|---2-(2)-|-(2)-(2)-(2)---2-(2)-|-(2)-(2)-(2)---2-(2)---2---2-----|
A|---0-(0)-|-(0)-(0)-(0)---0-(0)-|-(0)-(0)-(0)---0-(0)---0---0-----|
E|-3-------|-------------3-------|-------------3-------3---3---3p0-|


  Gtr. 2
e|-------------------------|-----------------|
B|-------------------------|-----------------| 
G|-------------------------|-----2p0---------| 
D|-----------------2p0-0-2-|-2p0-----2-0-2p0-| 
A|-0---0-3-0-3p0-3---------|-----------------| 
E|---3---------------------|-----------------| 

  Gtr. 1
e|---------|---------------------|---------------------------------|
B|---------|---------------------|---------------------------------|
G|---------|---------------------|---------------------------------|
D|---2-(2)-|-(2)-(2)-(2)---2-(2)-|-(2)-(2)-(2)---2-(2)---2---2-----|
A|---0-(0)-|-(0)-(0)-(0)---0-(0)-|-(0)-(0)-(0)---0-(0)---0---0-----|
E|-3-------|-------------3-------|-------------3-------3---3---3p0-|

  Gtr. 2
e|-------------5-----------------------------| 
B|-----------5-------------------------------| 
G|-0---7-7b9-----7b9-5b7r5-7p5---7-5-------7-| 
D|---2-------------------------7-----7-5-7---| 
A|-------------------------------------------| 
E|-------------------------------------------| 
  
  Gtr. 1
e|---------|---------------------|---------------------------------|
B|---3-(3)-|-(3)-(3)-(3)---3-(3)-|-(3)-(3)-(3)---3-(3)---3---3-----|
G|---2-(2)-|-(2)-(2)-(2)---2-(2)-|-(2)-(2)-(2)---2-(2)---2---2-----|
D|---0-(0)-|-(0)-(0)-(0)---0-(0)-|-(0)-(0)-(0)---0-(0)---0---0-----|
A|-3-------|-------------3-------|-------------3-------3---3---3p0-|
E|---------|---------------------|---------------------------------|

  Gtr. 2
e|-------5-------5--------------------------------------| 
B|-------------------8p5--9p6---10p7----11p8----12p9----| 
G|-7-7b9---7-7b9---7----------8------10------10------11-| 
D|------------------------------------------------------| 
A|------------------------------------------------------| 
E|------------------------------------------------------| 

  Gtr. 1
e|---------|---------------------|---------------------------------|
B|---------|---------------------|---------------------------------|
G|---------|---------------------|---------------------------------|
D|---2-(2)-|-(2)-(2)-(2)---2-(2)-|-(2)-(2)-(2)---2-(2)---2---2-----|
A|---0-(0)-|-(0)-(0)-(0)---0-(0)-|-(0)-(0)-(0)---0-(0)---0---0-----|
E|-3-------|-------------3-------|-------------3-------3---3---3p0-|

  Gtr.2
e|----------------------------------------------------| 
B|-13p10----10----10-13b16-13b16r13-10-13----12-10----| 
G|-------12----12-------------------------12-------12-| 
D|----------------------------------------------------| 
A|----------------------------------------------------| 
E|----------------------------------------------------|

  Gtr. 1
e|---------|---------------------|---------------------------------|
B|---------|---------------------|---------------------------------|
G|---------|---------------------|---------------------------------|
D|---2-(2)-|-(2)-(2)-(2)---2-(2)-|-(2)-(2)-(2)---2-(2)---2---2-----|
A|---0-(0)-|-(0)-(0)-(0)---0-(0)-|-(0)-(0)-(0)---0-(0)---0---0-----|
E|-3-------|-------------3-------|-------------3-------3---3---3p0-|

  Gtr. 2
e|------------------------------------------------| 
B|-12b13-12-10-10----12b(13)-12-10----12----10-12-| 
G|----------------11---------------11----11-------| 
D|------------------------------------------------| 
A|------------------------------------------------| 
E|------------------------------------------------| 

  Gtr. 1
e|---------|---------------------|---------------------------------|
B|---------|---------------------|---------------------------------|
G|---------|---------------------|---------------------------------|
D|---2-(2)-|-(2)-(2)-(2)---2-(2)-|-(2)-(2)-(2)---2-(2)---2---2-----|
A|---0-(0)-|-(0)-(0)-(0)---0-(0)-|-(0)-(0)-(0)---0-(0)---0---0-----|
E|-3-------|-------------3-------|-------------3-------3---3---3p0-| 

  Gtr. 2
e|----------12------------15------15--------15---15---15-| 
B|-10-10-10----12b(14)-10-15b(17)-15b(17)>>>15>>>15>>>15-| 
G|-------------------------------------------------------| 
D|-------------------------------------------------------| 
A|-------------------------------------------------------| 
E|-------------------------------------------------------| 

  Gtr.2
e|-15------------------12----------| 
B|----15b(17)-15-14-15----13-----8-| 
G|---------------------------14\---| 
D|---------------------------------| 
A|---------------------------------| 
E|---------------------------------| 

  Gtr. 1
e|----------|----------|----------|----------|-----|
B|----------|----------|----------|----------|-----|
G|----------|----------|----------|----------|-----|
D|-9-9-11-9-|-9-9-11-9-|-9-9-11-9-|-9-9-11-9-|--7--|
A|-7-7-7--7-|-7-7-7--7-|-7-7-7--7-|-7-7-7—-7-|--5--|
E|----------|----------|----------|----------|-----|

  Gtr. 2
e|---------------------7b(9)-5--------------| 
B|-8p5---8p5---8p5---5---------5---5--------| 
G|-----6-----6-----6-------------7---7-(7)\-| 
D|------------------------------------------| 
A|------------------------------------------| 
E|------------------------------------------| 

  Gtr. 2
e|------------------------------------------------------| 
B|-8p5---8p5---8p5---8p5---8p5---8p5---8p5---8p5--------| 
G|-----7-----7-----7-----7-----7-----7-----7-----7-(7)\-| 
D|------------------------------------------------------| 
A|------------------------------------------------------| 
E|------------------------------------------------------|

  Gtr. 1
e|---------------|------------------|
B|---------------|------------------|
G|---------------|------------------|
D|-------5---4---|------------------| **End of Solo!**
A|---4-7---7---7-|-7-7-9-7--7-7-9-7-| *Piano comes in*
E|-5-------------|-5-5-5-5--5-5-5-5-|

Verse 3 2:21-2:51:
 
  Gtr. 1
e|---------|---------------------|---------------------------------|
B|---------|---------------------|---------------------------------|
G|---------|---------------------|---------------------------------|
D|---2-(2)-|-(2)-(2)-(2)---2-(2)-|-(2)-(2)-(2)---2-(2)---2---2-----|
A|---0-(0)-|-(0)-(0)-(0)---0-(0)-|-(0)-(0)-(0)---0-(0)---0---0-----|
E|-3-------|-------------3-------|-------------3-------3---3---3p0-| 
  Seems so long since we walked in the moonlight,

  Gtr. 1
e|---------|---------------------|---------------------------------|
B|---------|---------------------|---------------------------------|
G|---------|---------------------|---------------------------------|
D|---2-(2)-|-(2)-(2)-(2)---2-(2)-|-(2)-(2)-(2)---2-(2)---2---2-----|
A|---0-(0)-|-(0)-(0)-(0)---0-(0)-|-(0)-(0)-(0)---0-(0)---0---0-----|
E|-3-------|-------------3-------|-------------3-------3---3---3p0-|
  Making vows that just can't work right.


  Gtr. 1
e|---------|---------------------|---------------------------------|
B|---3-(3)-|-(3)-(3)-(3)---3-(3)-|-(3)-(3)-(3)---3-(3)---3---3-----|
G|---2-(2)-|-(2)-(2)-(2)---2-(2)-|-(2)-(2)-(2)---2-(2)---2---2-----|
D|---0-(0)-|-(0)-(0)-(0)---0-(0)-|-(0)-(0)-(0)---0-(0)---0---0-----|
A|-3-------|-------------3-------|-------------3-------3---3---3p0-|
E|---------|---------------------|---------------------------------|
Open your arms, opens your arms, Open your arms, baby, let my love come running                  
                                                                            in.
Gtr. 1
e|---------|---------------------|---------------------------------|
B|---------|---------------------|---------------------------------|
G|---------|---------------------|---------------------------------|
D|---2-(2)-|-(2)-(2)-(2)---2-(2)-|-(2)-(2)-(2)---2-(2)---2---2-----|
A|---0-(0)-|-(0)-(0)-(0)---0-(0)-|-(0)-(0)-(0)---0-(0)---0---0-----|
E|-3-------|-------------3-------|-------------3-------3---3---3p0-|

Gtr. 1
e|----------|----------|----------|----------|-----|
B|----------|----------|----------|----------|-----|
G|----------|----------|----------|----------|-----|
D|-9-9-11-9-|-9-9-11-9-|-9-9-11-9-|-9-9-11-9-|--7--|
A|-7-7-7--7-|-7-7-7--7-|-7-7-7--7-|-7-7-7—-7-|--5--|
E|----------|----------|----------|----------|-----|
  It's been a long time, been a long time, 
Gtr. 1                                    *            Repeat              *
e|-----------------------------------------|---------------|------------------|
B|-----------------------------------------|---------------|------------------|
G|-----------------------------------------|o--------------|-----------------o|
D|-----------------------------------------|o------5---4---|-----------------o|
A|-----------------------------------------|---4-7---7---7-|-7-7-9-7--7-7-9-7-|
E|-----------------------------------------|-5-------------|-5-5-5-5--5-5-5-5-|

  Gtr. 2
e|--------------------------------------------------------------|-------------|
B|--------------------------------------------------------------|-------------|
G|--------------------------------------------------------------|-------2p0---|
D|--------------------------------------------------------------|---2p0-----2-|
A|--------------------------------------------------------------|-------------|
E|--------------------------------------------------------------|-------------|
  Been a long lonely, lonely, lonely, lonely, lonely time.         

Outro 2:50-3:39:

  Gtr. 1
e|---------------|------------------|
B|---------------|------------------|
G|---------------|------------------|
D|-------5---4---|------------------|
A|---4-7---7---7-|-7-7-9-7--7-7-9-7-|
E|-5-------------|-5-5-5-5--5-5-5-5-|

  Gtr. 2
e|--------------------|-------------|
B|--------------------|-------------|
G|--------------------|-------2p0---|
D|--------------------|---2p0-----2-|
A|--------------------|-------------|
E|--------------------|-------------|


  Gtr. 1
e|---------------|------------------|
B|---------------|------------------|
G|---------------|------------------|
D|-------5---4---|------------------|
A|---4-7---7---7-|-7-7-9-7--7-7-9-7-|
E|-5-------------|-5-5-5-5--5-5-5-5-|

  Gtr. 2
e|--------------------|-------------|
B|--------------------|-------------|
G|--------------------|-------2p0---|
D|--------------------|---2p0-----2-|
A|--------------------|-------------|
E|--------------------|-------------|


  Gtr. 1
e|---------------|------------------|
B|---------------|------------------|
G|---------------|------------------|
D|-------5---4---|------------------|
A|---4-7---7---7-|-7-7-9-7--7-7-9-7-|
E|-5-------------|-5-5-5-5--5-5-5-5-|

  Gtr. 2
e|--------------------|-------------|
B|--------------------|-------------|
G|--------------------|-------2p0---|
D|--------------------|---2p0-----2-|
A|--------------------|-------------|
E|--------------------|-------------|


  Gtr. 1
e|---------------|------------------|
B|---------------|------------------|
G|---------------|------------------|
D|-------5---4---|------------------|
A|---4-7---7---7-|-7-7-9-7--7-7-9-7-|
E|-5-------------|-5-5-5-5--5-5-5-5-|

  Gtr. 2
e|--------------------|-------------|
B|--------------------|-------------|
G|--------------------|-------2p0---|
D|--------------------|---2p0-----2-|
A|--------------------|-------------|
E|--------------------|-------------|


  Gtr. 1
e|---------------|------------------|
B|---------------|------------------|
G|---------------|------------------|
D|-------5---4---|------------------|
A|---4-7---7---7-|-7-7-9-7--7-7-9-7-|
E|-5-------------|-5-5-5-5--5-5-5-5-|

  Gtr. 2
e|--------------------|-------------|
B|--------------------|-------------|
G|--------------------|-------2p0---|
D|--------------------|---2p0-----2-|
A|--------------------|-------------|
E|--------------------|-------------|


  Gtr. 1
e|---------------|------------------|
B|---------------|------------------|
G|---------------|------------------|
D|-------5---4---|------------------|
A|---4-7---7---7-|-7-7-9-7--7-7-9-7-|
E|-5-------------|-5-5-5-5--5-5-5-5-|


  Gtr. 2
e|--------------------|-------------|
B|--------------------|-------------|
G|--------------------|-------2p0---|
D|--------------------|---2p0-----2-|
A|--------------------|-------------|
E|--------------------|-------------|


  Gtr. 1
e|-----------------------------------|
B|-----------------------------------|
G|-2-2-2-2-2-2-2-2-2-2-2-2-2-2-2-2-2-|
D|-2-2-2-2-2-2-2-2-2-2-2-2-2-2-2-2-2-|
A|-----------------------------------|
E|-----------------------------------|


  Gtr. 2
e|--------------------|-------------|
B|--------------------|-------------|
G|--------------------|-------2p0---|
D|--------------------|---2p0-----2-|
A|--------------------|-------------|
E|--------------------|-------------|


  Gtr. 1
e|----------------------------------|
B|----------------------------------|
G|----------------------------------|
D|-------5-3------------------------|
A|-3p4p5-----5p4p3------------------|
E|-----------------6-3--------------|

  Gtr. 2
e|--------------------|-------------|
B|--------------------|-------------|
G|--------------------|-------2p0---|
D|--------------------|---2p0-----2-|
A|--------------------|-------------|
E|--------------------|-------------|


  Gtr. 1
e|---------------|------------------|
B|---------------|------------------|
G|---------------|------------------|
D|-------5---4---|------------------|
A|---4-7---7---7-|-7-7-9-7--7-7-9-7-|
E|-5-------------|-5-5-5-5--5-5-5-5-|

  Gtr. 2
e|--------------------|-------------|
B|--------------------|-------------|
G|--------------------|-------2p0---|
D|--------------------|---2p0-----2-|
A|--------------------|-------------|
E|--------------------|-------------|


  Gtr. 1
e|---------------|------------------|
B|---------------|------------------|
G|---------------|------------------|
D|-------5---4---|------------------|
A|---4-7---7---7-|-7-7-9-7--7-7-9-7-|
E|-5-------------|-5-5-5-5--5-5-5-5-|

  Gtr. 2
e|--------------------|-------------|
B|--------------------|-------------|
G|--------------------|-------2p0---|
D|--------------------|---2p0-----2-|
A|--------------------|-------------|
E|--------------------|-------------|


  Gtr. 1
e|---------------|------------------|
B|---------------|------------------|
G|---------------|------------------|
D|---------------|------------------|
A|-----2-5-2-4-2-|-2-2-4-2--2-2-4-2-|
E|-0-4-----------|-0-0-0-0--0-0-0-0-|

  Gtr. 2
e|--------------------|-------------|
B|--------------------|-------------|
G|--------------------|-------2p0---|
D|--------------------|---2p0-----2-|
A|--------------------|-------------|
E|--------------------|-------------|
  Been a long time, been a long time, 

**Band stops, then Robert Plant says:**

"Been a long lonely, lonely, lonely, lonely, lonely time." 

              **Then**

  Ending 3:32:
e|------------------------------------------------| 
B|-5-(5)-(5)--------------------------------------| 
G|-x—---------------------------------------------| 
D|-5-(5)-(5)-------------------5h7p5-7p5---5------| 
A|-4-(4)-(4)---3h5p3-----3-5/7-----------0---5--3-| 
E|-----------5-------3h5--------------------------| 

 Rock And Roll 
(Bonham/Jones/Page/Plant) 

It's been a long time since I rock and rolled, 
It's been a long time since I did the stroll. 
Ooh, let me get it back, let me get it back, 
Let me get it back, baby, where I come from. 
It's been a long time, been a long time, 
Been a long lonely, lonely, lonely, lonely, lonely time. Yes it has. 

It's been a long time since the book of love, 
I can't count the tears of a life with no love. 
Carry me back, carry me back, 
Carry me back, baby, where I come from. 
It's been a long time, been a long time, 
Been a long lonely, lonely, lonely, lonely, lonely time. 

Seems so long since we walked in the moonlight, 
Making vows that just can't work right. 
Open your arms, opens your arms, 
Open your arms, baby, let my love come running in. 
It's been a long time, been a long time, 
Been a long lonely, lonely, lonely, lonely, lonely time. 
            _    ___  ___
 ________  | |  |  _ |   \ By: Guitarzan Freak
|_______ | | |  |  _|| | |
       / / | |_ | |_ | | |
      / /  |___||___||___/
     / /___  _____  _____  _____   _     _  __    __
    / / ___||  _  ||  _  ||  ___| | |   | ||  \  |  |
   / /| |_  | |_| || |_| || |__   | |   | ||   \ |  |
  / / | __| |  ___||  ___||  __|  | |   | ||  \ \|  | 
 / /__|_|_  | |    | |    | |___  | |__ | ||  |\ \  |
|_________| |_|    |_|    |_____| |____||_||__| \___|
comments
print report bad tab
5 comments total. Showing first comments.
0 reply
iampinkfloyd wrote on May 12 2004, 12:00 am

im sorry man but the main riff is deafinately wrong.

Check it:

I
E||---------------------------|---------------------------||
B||---------------------------|---------------------------||
G||*--------------------------|--------------------------*||
D||*--2--2-----2--5--2--4-----|-----2--4--2--2--2--4--2--*||
A||---0--0--4--0--0-----0--3b-|--3--0--0--0--0--0--0--0---||
E||---------------------------|---------------------------||


IV
--------------------------|--------------------------|
--------------------------|--------------------------|
--2--2-----2--5h-2--4-----|-----2--4--2--2--2--4--2--|
--0--0--4--0--0-----0--3b-|--3--0--0--0--0--0--0--0--|
--------------------------|--------------------------|
--------------------------|--------------------------|



V
--------------------------|--------------------------||
--------------------------|--------------------------||
--------------------------|--------------------------||
--------------------------|--------------------------||
--2--2-----2--2--5--2--4--|-----2--4--2--2--2--4--2--||
--0--0--4--0--0--------0--|--3b-0--0--0--0--0--0--0--||

Standard I-IV-V blues progression

0 reply
gibsonrocker917 wrote on January 7 2006, 09:55 pm

wrong intro

stickn w/ pinkflyod/\ and the way i play it

0 reply
roxorzroxz wrote on October 23 2006, 09:56 pm

really i think this is better
I
E||---------------------------|---------------------------||
B||---------------------------|---------------------------||
G||*--------------------------|--------------------------*||
D||*--2--2-----2--5--2--------|----2--4--2--5--2--4--2---*||
A||---0--0--4--0--0--0--3b----|----0--0--0--0--0--0--0----||
E||---------------------------|---------------------------||

Its just the way i like to play it

I want to post or [tab]
guest
You may want to rate the tab now too:
select rating
Please do not post tabs as comments. Select "correction" instead!