Oops, an error
Loading. Please wait.

Stairway To Heaven Tab

ver4
90,480 views 216 this week
17 commentsread comments
1 2 3 4 5
accurate
x 33
Autoscroll
+/-
esc
set tempo
stop
Hey! There's an official Ultimate Guitar app which is ideal
for learning songs when you're away from computer. Get the app
WARNING: You are trying to view
                                    content from Ultimate-Guitar.com
                                    in an unauthorized application,
                                    which is prohibited.

                                    Please use an official Ultimate
                                    Guitar Tabs application for iPhone,
                                    iPad or Android to access legitimate
                                    chords, guitar, bass, and drum tabs
                                    from Ultimate-Guitar.com database.

                                    Type "ultimate guitar tabs" in Apple
                                    App Store's or Android Market's
                                    search to find the application.
LED ZEPPELIN- STAIRWAY TO HEAVEN

This is the official version of Stairway To heaven.
I got it from a guitar one magazine and typed it out on here.

E-------5-7-----7-|-8-----8-2-----2-|-0---------0-----|---------------|
B-----5-----5-----|---5-------3-----|---1---1-----1---|-0-1-----------|
G---5---------5---|-----5-------2---|-----2---------2-|-0-2-2---------|
D-7---------------|-5---------------|-3---------------|---------------|
A-----------------|-----------------|-----------------|-2-0-0--0-/8-7-|
E-----------------|-----------------|-----------------|---------------|
 
E---------7-----7-|-8-----8-2-----2-|-0---------0-----|---------------|
B-------5---5-----|---5-------3-----|---1---1-----1---|-0-1-----------|
G-----5-------5---|-----5-------2---|-----2---------2-|-0-2-2---------|
D---7-------------|-5---------------|-3---------------|---------------|
A-0---------------|-----------------|-----------------|-2-0-0---------|
E-----------------|-----------------|-----------------|---------------|
 
E------------0-2-----2-|-------0----------|---------3-----3-----3-2-3-|
B----------------3-----|---1-----0-1------|-1-----1---0-------------3-|
G----------0-------2---|-----2-------2----|---0---------0-----------2-|
D--------2-------------|-3----------------|-----2---------------0---0-|
A--0-2-3---------------|--------------0-2-|-3-------------------------|
E----------------------|------------------|---------------------------|

E---------2-----2-|-0-----0----------|---------------2-|-0-0-0--------|
B-------1---3-----|---1-----0-1------|-------1-----3---|-1-1-1--------|
G-----0-------2---|-----2-------2----|-----0-----2-----|-2-2-2--------|
D---2-------------|-3----------------|---2-----0-------|-3-3-3--------|
A-3---------------|--------------0-2-|-3---------------|--------------|
E-----------------|------------------|-----------------|--------------|

E-------5-7-----7-|-8-----8-2-----2-|-0---------0-----|---------------|
B-----5-----5-----|---5-------3-----|---1---1-----1---|-0-1-1---------|
G---5---------5---|-----5-------2---|-----2---------2-|-0-2-2---------|
D-7---------------|-5---------------|-3---------------|---------------|
A-----------------|-----------------|-----------------|-2-0-0---------|
E-----------------|-----------------|-----------------|---------------|

E-------5-7-----7-|-8-----8-2-----2-|-0---------0-----|---------------|
B-----5-----5-----|---5-------3-----|---1---1-----1---|-0-1-1---------|
G---5---------5---|-----5-------2---|-----2---------2-|-0-2-2---------|
D-7---------------|-5-------4-------|-3---------------|---------------|
A-----------------|-----------------|-----------------|-2-0-0---------|
E-----------------|-----------------|-----------------|---------------|
 
E-------------2-----2|-0-----0--------------|---------3-----3-|-3-2-2-|
B-----------1---3----|---1-----1-0-1--------|-1-----1---0-----|-----3-|
G---------0-------2--|-----2---------2------|---0---------0---|-----2-|
D-------2------------|-3--------------------|-----2-----------|-0---0-|
A-0-2-3--------------|-----------------0-2--|-3---------------|-------|
E--------------------|----------------------|-----------------|-------|

E-----------0-2-----2-|-0-----------------|---------2-----2-|-0-0-0---|
B---------------3-----|---1--1--0 1-------|-1-----1---3-----|-1-1-1---|
G---------0-------2---|-----2-------2-----|---0---------2---|-2-2-2---|
D-------2-------------|-3-----------------|-----2-----------|-3-3-3---|
A-0-2-3---------------|---------------0-2-|-3---------------|---------|
E---------------------|-------------------|-----------------|---------|

E-------5-7-----7|-8-----8-2-----2-|-0---------0-----|----------------|
B-----5-----5----|---5-------3-----|---1---1-----1---|-0-1-1----------|
G---5---------5--|-----5-------2---|-----2---------2-|-0-2-2----------|
D-7--------------|-5---------------|-3---------------|----------------|
A----------------|-----------------|-----------------|-2-0-0--0--/8-7-|
E----------------|-----------------|-----------------|----------------|

E--------5-7---7---|----8-------2------|----0-------0----|------------|
B-----------5-5-5--|---5-5-----3-3-----|---1--1----1-1---|-0-1-1------|
G------5-----5---5-|--5---5---2---2--2-|--2----2--2---2--|-0-2-2------|
D----7-------------|-5-----5-4-----4---|-3-------3-----3-|------------|
A--0---------------|-------------------|-----------------|-2-0-0------|
E------------------|-------------------|-----------------|------------|

 
|----3--3-3-3--3-----0--2----2------|-3--3-3-3--3-------7---5---3---5-|
|-3--1--1-1-1--1-----3--3----3--0---|-1--1-1-1--1-------8---7---5---7-|
|-0--0--0-0-0--0-----0--2----2--0---|-0--0-0-0--0-------9---7---5---7-|
|-0--2--2-2-2--2-----0--0-0-----0---|-2--2-2-2--2-------------------0-|
|-2--0---------------0--0-0-----0---|---------------------------------|
|-----------------------------------|---------------------------------|

|----3--3-3-3--3-----0--2---3---0-0-|-3--3-3-3--3-------7---5---3---5-|
|-3--1--1-1-1--1-----3--3---0-2-0-0-|-1--1-1-1--1-------8---7---5---7-|
|-0--0--0-0-0--0-----0--2-------0-0-|-0--0-0-0--0-------9---7---5---7-|
|-0--2--2-2-2--2-----0--0-0---------|-2--2-2-2--2---------------------|
|-2--0---------------0--0-----------|---------------------------------|
|-----------------------------------|---------------------------------|


|------------------|---------------------|---------------0--|--0------|
|---------1------3-|-0-1---------1-------|-------1-------1--|--1------|
|-------0------0---|-----2-----2---------|-----0-------0-2--|--2------|
|-----2------0-----|---------2-----------|---2-------0---3--|--2------|
|---3------2-------|-------0-------0--2--|-3-------2-----3--|--0------|
|------------------|---------------------|---------------1--|---------|

|------------------|---------------------|---------------0-----0------|
|---------1------0-|-0-1---------1-------|-------1-------1-----1------|
|-------0------0---|-----2-----2---------|-----0-------0-2-----2------|
|-----2------0-----|---------2-----------|---2-------0---3-----2------|
|-0-3------2-------|-------0-------0--2--|-3-------2-----3-----0------|
|------------------|---------------------|---------------1------------|

|------------------|
|---------1------3-|
|-------0------0---|
|-----2------0-----|
|-0-3------2-------|
|------------------|


|-3--3-3-3--3----0--2-2-2-2-2----3--3-3-3--3-----7---5---3---5--------|
|-1--1-1-1--1----3--3-3-3-3-3----1--1-1-1--1-----8---7---5---7--------|
|-0--0-0-0--0----0--2-2-2-2-2----0--0-0-0--0-----9---7---5---7--------|
|-2--2-2-2--2----0--0------------2--2-2-2--2-----0---0---0---0--------|
|-0--0-0-0--0--------------------0--0-0-0--0--------------------------|
|---------------------------------------------------------------------|

|-3--3-3-3--3----0--2-2-2-2-2----3--3-3-3--3-----7---5---3---5--------|
|-1--1-1-1--1----3--3-3-3-3-3----1--1-1-1--1-----8---7---5---7--------|
|-0--0-0-0--0----0--2-2-2-2-2----0--0-0-0--0-----9---7---5---7--------|
|-2--2-2-2--2----0--0------------2--2-2-2--2-----0---0---0---0--------|
|-0--0-0-0--0--------------------0--0-0-0--0--------------------------|
|---------------------------------------------------------------------|
 

|------------------|---------------------|---------------0--|--0------|
|---------1------3-|-0-1---------1-------|-------1-------1--|--1------|
|-------0------0---|-----2-----2---------|-----0-------0-2--|--2------|
|-----2------0-----|---------2-----------|---2-------0---3--|--2------|
|-0-3------2-------|-------0-------0--2--|-3-------2-----3--|--0------|
|------------------|---------------------|---------------1--|---------|

------------------|----------------------|---------------0--|--0------|
---------1------3-|-0-1-----------1------|-------1-------1--|--1------|
-------0------0---|-----2-------2--------|-----0-------0-2--|--2------|
-----2------0-----|---------2------------|---2-------0---3--|--2------|
-0-3------2-------|-------0--------0--2--|-3-------2-----3--|--0------|
------------------|----------------------|---------------1--|---------|

|------------------|
|---------1------3-|
|-------0------0---|
|-----2------0-----|
|-0-3------2-------|
|------------------|


|-3--3-3-3--3----0--2-2-2-2-2----3--3-3-3--3-----7---5---3---5--------|
|-1--1-1-1--1----3--3-3-3-3-3----1--1-1-1--1-----8---7---5---7--------|
|-0--0-0-0--0----0--2-2-2-2-2----0--0-0-0--0-----9---7---5---7--------|
|-2--2-2-2--2----0--0------------2--2-2-2--2-----0---0---0---0--------|
|-0--0-0-0--0--------------------0--0-0-0--0--------------------------|
|---------------------------------------------------------------------|

|-3--3-3-3--0----0---2--2----------3--3-3-3--3-----7---5---3---5------|
|-1--1-1-1--1----3---3--3----------1--1-1-1--1-----8---7---5---7------|
|-0--0-0-0--0----0---2--2----------0--0-0-0--0-----9---7---5---7------|
|-2--2-2-2--2----0---0--0----------2--2-2-2--2-----0---0---0---0------|
|-0--0-0-0--0----------------------0--0-0-0--0------------------------|
|---------------------------------------------------------------------|


------------------|----------------------|---------------0--|--0------|
---------1------3-|-0-1-----------1------|-------1-------1--|--1------|
-------0------0---|-----2-------2--------|-----0-------0-2--|--2------|
-----2------0-----|---------2------------|---2-------0---3--|--2------|
-0-3------2-------|-------0--------0--2--|-3-------2-----3--|--0------|
------------------|----------------------|---------------1--|---------|

------------------|----------------------|---------------0--|--0------|
---------1------3-|-0-1-----------1------|-------1-------1--|--1------|
-------0------0---|-----2-------2--------|-----0-------0-2--|--2------|
-----2------0-----|---------2------------|---2-------0---3--|--2------|
-0-3------2-------|-------0--------0--2--|-3-------2-----3--|--0------|
------------------|----------------------|---------------1--|---------|

|------------------|
|---------1------3-|
|-------0------0---|
|-----2------0-----|
|-0-3------2-------|
|------------------|


|-3--3-3-3--3----0--2-2-2-2-2-3-2--3--3-3-3--3-----7---5---3---5------|
|-1--1-1-1--1----3--3-3-3-3-3-1-3--1--1-1-1--1-----8---7---5---7------|
|-0--0-0-0--0----0--2-2-2-2-2-0-2--0--0-0-0--0-----9---7---5---7------|
|-2--2-2-2--2----0--0---------2----2--2-2-2--2-----0---0---0---0------|
|-0--0-0-0--0-----------------0----0--0-0-0--0------------------------|
|---------------------------------------------------------------------|

|-3--3-3-3--3----0--2-2-2-2-2----3--3-3-3--3-----7---5---3---5--------|
|-1--1-1-1--1----3--3-3-3-3-3----1--1-1-1--1-----8---7---5---7--------|
|-0--0-0-0--0----0--2-2-2-2-2----0--0-0-0--0-----9---7---5---7--------|
|-2--2-2-2--2----0--0------------2--2-2-2--2-----0---0---0---0--------|
|-0--0-0-0--0--------------------0--0-0-0--0--------------------------|
|---------------------------------------------------------------------|


------------------|----------------------|---------------0--|--0------|
---------1------3-|-0-1-----------1------|-------1-------1--|--1------|
-------0------0---|-----2-------2--------|-----0-------0-2--|--2------|
-----2------0-----|---------2------------|---2-------0---3--|--2------|
-0-3------2-------|-------0--------0--2--|-3-------2-----3--|--0------|
------------------|----------------------|---------------1--|---------|

------------------|----------------------|---------------0--|--0------|
---------1------3-|-0-1-----------1------|-------1-------1--|--1------|
-------0------0---|-----2-------2--------|-----0-------0-2--|--2------|
-----2------0-----|---------2------------|---2-------0---3--|--2------|
-0-3------2-------|-------0--------0--2--|-3-------2-----3--|--0------|
------------------|----------------------|---------------1--|---------|

|--------------------2-|
|---------1------3---3-|
|-------0------0-----2-|
|-----2------0-------0-|
|-0-3------2-----------|
|----------------------|


|--0-2-3---0-2-3---0-2-3---3--2---0----2-2-2--0--2-2-2--2-2-2---2----|
|--3-3-3---3-3-3---3-3-3---3--3---3----3-3-3--3--3-3-3--3-3-3---3----|
|--0-2-2---0-2-2---0-2-2---2--2---0----0-0-0--0--0-0-0--0-0-0---0----|
|--0-0-0---0-0-0---0-0-0---0--0---0----------------------------------|
|---------------------------------3--3-------------------------------|
|--------------------------------------------------------------------|

|--0-2-3---0-2-3---0-2-3---3--2---0----2-2-2--0----------2-----------|
|--3-3-3---3-3-3---3-3-3---3--3---3----3-3-3----3------3---3---------|
|--0-2-2---0-2-2---0-2-2---2--2---0----0-0-0------0------------------|
|--0-0-0---0-0-0---0-0-0---0--0---0----------------------------------|
|---------------------------------3--3---------------2--------2-0----|
|-----------------------------------------------------------------3--|
 
 
SOLO
|-----5-------------------------8-8-10------8---------------|
|--------8-5------------------8--------10-8---10-8---8-10-10|
|------------7-5---7-5----------------------------10--------|
|----------------7-----7-5----------------------------------|
|--------------------------8--------------------------------|
|-----------------------------------------------------------|

|------5----------------------------------------------------|
|--------8-5------------------------------------------------|
|---7b-------7-5---7-5-----------5--------------------------|
|----------------7-----7-5---5-7---7-5-5--------------------|
|--------------------------7--------------------------------|
|-----------------------------------------------------------|

|-----5-----------------------------------------------------|
|-------8-5-------------------------6---------8-------------|
|-0---------7-5---7-5-------------5---7-5-7/9---12-14-------|
|---------------7-----7-5-7-5---7---------------------------|
|-----------------------------8-----------------------------|
|-----------------------------------------------------------|

|-----------------------15b--15-13--------------------------|
|-13--15b--13-15-13-13--------------15b-15--13--------------|
|-----------------------------------------------14----------|
|-----------------------------------------------------------|
|-----------------------------------------------------------|
|-----------------------------------------------------------|


|-----------------------------------------------------------|
|13-15b15-13----13-15b15-13----13-15b15-13----13-15b15-13---|
|-----------14-------------14-------------14-------------14-|
|-----------------------------------------------------------|
|-----------------------------------------------------------|
|-----------------------------------------------------------|

|-----------------------------------------------------------|
|13-15b15-13----13-15b15-13----13-15b15-13----13-15b15-13---|
|-----------14-------------14-------------14-------------14-|
|-----------------------------------------------------------|
|-----------------------------------------------------------|
|-----------------------------------------------------------|

|-15-15-15-12-15-12----------------------------15b----------|
|-------------------15-13----13-15-13----13-15--------------|
|-------------------------14----------14--------------------|
|-----------------------------------------------------------|
|-----------------------------------------------------------|
|-----------------------------------------------------------|


|---13-12---13-10---|

|---------------------------17-----------------------------|
|-15--13-----------------20----20--------------------------|
|---------14--14--14--19----------19-17-19b----------------|
|----------------------------------------------------------|
|----------------------------------------------------------|
|----------------------------------------------------------|

|---13-12---13-10---|

|----------------------------------------------------------|
|---14b----14b----14--12--14--12--14-----------------------|
|----------------------------------------------------------|
|----------------------------------------------------------|
|----------------------------------------------------------|
|----------------------------------------------------------|

|---13-12---13-10---|

|----------------------------------------------------------|
|-6b---6--5-------------5----------------------------------|
|-----------7--5--7-5-7---7--5-----------------------------|
|----------------------------------------------------------|
|----------------------------------------------------------|
|----------------------------------------------------------|

|---13-12---13-10---|

|----20-17-----20-17----20-17----20-17----20-17-----20b-----|
|-17--------17--------17-------17-------17--------17--------|
|-----------------------------------------------------------|
|-----------------------------------------------------------|
|-----------------------------------------------------------|
|-----------------------------------------------------------|


|-5-5--x-x-x-x--3-3--x-x-x-x--1-x-x-1-x-x-1-x-x-1-x-x-1--3--|
|-5-5-----------3-3-----------1-----1-----1-----1-----1--3--|
|-5-5-----------3-3-----------2-----2-----2-----2-----2--3--|
|-7-7-----------5-5-----------3-----3-----3-----3-----3--5--|
|-7-7-----------5-5-----------3-----3-----3-----3-----3--5--|
|-5-5-----------3-3-----------1-----1-----1-----1-----1--3--|
 
|-5-5-x-x-x--3-3-x-x-x--1-x-x-1-x-x-1-x-x-1-x-x-1--------3--|
|-5-5--------3-3--------1-----1-----1-----1-----1--------3--|
|-5-5--------3-3--------2-----2-----2-----2-----2--------3--|
|-7-7--------5-5--------3-----3-----3-----3-----3--------5--|
|-7-7--------5-5--------3-----3-----3-----3-----3--------5--|
|-5-5--------3-3--------1-----1-----1-----1-----1--------3--|
 
|-5-5--x-x-x-x--3-3--x-x-x-x--1-----1-----1-----1-----1--3--|
|-5-5-----------3-3-----------1-----1-----1-----1-----1--3--|
|-5-5-----------3-3-----------2-----2-----2-----2-----2--3--|
|-7-7-----------5-5-----------3-----3-----3-----3-----3--5--|
|-7-7-----------5-5-----------3-----3-----3-----3-----3--5--|
|-5-5-----------3-3-----------1-----1-----1-----1-----1--3--|

|-5-5--x-x-x-x--3-3--x-x-x-x--------------------------------|
|-5-5-----------3-3-----------------------------------------|
|-5-5-----------3-3-----------------------------------------|
|-7-7-----------5-5-----------------------------------------|
|-7-7-----------5-5-----------------3-/7--5--3--------------|
|-5-5-----------3-3----------1-/5---------------------------|


|-5-5--x-x-x-x--3-3--x-x-x-x--------------------------------|
|-5-5-----------3-3-----------------------------------------|
|-5-5-----------3-3-----------------------------------------|
|-7-7-----------5-5-----------------------------------------|
|-7-7-----------5-5-----------------3-/7--5--3--------------|
|-5-5-----------3-3----------1-/5---------------------------|


|-5-5--x-x-x-x--3-3--x-x-x-x--------------------------------|
|-5-5-----------3-3-----------------------------------------|
|-5-5-----------3-3-----------------------------------------|
|-7-7-----------5-5-----------------------------------------|
|-7-7-----------5-5-----------------3-/7--5--3--------------|
|-5-5-----------3-3----------1-/5---------------------------|

|-5-5--x-x-x-x--3-3--x-x-x-x--------------------------------|
|-5-5-----------3-3-----------------------------------------|
|-5-5-----------3-3-----------------------------------------|
|-7-7-----------5-5-----------------------------------------|
|-7-7-----------5-5-----------------3-/7--5--3--------------|
|-5-5-----------3-3----------1-/5---------------------------|

|-5--5----3--3----1-------------3--3-------5--5--------3----|
|-5--5----3--3----1-------------3--3-------5--5--------3----|
|-5--5----3--3----2-------------3--3-------5--5--------3----|
|-7--7----5--5----3-------------5--5-------7--7--------5----|
|-7--7----5--5----3-------------5--5-------7--7--------5----|
|-5--5----3--3----1-------------3--3-------5--5--------3----|

|-----------------------------------------------------------|
|--10b-10b------5--8--5--8/10-10--|-3---5---5---8----10-----|
|--12b-12b---7--------------------|-5---7---7---10---12-----|
|---------------------------------|-------------------------|
|---------------------------------|bend-all-----------------|
|-----------------------------------------------------------|

|-----------------------------------------------------------|
|---13--12--13--12--13--12--13--15--13--12--15--13----------|
|---15--14--15--14--15--14--15--17--15--14--17--15----------|
|-----------------------------------------------------------|
|-----------------------------------------------------------|
|--------------------------------------------------------end|
comments
print report bad tab
17 comments total. Showing first comments. show 1 bad comment
0 reply
the anus wrote on March 6 2004, 12:00 am

theres sumtin dogy about the beginin of the solo

-1 reply
the anus wrote on March 6 2004, 12:00 am

dodgy*

I want to post or [tab]
guest
You may want to rate the tab now too:
select rating
Please do not post tabs as comments. Select "correction" instead!