Oops, an error
Loading. Please wait.

Thats The Way Tab

ver2
ver2

Whole song

More versions @911Tabs.com
50,115 views 153 this week
8 commentsread comments
1 2 3 4 5
excellent!
x 15
Autoscroll
+/-
esc
set tempo
stop
WARNING: You are trying to view
                                    content from Ultimate-Guitar.com
                                    in an unauthorized application,
                                    which is prohibited.

                                    Please use an official Ultimate
                                    Guitar Tabs application for iPhone,
                                    iPad or Android to access legitimate
                                    chords, guitar, bass, and drum tabs
                                    from Ultimate-Guitar.com database.

                                    Type "ultimate guitar tabs" in Apple
                                    App Store's or Android Market's
                                    search to find the application.
#----------------------------------PLEASE NOTE---------------------------------#
#This file is the author's own work and represents their interpretation of the #
#song. You may only use this file for private study, scholarship, or research. #
#------------------------------------------------------------------------------##

                                 THAT'S THE WAY
                           As recorded by Led Zeppelin
                     (From the 1970 Album LED ZEPPELIN III)

Words and Music by Jimmy Page & Robert Plant
Arranged by Warner Chappel Music Ltd/International Music Publications Ltd
Transcribed by James Staff

Gtr I (D G D G B D) - 'Jimmy Page Steel Acoustic'
Gtr II (G D A E) - 'John Paul Jones Mandolin'
Gtr III (E A D G B E) - 'Pedal Steel Guitar'
Gtr IV (E A D G B E) - 'Tambourine (No MIDI, Rhythm Only)'

 Intro
  Q=92
  G       C/G DaddGmaj7      Dadd11/GC/G        C/G
 4/4
  Gtr I
  S S S S E E S S E S E.     S S S S E E S E.   S S S S
|-0-0-0-0-2-0-0-0-4-4-4----|-0-0-0-0-2-0-0-0----2-2-2-2--|
|-0-0-0-0-1S3-3-3-0-0-0----|-3-3-3-3-1-0-0-0----1-1-1-1--|
|-0-0-0-0-0-0-0-0-0-0-0----|-0-0-0-0-0-0-0-0----0-0-0-0--|
|-0-0-0-0-2S4-4-4-0-0-0----|-4-4-4-4-2-0-0-0----2-2-2-2--|
|-0-0-0-0-0-0-0-0-0-0-0--0-|-0-0-0-0-0-0-0-0--0-0-0-0-0--|
|--------------------------|-----------------------------|
  H           Q     S S  E   H           S S  E Q


  G       C/G DaddGmaj7      Dadd11/GC/G        C/G
  S S S S E E S S E S E.     S S S S E E S E.   S S S S
|-0-0-0-0-2-0-0-0-4-4-4----|-0-0-0-0-2-0-0-0----2-2-2-2-|
|-0-0-0-0-1S3-3-3-0-0-0----|-3-3-3-3-1-0-0-0----1-1-1-1-|
|-0-0-0-0-0-0-0-0-0-0-0----|-0-0-0-0-0-0-0-0----0-0-0-0-|
|-0-0-0-0-2S4-4-4-0-0-0----|-4-4-4-4-2-0-0-0----2-2-2-2-|
|-0-0-0-0-0-0-0-0-0-0-0--0-|-0-0-0-0-0-0-0-0--0-0-0-0-0-|
|--------------------------|----------------------------|
  H           Q     S S  E   H           S S  E Q


 Verse 1
  G                             Dadd11/GC/G         C/G
  S  S S S E E  S  S E S E.     S S S S E E  S E.   S S S S
|-0--0-0-0-2-0--0--0-4-4-4----|-0-0-0-0-2-0--0-0----2-2-2-2-|
|-0--0-0-0-1S3--3--3-0-0-0----|-3-3-3-3-1-0--0-0----1-1-1-1-|
|-0--0-0-0-0-0--0--0-0-0-0----|-0-0-0-0-0-0--0-0----0-0-0-0-|
|-0--0-0-0-2S4--4--4-0-0-0----|-4-4-4-4-2-0--0-0----2-2-2-2-|
|-0--0-0-0-0-0--0--0-0-0-0--0-|-0-0-0-0-0-0--0-0--0-0-0-0-0-|
|-----------------------------|-----------------------------|
| H             Q      S S  E   H            S S  E Q
|
| Gtr II
| E.     S E E +E    Q      E   Q       E E +E    E S S E
|--------------------5--------|-----------------------------|
|-2------2-3-5-(5)---5--------|-5-------3-2-(2)-----3-3-3---|
|-0------0-2-4-(4)---4--------|-4-------2-0-(0)-----2-2-2---|
|-0------0-0-0-(0)---0------0-|-0-------0-0-(0)---0-0-0-0---|
|
| Gtr III
| W                             H            Q      Q
|-----------------------------|-----------------------------|
|-----------------------------|-----------------------------|
|-----------------------------|-----------------------------|
|-----------------------------|-----------------------------|
|-----------------------------|--------------0s=====2-------|
|-----------------------------|-----------------------------|


  G         C/G Dadd11/GGmaj7
   S  S S S E E  S  S E S E.
|--0--0-0-0-2-0--0--0-4-4-4----|
|--0--0-0-0-1S3--3--3-0-0-0----|
|--0--0-0-0-0-0--0--0-0-0-0----|
|--0--0-0-0-2S4--4--4-0-0-0----|
|--0--0-0-0-0-0--0--0-0-0-0--0-|
|------------------------------|
|  H             Q      S S  E
|
|  E.     S E E +E    Q      E
|---------------------5--------|
|--2------2-3-5-(5)---5--------|
|--0------0-2-4-(4)---4--------|
|--0------0-0-0-(0)---0------0-|
|
| +W
|------------------------------|
|------------------------------|
|------------------------------|
|------------------------------|
|-(2)--------------------------|
|------------------------------|


  Dadd11/GC/G          C/G       G        C/G Dadd11/GGmaj7
  S S S S E E  S  E.   S S S S   S  S S S E E  S  S E S E.
|-0-0-0-0-2-0--0--0----2-2-2-2-|-0--0-0-0-2-0--0--0-4-4-4----|
|-3-3-3-3-1-0--0--0----1-1-1-1-|-0--0-0-0-1S3--3--3-0-0-0----|
|-0-0-0-0-0-0--0--0----0-0-0-0-|-0--0-0-0-0-0--0--0-0-0-0----|
|-4-4-4-4-2-0--0--0----2-2-2-2-|-0--0-0-0-2S4--4--4-0-0-0----|
|-0-0-0-0-0-0--0--0--0-0-0-0-0-|-0--0-0-0-0-0--0--0-0-0-0--0-|
|------------------------------|-----------------------------|
| H            S  S  E Q         H             Q      S S  E
|
| S S S S E E +E     E S S S S   E.     S E E +E    E S S  E
|------------------------------|--------------------5--------|
|-5-5-5-5-3-2-(2)------3-3-3-3-|-2------2-3-5-(5)---5-5-5----|
|-4-4-4-4-2-0-(0)------2-2-2-2-|-0------0-2-4-(4)---4-4-4----|
|-0-0-0-0-0-0-(0)----0-0-0-0-0-|-0------0-0-0-(0)---0-0-0--0-|
|
| H            Q       Q         W
|------------------------------|-----------------------------|
|------------------------------|-----------------------------|
|------------------------------|-----------------------------|
|----------------------4s======|=5---------------------------|
|------------------------------|-----------------------------|
|------------------------------|-----------------------------|


  Dadd11/GC/G          C/G
  S S S S E E  S  E.   S S S S
|-0-0-0-0-2-0--0--0----2-2-2-2--|
|-3-3-3-3-1-0--0--0----1-1-1-1--|
|-0-0-0-0-0-0--0--0----0-0-0-0--|
|-4-4-4-4-2-0--0--0----2-2-2-2--|
|-0-0-0-0-0-0--0--0--0-0-0-0-0--|
|-------------------------------|
| H            S  S  E Q
|
| S S S S E E +E     E S S S S
|-------------------------------|
|-5-5-5-5-3-2-(2)------3-3-3-3--|
|-4-4-4-4-2-0-(0)------2-2-2-2--|
|-0-0-0-0-0-0-(0)----0-0-0-0-0--|
|
| H            Q       Q
|-------------------------------|
|-------------------------------|
|-------------------------------|
|-------------------------------|
|----------------------0--------|
|-------------------------------|


  G        C/G Dadd11/GGmaj7    Dadd11/GC/G            C/G
  S  S S S E E  S  S E S E.     S S S S E E  S  E.     S S S S
|-0--0-0-0-2-0--0--0-4-4-4----|-0-0-0-0-2-0--0--0------2-2-2-2-|
|-0--0-0-0-1S3--3--3-0-0-0----|-3-3-3-3-1-0--0--0------1-1-1-1-|
|-0--0-0-0-0-0--0--0-0-0-0----|-0-0-0-0-0-0--0--0------0-0-0-0-|
|-0--0-0-0-2S4--4--4-0-0-0----|-4-4-4-4-2-0--0--0------2-2-2-2-|
|-0--0-0-0-0-0--0--0-0-0-0--0-|-0-0-0-0-0-0--0--0--0---0-0-0-0-|
|-----------------------------|--------------------------------|
| H             Q      S S  E   H            S  S  E   Q
|
| E.     S E E +E    E S S  E   S S S S E E +E     E a S S S S
|--------------------5--------|--------------------------------|
|-2------2-3-5-(5)---5-5-5----|-5-5-5-5-3-2-(2)------0h3-3-3-3-|
|-0------0-2-4-(4)---4-4-4----|-4-4-4-4-2-0-(0)------0h2-2-2-2-|
|-0------0-0-0-(0)---0-0-0--0-|-0-0-0-0-0-0-(0)----0-----0-0-0-|
|
| W                             H            Q         E   E
|-----------------------------|--------------------------------|
|-----------------------------|--------------------------------|
|-----------------------------|--------------------------------|
|-----------------------------|----------------------------0---|
|-2---------------------------|--------------------0s==2-------|
|-----------------------------|--------------------------------|
                                H            E     E   Q


  G          C/G   Dadd11/GGmaj7
   S  S S  S E E    S  S E S E.
|--0--0-0--0-2-0----0--0-4-4-4----|
|--0--0-0--0-1S3----3--3-0-0-0----|
|--0--0-0--0-0-0----0--0-0-0-0----|
|--0--0-0--0-2S4----4--4-0-0-0----|
|--0--0-0--0-0-0----0--0-0-0-0--0-|
|---------------------------------|
|  H                Q      S S  E
|
|  Q         E E    E    E S S  E
|---------------------------------|
|--2---------3-5----5----5-5-5----|
|--0---------2-4---------4-4-4----|
|--0---------0-0---------0-0-0--0-|
|
|  E    Q.         +H
|---------------------------------|
|---------------------------------|
|---------------------------------|
|--4----5----------(5)------------|
|-(2)------------5--7------3------|
|---------------------------------|
  +H             a  Q      Q


  Dadd11/G C/G            C/G       G          C/G   Dadd11/GGmaj7
  S S S  S E E    S  E.   S S S S    S  S S  S E E    S  S E S E.
|-0-0-0--0-2-0----0--0----2-2-2-2-|--0--0-0--0-2-0----0--0-4-4-4----|
|-3-3-3--3-1-0----0--0----1-1-1-1-|--0--0-0--0-1S3----3--3-0-0-0----|
|-0-0-0--0-0-0----0--0----0-0-0-0-|--0--0-0--0-0-0----0--0-0-0-0----|
|-4-4-4--4-2-0----0--0----2-2-2-2-|--0--0-0--0-2S4----4--4-0-0-0----|
|-0-0-0--0-0-0----0--0--0-0-0-0-0-|--0--0-0--0-0-0----0--0-0-0-0--0-|
|---------------------------------|---------------------------------|
| H               S  S  E Q          H                Q      S S  E
|
| S E    S E S S +S  S  E S S E      Q         E E   +E    E S S  E
|---------------------------------|------------------------5-5----5-|
|-5-5----5-3-2-2-(2)-2----3-3-3---|--2---------3-5---(5)---5-5-5----|
|-4-4----4-2-0-0-(0)-0----2-2-2---|--0---------2-4---(4)---4-4------|
|-0-0----0-0-0-0-(0)-0--0-0-0-0---|--0---------0-0---(0)---0-0------|
|
| E   Q.         +Q.          E      E    Q.         +Q.          E
|---------------------------------|---------------------------------|
|---------------------------------|---------------------------------|
|---------------------------------|-------------------------------0-|
|-2---0----------(0)----------0---|--4----5----------(5)------------|
|-----------------------0s2-------|-(2)------------5--7-------------|
|---------------------------------|---------------------------------|
  H               E     E Q         +H             a  H


  Dadd11/GC/G          C/G
  S S S S E E  S  E.   S S   S S
|-0-0-0-0-2-0--0--0----2-2---2-2---|
|-3-3-3-3-1-0--0--0----1-1---1-1---|
|-0-0-0-0-0-0--0--0----0-0---0-0---|
|-4-4-4-4-2-0--0--0----2-2---2-2---|
|-0-0-0-0-0-0--0--0--0-0-0---0-0---|
|----------------------------------|
| H            S  S  E Q
|
| E.    S E E +S  S  E S S   S S
|----------------------------------|
|-5-----5-3-2-(2)-2--2-3-3---3-3---|
|-4-----4-2-0-(0)-0--0-2-2---2-2---|
|-0-----0-0-0-(0)-0--0-0-0---0-0---|
|
|                      |
| H            Q       Q
|----------------------------------|
|----------------------3-----------|
|----------------------2---2-2---2-|
|-2s==0s=======7-------------------|
|----------------------------------|
|----------------------------------|
  E   Q.       Q       E   S E   S
                       |-3-| |-3-|


  G          C/G Dadd11/G  Gmaj7
   S  S S  S E E  S  S E    S  E.
|--0--0-0--0-2-0--0--0-4----4--4----------|
|--0--0-0--0-1S3--3--3-0----0--0----------|
|--0--0-0--0-0-0--0--0-0----0--0----------|
|--0--0-0--0-2S4--4--4-0----0--0----------|
|--0--0-0--0-0-0--0--0-0----0--0------0---|
|-----------------------------------------|
|  H              Q         S  S      E
|
|  Q         E E +E    Q              E
|----------------------5------------------|
|--2---------3-5-(5)---5------------------|
|--0---------2-4-(4)---4------------------|
|--0---------0-0-(0)---0--------------0---|
|
|                           |--3--|
| +H              E    E   +E     S   E
|----------------------2---(2)----1-------|
|-(3)------------------1-3-(3)------1-3-1-|
|--2----4---------------------------------|
|-----------------------------------------|
|-----------------------------------------|
|-----------------------------------------|
   E    Q.        E    S S +E       a E S
                         1:1|         |3|


                                     Verse 2
  Dadd11/G    C/G         C/G         G         C/G    Dadd11/GGmaj7
  S  S   S  S E E  S E.    S  S S S    S  S S S  E     E  S  S E S E.
|-0--0---0--0-2-0--0-0-----2--2-2-2-|--0--0-0-0--2-----0--0--0-4-4-4------|
|-3--3---3--3-1-0--0-0-----1--1-1-1-|--0--0-0-0--1S====3--3--3-0-0-0------|
|-0--0---0--0-0-0--0-0-----0--0-0-0-|--0--0-0-0--0-----0--0--0-0-0-0------|
|-4--4---4--4-2-0--0-0-----2--2-2-2-|--0--0-0-0--2S====4--4--4-0-0-0------|
|-0--0---0--0-0-0--0-0--0--0--0-0-0-|--0--0-0-0--0-----0--0--0-0-0-0--0---|
|-----------------------------------|-------------------------------------|
| H                S S  E  Q           H                  Q      S S  E
|
| E.        S E E +E    E  E    E      E.     S  E     E +E    Q      E
|-----------------------------------|--------------------------5----------|
|-5---------5-3-2-(2)------3----3---|--2------2--3-----5-(5)---5----------|
|-4---------4-2-0-(0)------2----2---|--0------0--2-----4-(4)---4----------|
|-0---------0-0-0-(0)---0--0----0---|--0------0--0-----0-(0)---0------0---|
|
| H                Q       Q           Q         H.
|--------------------------3--------|--3---------3------------------------|
|-3----1-3---------3s5----(5)---5---|-(5)---5---(5)-3----(3)--------------|
|-----------------------------------|-------------------------------------|
|-----------------------------------|-------------------------------------|
|-----------------------------------|-------------------------------------|
|-----------------------------------|-------------------------------------|
  E    S Q.        S E.   +E    E     +E    E   +S  E.   +H
  |-3--|


  Dadd11/G C/G            C/G       G       C/G Dadd11/GGmaj7
  S  S S S E E  S  E.     S S S S   S S S S E E  S  S E S E.
|-0--0-0-0-2-0--0--0------2-2-2-2-|-0-0-0-0-2-0--0--0-4-4-4----|
|-3--3-3-3-1-0--0--0------1-1-1-1-|-0-0-0-0-1S3--3--3-0-0-0----|
|-0--0-0-0-0-0--0--0------0-0-0-0-|-0-0-0-0-0-0--0--0-0-0-0----|
|-4--4-4-4-2-0--0--0------2-2-2-2-|-0-0-0-0-2S4--4--4-0-0-0----|
|-0--0-0-0-0-0--0--0--0---0-0-0-0-|-0-0-0-0-0-0--0--0-0-0-0--0-|
|---------------------------------|----------------------------|
| H             S  S  E   Q         H            Q      S S  E
|
| E.     S E E +E     E a S S S S   E   S S E E +E    Q      E
|---------------------------------|-------------------5--------|
|-5------5-3-2-(2)------0h3-3-3-3-|-2---2-2-3-5-(5)---5--------|
|-4------4-2-0-(0)------0h2-2-2-2-|-0---0-0-2-4-(4)---4--------|
|-0------0-0-0-(0)----0-----0-0-0-|-0---0-0-0-0-(0)---0------0-|
|
| W                                 W
|---------------------------------|----------------------------|
|---------------------------------|----------------------------|
|---------------------------------|----------------------------|
|---------------------------------|----------------------------|
|---------------------------------|----------------------------|
|---------------------------------|----------------------------|


  Dadd11/G C/G            C/G
  S  S S S E E  S  E.      S  S    S S
|-0--0-0-0-2-0--0--0-------2--2----2-2---|
|-3--3-3-3-1-0--0--0-------1--1----1-1---|
|-0--0-0-0-0-0--0--0-------0--0----0-0---|
|-4--4-4-4-2-0--0--0-------2--2----2-2---|
|-0--0-0-0-0-0--0--0--0----0--0----0-0---|
|----------------------------------------|
| H             S  S  E    Q
|
| E.     S E E +E     E    S  E.
|----------------------------------------|
|-5------5-3-2-(2)---------3--3----------|
|-4------4-2-0-(0)---------2--2----------|
|-0------0-0-0-(0)----0----0--0----------|
|
|                     |3|          |-3-|
| H             E     E S +E     a E   S
|----------------------------------------|
|----------------------------------------|
|----------------------------------------|
|---------------------5s4-(4)----0-2s==0-|
|----------------------------------------|
|----------------------------------------|


  G         C/G Dadd11/GGmaj7
   S  S S S E E  S  S E S E.
|--0--0-0-0-2-0--0--0-4-4-4----|
|--0--0-0-0-1S3--3--3-0-0-0----|
|--0--0-0-0-0-0--0--0-0-0-0----|
|--0--0-0-0-2S4--4--4-0-0-0----|
|--0--0-0-0-0-0--0--0-0-0-0--0-|
|------------------------------|
|  H             Q      S S  E
|
|  E    S S E E +E    Q      E
|---------------------5--------|
|--2----2-2-3-5-(5)---5--------|
|--0----0-0-2-4-(4)---4--------|
|--0----0-0-0-0-(0)---0------0-|
|
| +W
|------------------------------|
|------------------------------|
|------------------------------|
|-(0)--------------------------|
|------------------------------|
|------------------------------|


  Dadd11/G C/G            C/G       G       C/G Dadd11/GGmaj7
  S  S S S E E  S  E.     S S S S   S S S S E E  S  S E S E.
|-0--0-0-0-2-0--0--0------2-2-2-2-|-0-0-0-0-2-0--0--0-4-4-4-----|
|-3--3-3-3-1-0--0--0------1-1-1-1-|-0-0-0-0-1S3--3--3-0-0-0-----|
|-0--0-0-0-0-0--0--0------0-0-0-0-|-0-0-0-0-0-0--0--0-0-0-0-----|
|-4--4-4-4-2-0--0--0------2-2-2-2-|-0-0-0-0-2S4--4--4-0-0-0-----|
|-0--0-0-0-0-0--0--0--0---0-0-0-0-|-0-0-0-0-0-0--0--0-0-0-0--0--|
|---------------------------------|-----------------------------|
| H             S  S  E   Q         H            Q      S S  E
|
| E.     S E E +E     E a S S E     Q       E E +E    Q      E
|---------------------------------|-------------------5---------|
|-5------5-3-2-(2)------0h3-3-3---|-2-------3-5-(5)---5---------|
|-4------4-2-0-(0)------0h2-2-2---|-0-------2-4-(4)---4---------|
|-0------0-0-0-(0)----0-----0-0---|-0-------0-0-(0)---0------0--|
|
| W                                 W
|---------------------------------|-----------------------------|
|---------------------------------|-----------------------------|
|---------------------------------|-----------------------------|
|---------------------------------|-----------------------------|
|---------------------------------|-----------------------------|
|---------------------------------|-----------------------------|


  Dadd11/GC/G            C/G
  S S S S E E  S  E.     S S  S S
|-0-0-0-0-2-0--0--0------2-2--2-2-|
|-3-3-3-3-1-0--0--0------1-1--1-1-|
|-0-0-0-0-0-0--0--0------0-0--0-0-|
|-4-4-4-4-2-0--0--0------2-2--2-2-|
|-0-0-0-0-0-0--0--0--0---0-0--0-0-|
|---------------------------------|
| H            S  S  E   Q
|
| E   E   E E +E     E a E    E
|---------------------------------|
|-5---5---3-2-(2)--------0--------|
|-4---4---2-0-(0)------0h2----2---|
|-0---0---0-0-(0)----0---0--------|
|
| H            Q         S E.
|---------------------------------|
|------------------------0-1------|
|------------------------0--------|
|---------------------------------|
|---------------------------------|
|---------------------------------|
  H            Q         Q


  G            C/G   Dadd11/GGmaj7    Dadd11/G C/G            C/G
  S  S   S   S  E  E  S  S E S E.     S S S  S E E  S  E.     S S S S
|-0--0---0---0--2--0--0--0-4-4-4----|-0-0-0--0-2-0--0--0------2-2-2-2-|
|-0--0---0---0--1S=3--3--3-0-0-0----|-3-3-3--3-1-0--0--0------1-1-1-1-|
|-0--0---0---0--0--0--0--0-0-0-0----|-0-0-0--0-0-0--0--0------0-0-0-0-|
|-0--0---0---0--2S=4--4--4-0-0-0----|-4-4-4--4-2-0--0--0------2-2-2-2-|
|-0--0---0---0--0--0--0--0-0-0-0--0-|-0-0-0--0-0-0--0--0--0---0-0-0-0-|
|-----------------------------------|---------------------------------|
| H                   Q      S S  E   H             S  S  E   Q
|
| Q             E  E +E    Q      E   E   E    E E +E     E a Q
|--------------------------5--------|---------------------------------|
|-2-------------3--5-(5)---5--------|-5---5----3-2-(2)------0h3-------|
|-0-------------2--4-(4)---4--------|-4---4----2-0-(0)------0h2-------|
|-0-------------0--0-(0)---0------0-|-0---0----0-0-(0)----0---0-------|
|
| H.                         E    E   H.                      E   E
|-----------------------------------|---------------------------------|
|-3--------------------------1s===0-|-3-----------------------1s==0---|
|-4----5---4---(4)-----------0------|-2s==4--------(4)--------0-------|
|-----------------------------------|---------------------------------|
|-----------------------------------|---------------------------------|
|-----------------------------------|---------------------------------|
  E    E   E   +H            Q        E   Q.       +Q         Q
  |---3----|


  G        C/G   Dadd11/G Gmaj7
  S S S  S E E    S  S  E  S  E.
|-0-0-0--0-2-0----0--0--4--4--4----|
|-0-0-0--0-1S3----3--3--0--0--0----|
|-0-0-0--0-0-0----0--0--0--0--0----|
|-0-0-0--0-2S4----4--4--0--0--0----|
|-0-0-0--0-0-0----0--0--0--0--0--0-|
|----------------------------------|
| H               Q        S  S  E
|
| Q        E E   +E     Q        E
|-----------------------5----------|
|-2--------3-5---(5)----5----------|
|-0--------2-4---(4)----4----------|
|-0--------0-0---(0)----0--------0-|
|
| E   Q.          S  E.   +E     E
|----------------------------------|
|-1s==0--------------3----(3)------|
|-0------------2--4--------------2-|
|--------------------------------4-|
|----------------------------------|
|----------------------------------|
  H            a  Q.             E


  Dadd11/G C/G          C/G       G          C/G Dadd11/G Gmaj7
  S S S  S E E  S  E.   S S S S    S  S S  S E E  S  S E  S E.
|-0-0-0--0-2-0--0--0----2-2-2-2-|--0--0-0--0-2-0--0--0-4--4-4-----|
|-3-3-3--3-1-0--0--0----1-1-1-1-|--0--0-0--0-1S3--3--3-0--0-0-----|
|-0-0-0--0-0-0--0--0----0-0-0-0-|--0--0-0--0-0-0--0--0-0--0-0-----|
|-4-4-4--4-2-0--0--0----2-2-2-2-|--0--0-0--0-2S4--4--4-0--0-0-----|
|-0-0-0--0-0-0--0--0--0-0-0-0-0-|--0--0-0--0-0-0--0--0-0--0-0--0--|
|-------------------------------|---------------------------------|
| H             S  S  E Q          H              Q       S S  E
|
| S S S  S E E +E     E S S E      E    E    E E +E    Q       E
|-------------------------------|----------------------5----------|
|-5-5-5--5-3-2-(2)------3-3-3---|--2----2----3-5-(5)---5----------|
|-4-4-4--4-2-0-(0)------2-2-2---|--0----0----2-4-(4)---4----------|
|-0-0-0--0-0-0-(0)----0-0-0-0---|--0----0----0-0-(0)---0-------0--|
|
| E   Q.       +E     E E   E     +H              E    Q.
|---------------------------3---|-(3)-------------3----2----------|
|---------------------0-5-------|--5----3--------(3)------5----3--|
|-2s==4--------(4)--------------|---------------------------------|
|-4s==5--------(5)--------------|---------------------------------|
|-------------------------------|---------------------------------|
|-------------------------------|---------------------------------|
  E   Q.       +E     E Q          E    Q.       +Q       E    E


  Dadd11/G  C/G            C/G
   S  S S S E E  S  E.     S S S S
|--0--0-0-0-2-0--0--0------2-2-2-2-|
|--3--3-3-3-1-0--0--0------1-1-1-1-|
|--0--0-0-0-0-0--0--0------0-0-0-0-|
|--4--4-4-4-2-0--0--0------2-2-2-2-|
|--0--0-0-0-0-0--0--0--0---0-0-0-0-|
|----------------------------------|
|  H             S  S  E   Q
|
|  E.     S E E +E     E a S S E
|----------------------------------|
|--5------5-3-2-(2)----------------|
|--4------4-2-0-(0)------0S2-2-2---|
|--0------0-0-0-(0)----0-----------|
|
| +H             H
|----------------------------------|
|-(3)--------------------------3---|
|--4-------------------2s==4-------|
|----------------------------------|
|----------------------------------|
|----------------------------------|
   H             E     E   E   E


  G         C/G   Dadd11/GGmaj7    Dadd11/G  C/G            C/G
   S  S S S E E    S  S E S E.      S  S S S E E S E.       S S S S
|--0--0-0-0-2-0----0--0-4-4-4----|--0--0-0-0-2-0-0-0--------2-2-2-2-|
|--0--0-0-0-1S3----3--3-0-0-0----|--3--3-3-3-1-0-0-0--------1-1-1-1-|
|--0--0-0-0-0-0----0--0-0-0-0----|--0--0-0-0-0-0-0-0--------0-0-0-0-|
|--0--0-0-0-2S4----4--4-0-0-0----|--4--4-4-4-2-0-0-0--------2-2-2-2-|
|--0--0-0-0-0-0----0--0-0-0-0--0-|--0--0-0-0-0-0-0-0--0-----0-0-0-0-|
|--------------------------------|----------------------------------|
|  H               Q      S S  E    H            S S  E     Q
|
|  E    S S E E   +E    Q      E    E    e   E E E    S S   S S E
|-----------------------5--------|----------------------------------|
|--2----2-2-3-5---(5)---5--------|--5----5---3-2-2--------------3---|
|--0----0-0-2-4---(4)---4--------|--4----4---2-0-0----0-0---0h2-----|
|--0----0-0-0-0---(0)---0------0-|--0----0---0-0-0------------------|
|
|  E    Q     S S +H               +Q        H              Q
|--2----3-------0-(0)------------|-(0)------------------------------|
|-(3)-------3-3-1-(1)------------|-(1)-------3------------3-5-------|
|-------------4------------------|-----------4----------------------|
|--------------------------------|----------------------------------|
|--------------------------------|----------------------------------|
|--------------------------------|----------------------------------|
  +Q        E S S +H               +Q        H            a Q


 Verse 3
  G         C/G Dadd11/GGmaj7
   S  S S S E E  S  S E S E.
|--0--0-0-0-2-0--0--0-4-4-4----|
|--0--0-0-0-1S3--3--3-0-0-0----|
|--0--0-0-0-0-0--0--0-0-0-0----|
|--0--0-0-0-2S4--4--4-0-0-0----|
|--0--0-0-0-0-0--0--0-0-0-0--0-|
|------------------------------|
|  H             Q      S S  E
|
|  Q        E E +E    Q      E
|---------------------5--------|
|--2--------3-5-(5)---5--------|
|--0--------2-4-(4)---4--------|
|--0--------0-0-(0)---0------0-|
|
| +Q        H.
|------------------------------|
|-(5)-------3------------------|
|------------------------------|
|------------------------------|
|------------------------------|
|------------------------------|


  Dadd11/GC/G          C/G         G        C/G Dadd11/GGmaj7
  S S S S E E  S  E.   S  S  S S   S  S S S E E  S  S E S E.
|-0-0-0-0-2-0--0--0----2--2--2-2-|-0--0-0-0-2-0--0--0-4-4-4----|
|-3-3-3-3-1-0--0--0----1--1--1-1-|-0--0-0-0-1S3--3--3-0-0-0----|
|-0-0-0-0-0-0--0--0----0--0--0-0-|-0--0-0-0-0-0--0--0-0-0-0----|
|-4-4-4-4-2-0--0--0----2--2--2-2-|-0--0-0-0-2S4--4--4-0-0-0----|
|-0-0-0-0-0-0--0--0--0-0--0--0-0-|-0--0-0-0-0-0--0--0-0-0-0--0-|
|--------------------------------|-----------------------------|
| H            S  S  E Q           H             Q      S S  E
|
| S E   S E E +E     E S  S  S S   E.     S E E +E    Q      E
|--------------------------------|--------------------5--------|
|-5-5---5-3-2-(2)------0h=3--3---|-2------2-3-5-(5)---5--------|
|-4-4---4-2-0-(0)------0h=2--2-0-|-0------0-2-4-(4)---4--------|
|-0-0---0-0-0-(0)----0-0-(0)-0---|-0------0-0-0-(0)---0------0-|
|
| H            E     Q       E     W
|--------------------------------|-----------------------------|
|--------------------------------|-----------------------------|
|--------------0-----------------|-----------------------------|
|--------------------4-------2---|-0---------------------------|
|--------------------------------|-----------------------------|
|--------------------------------|-----------------------------|


  Dadd11/GC/G            C/G
  S S S S E E  S  E.      S  S  S S
|-0-0-0-0-2-0--0--0-------2--2--2-2-|
|-3-3-3-3-1-0--0--0-------1--1--1-1-|
|-0-0-0-0-0-0--0--0-------0--0--0-0-|
|-4-4-4-4-2-0--0--0-------2--2--2-2-|
|-0-0-0-0-0-0--0--0--0----0--0--0-0-|
|-----------------------------------|
| H            S  S  E    Q
|
| Q       E E +E     E    S  E.
|-----------------------------------|
|-5-------3-2-(2)---------0h=3------|
|-4-------2-0-(0)---------0h=2------|
|-0-------0-0-(0)----0--------------|
|
| H            E     S S +Q
|-----------------------------------|
|-----------------------------------|
|--------------------0--------------|
|----------------------4-(4)--------|
|---------0s2--5--------------------|
|-----------------------------------|
  Q       E E  H


  G          C/G   Dadd11/GGmaj7    Dadd11/GC/G          C/G
   S  S S  S  E  E  S  S E S E.     S S S S E E  S  E.   S S  S S
|--0--0-0--0--2--0--0--0-4-4-4----|-0-0-0-0-2-0--0--0----2-2--2-2-|
|--0--0-0--0--1S=3--3--3-0-0-0----|-3-3-3-3-1-0--0--0----1-1--1-1-|
|--0--0-0--0--0--0--0--0-0-0-0----|-0-0-0-0-0-0--0--0----0-0--0-0-|
|--0--0-0--0--2S=4--4--4-0-0-0----|-4-4-4-4-2-0--0--0----2-2--2-2-|
|--0--0-0--0--0--0--0--0-0-0-0--0-|-0-0-0-0-0-0--0--0--0-0-0--0-0-|
|---------------------------------|-------------------------------|
|  H                Q      S S  E   H            S  S  E Q
|
|  Q          E  E  E    Q      E   Q       E E +E     E S E.
|------------------------5--------|-------------------------------|
|--2----------3--5--5----5--------|-5-------3-2-(2)------0h3------|
|--0----------2--4--4----4--------|-4-------2-0-(0)------0h2------|
|--0----------0--0--0----0------0-|-0-------0-0-(0)----0----------|
|
| +E    Q.         +H               W
|---------------------------------|-------------------------------|
|---------------------------------|-------------------------------|
|-------0----------(0)------------|-------------------------------|
|-(4)-----------------------------|-------------------------------|
|-(5)------5-(5)------------------|-------------------------------|
|---------------------------------|-------------------------------|
  +E.      S +H.


  G        C/G Dadd11/GGmaj7
  S  S S S E E  S  S E S E.
|-0--0-0-0-2-0--0--0-4-4-4----|
|-0--0-0-0-1S3--3--3-0-0-0----|
|-0--0-0-0-0-0--0--0-0-0-0----|
|-0--0-0-0-2S4--4--4-0-0-0----|
|-0--0-0-0-0-0--0--0-0-0-0--0-|
|-----------------------------|
| H             Q      S S  E
|
| E.     S E E +E    Q      E
|--------------------5--------|
|-2------2-3-5-(5)---5--------|
|-0------0-2-4-(4)---4--------|
|-0------0-0-0-(0)---0------0-|
|
| W
|-----------------------------|
|-----------------------------|
|-----------------------------|
|-----------------------------|
|-----------------------------|
|-----------------------------|


                                 Chorus
  Dadd11/G C/G          C/G       Dm/BD5/BDm/Bb D5/Bb
  S  S S S E E  S  E.   S S S S   E S S E E S S S S S S E
|-0--0-0-0-2-0--0--0----2-2-2-2-|-3-3-0-0-3-3-3-0-0-0-0-0-|
|-3--3-3-3-1-0--0--0----1-1-1-1-|-3-3-3-3-3-3-3-3-3-3-3-3-|
|-0--0-0-0-0-0--0--0----0-0-0-0-|-2-2-2-2-2-2-2-2-2-2-2-2-|
|-4--4-4-4-2-0--0--0----2-2-2-2-|-0-0-0-0-0-0-0-0-0-0-0-0-|
|-0--0-0-0-0-0--0--0--0-0-0-0-0-|-3-3-3-3-3-3-3-3-3-3-3-3-|
|-------------------------------|-------------------------|
| H             S  S  E Q
|
| E.     S E E +E     E Q         W
|-------------------------------|-------------------------|
|-5------5-3-2-(2)------3-------|-------------------------|
|-4------4-2-0-(0)------2-------|-------------------------|
|-0------0-0-0-(0)----0-0-------|-------------------------|
|
| W                               W
|-------------------------------|-------------------------|
|-------------------------------|-------------------------|
|-------------------------------|-------------------------|
|-------------------------------|-3-----------------------|
|-------------------------------|-------------------------|
|-------------------------------|-------------------------|


  Dm/Bb D5/Bb Dm/Bb   D5/Bb
   E  S S  E  S S S S S S S S E
|--3--3-0--0--3-3-3-3-0-0-0-0-0---|
|--3--3-3--3--3-3-3-3-3-3-3-3-3---|
|--2--2-2--2--2-2-2-2-2-2-2-2-2---|
|--0--0-0--0--0-0-0-0-0-0-0-0-0---|
|--3--3-3--3--3-3-3-3-3-3-3-3-3---|
|---------------------------------|
|
|  Q      +E  S S S S S S S S S S
|--5------(5)-5-----------5-------|
|--3------(3)-3-3-3-3-3-3-3-3-3-3-|
|--3------(3)-3-3-3-3-3-3-3-3-3-3-|
|--3------(3)-3-3-3-3-3-3-3-3-3-3-|
|
| +W
|---------------------------------|
|---------------------------------|
|---------------------------------|
|-(3)-----------------------------|
|---------------------------------|
|---------------------------------|


  G          C/G Dadd11/GGmaj7    Dadd11/G  C/G          C/G
   S  S S  S E E  S  S E S E.      S  S S S E E  S  E.   E E
|--0--0-0--0-2-0--0--0-4-4-4----|--0--0-0-0-2-0--0--0----2-0-|
|--0--0-0--0-1S3--3--3-0-0-0----|--3--3-3-3-1-0--0--0----1-0-|
|--0--0-0--0-0-0--0--0-0-0-0----|--0--0-0-0-0-0--0--0----0-0-|
|--0--0-0--0-2S4--4--4-0-0-0----|--4--4-4-4-2-0--0--0----2-0-|
|--0--0-0--0-0-0--0--0-0-0-0--0-|--0--0-0-0-0-0--0--0--0-0-0-|
|-------------------------------|----------------------------|
|  H              Q      S S  E    H             S  S  E Q
|
|  E.      S E E +E    Q      E    Q        E E +E     E Q
|----------------------5--------|----------------------------|
|--2-------2-3-5-(5)---5--------|--5--------3-2-(2)------3---|
|--0-------0-2-4-(4)---4--------|--4--------2-0-(0)------2---|
|--0-------0-0-0-(0)---0------0-|--0--------0-0-(0)----0-0---|
|
| +E    Q.       +H               +W
|-------------------------------|----------------------------|
|-------------------------------|----------------------------|
|-------------------------------|----------------------------|
|-(3)s==0--------(0)------------|-(0)------------------------|
|-------------------------------|----------------------------|
|-------------------------------|----------------------------|


  Dm/BD5/BDm/Bb   D5/Bb       Dm/Bb     D5/BDm/Bb   D5/Bb
  E S S E E  S  S S S S S E    S  S S S E   S S S S E S S E
|-3-3-0-0-3--3--3-0-0-0-0-0-|--3--3-3-3-0---3-3-3-3-0-0-0-0---|
|-3-3-3-3-3--3--3-3-3-3-3-3-|--3--3-3-3-3---3-3-3-3-3-3-3-3---|
|-2-2-2-2-2--2--2-2-2-2-2-2-|--2--2-2-2-2---2-2-2-2-2-2-2-2---|
|-0-0-0-0-0--0--0-0-0-0-0-0-|--0--0-0-0-0---0-0-0-0-0-0-0-0---|
|-3-3-3-3-3--3--3-3-3-3-3-3-|--3--3-3-3-3---3-3-3-3-3-3-3-3---|
|---------------------------|---------------------------------|
|
| Q     E E +E    S S Q        E.     S S S E   S S E S S S S
|---------5-(5)---5-5-5-----|--5------------5-------5-5-5-5-5-|
|---------3-(3)---3-3-3-----|--3------3-3-3-3---3-3-3-3-3-3-3-|
|---------3-(3)---3-3-3-----|--3------3-3-3-3---3-3-3-3-3-3-3-|
|---------3-(3)---3-3-3-----|--3------3-3-3-3---3-3-3-3-3-3-3-|
|
| W                           +W
|---------------------------|---------------------------------|
|---------------------------|---------------------------------|
|---------------------------|---------------------------------|
|-3-------------------------|-(3)-----------------------------|
|---------------------------|---------------------------------|
|---------------------------|---------------------------------|


      D                              Dsus2
   E  S  S E     S S  S  S S S   S S E
|-----0--0-0-----0-0--0--0-0-0---0-0-0----|
|-----7--7-7-----7-7--7--7-7-7---7-7-5----|
|-----7--7-7-----7-7--7--7-7-7---7-7-7----|
|-----0--0-0-----0-0--0--0-0-0---0-0-0----|
|-----7--7-7-----7-7--7--7-7-7---7-7-7----|
|--0--0--0-0-----0-0--0--0-0-0---0-0-0----|
|
|  E  S  S S S a S S  S  S S S a E   S S
|-----------------------------------------|
|------------------0--0--0-0-0------------|
|-----0--0-0-0-2s4-------------4s2---0-0--|
|-----------------------------------------|
|
| +E  Q.             +H
|-----------------------------------------|
|-----------------------------------------|
|-----------------------------------------|
|-(3)s4--------------(4)------------------|
|-----------------------------------------|
|-----------------------------------------|


  D                              DsusG
   S  S S S E   S S  E     S S   S S S S
|--0--0-0-0-0---0-0--0-----0-0---0-0-0-0-|
|--7--7-7-7-7---7-7--7-----7-7---5-5-0-0-|
|--7--7-7-7-7---7-7--7-----7-7---7-7-0-0-|
|--0--0-0-0-0---0-0--0-----0-0---0-0-0-0-|
|--7--7-7-7-7---7-7--7-----7-7---7-7-0-0-|
|--0--0-0-0-0---0-0--0-----0-0---0-0-----|
|
|  S  S S S S S S S  S   S S S a S S S S
|---------------5-5----------------------|
|--0--0-0-0-0-0-5-5--0---0-0-0-----------|
|--------------------4---4-4-4-4s2-0-0-0-|
|----------------------------------------|
|
| +H                +Q           Q
|----------------------------------------|
|----------------------------------------|
|----------------------------------------|
|-(4)---------------(4)\-----------------|
|----------------------------------------|
|----------------------------------------|


  G7
  S   S   S   S   E     S   S   E     E     S   S   E
|-3---3---3---3---3-----3---3---3-----3-----3---3---3------|
|-0---0---0---0---0-----0---0---0-----0-----0---0---0------|
|-0---0---0---0---0-----0---0---0-----0-----0---0---0------|
|-3---3---3---3---3-----3---3---3-----3-----3---3---3------|
|-0---0---0---0---0-----0---0---0-----0-----0---0---0------|
|----------------------------------------------------------|
|
| <                     <                   <
| |--3--| |--3--| |-3-| |--3--| |-3-| |-3-| |--3--| |-3-|
| S S   S S S   S S S S S S   S S S S S S S S S   S S S S
|----------------------------------------------------------|
|----------------------------------------------------------|
|----------------------------------------------------------|
|-0-0---0-0-0---0-0-0-0-0-0---0-0-0-0-0-0-0-0-0---0-0-0-0--|
|
| W
|----------------------------------------------------------|
|----------------------------------------------------------|
|----------------------------------------------------------|
|----------------------------------------------------------|
|----------------------------------------------------------|
|----------------------------------------------------------|


  C/G
  S   S   S   S   E     S   S   S   S   E     S   S   S   S
|-2---2---2---2---2-----2---2---2---2---2-----2---2---2---2---|
|-1---1---1---1---1-----1---1---1---1---1-----1---1---1---1---|
|-0---0---0---0---0-----0---0---0---0---0-----0---0---0---0---|
|-2---2---2---2---2-----2---2---2---2---2-----2---2---2---2---|
|-0---0---0---0---0-----0---0---0---0---0-----0---0---0---0---|
|-------------------------------------------------------------|
|
| <                     <                     >
| |--3--| |--3--| |-3-| |--3--| |--3--| |-3-| |--3--| |--3--|
| S S   S S S   S S S S S S   S S S   S S S S S S   S S S   S
|-------------------------------------------------------------|
|-------------------------------------------------------------|
|-------------------------------------------------------------|
|-0-0---0-0-0---0-0-0-0-0-0---0-0-0---0-0-0-0-0-0---0-0-0---0-|
|
| W
|-------------------------------------------------------------|
|-------------------------------------------------------------|
|-------------------------------------------------------------|
|-------------------------------------------------------------|
|-------------------------------------------------------------|
|-------------------------------------------------------------|


  G       C/G Dadd11Gmaj7
  S S S S E E S S E S E.
|-0-0-0-0-2-0-0-0-4-4-4-----|
|-0-0-0-0-1S3-3-3-0-0-0-----|
|-0-0-0-0-0-0-0-0-0-0-0-----|
|-0-0-0-0-2S4-4-4-0-0-0-----|
|-0-0-0-0-0-0-0-0-0-0-0--0--|
|---------------------------|
| H           Q     S S  E
|
| H           E   Q      E
|-----------------5---------|
|-----------------5---------|
|-----------------4---------|
|-0---------------0------0--|
|
| W
|---------------------------|
|---------------------------|
|-0-------------------------|
|-0-------------------------|
|---------------------------|
|---------------------------|


                                 Verse 4
  Dadd11/G C/G          C/G       G        C/G Dadd11/GGmaj7
  S  S S S E E  S  E.   S S S S   S  S S S E E  S  S E S E.
|-0--0-0-0-2-0--0--0----2-2-2-2-|-0--0-0-0-2-0--0--0-4-4-4----|
|-3--3-3-3-1-0--0--0----1-1-1-1-|-0--0-0-0-1S3--3--3-0-0-0----|
|-0--0-0-0-0-0--0--0----0-0-0-0-|-0--0-0-0-0-0--0--0-0-0-0----|
|-4--4-4-4-2-0--0--0----2-2-2-2-|-0--0-0-0-2S4--4--4-0-0-0----|
|-0--0-0-0-0-0--0--0--0-0-0-0-0-|-0--0-0-0-0-0--0--0-0-0-0--0-|
|-------------------------------|-----------------------------|
| H             S  S  E Q         H             Q      S S  E
|
| E.     S E E +E     E S S S S   E.     S E E +E    Q      E
|-------------------------------|--------------------5--------|
|-5------0-3-2-(2)------3-3-3-3-|-2------2-3-5-(5)---5--------|
|-4--------2-0-(0)------2-2-2-2-|-0------0-2-4-(4)---4--------|
|-0--------0-0-(0)----0-0-0-0-0-|-0------0-0-0-(0)---0------0-|
|
| W                               W
|-------------------------------|-----------------------------|
|-------------------------------|-----------------------------|
|-------------------------------|-----------------------------|
|-------------------------------|-----------------------------|
|-------------------------------|-----------------------------|
|-------------------------------|-----------------------------|


  Dadd11/GC/G             C/G
  S S S S E E  S  E.      S S S S
|-0-0-0-0-2-0--0--0-------2-2-2-2-|
|-3-3-3-3-1-0--0--0-------1-1-1-1-|
|-0-0-0-0-0-0--0--0-------0-0-0-0-|
|-4-4-4-4-2-0--0--0-------2-2-2-2-|
|-0-0-0-0-0-0--0--0--0----0-0-0-0-|
|---------------------------------|
| H            S  S  E    Q
|
| S E   S E E +E     E  a Q
|---------------------------------|
|-5-5---5-3-2-(2)-------0h3-------|
|-4-4---4-2-0-(0)-------0h2-------|
|-0-0---0-0-0-(0)----0------------|
|
| H            E     Q.
|---------------------------------|
|---------------------------------|
|--------------------0------------|
|-------------------------4---2---|
|---------------------------------|
|---------------------------------|
  H            Q          E   E


  G         C/G Dadd11/GGmaj7
   S  S S S E E  S  S E S E.
|--0--0-0-0-2-0--0--0-4-4-4----|
|--0--0-0-0-1S3--3--3-0-0-0----|
|--0--0-0-0-0-0--0--0-0-0-0----|
|--0--0-0-0-2S4--4--4-0-0-0----|
|--0--0-0-0-0-0--0--0-0-0-0--0-|
|------------------------------|
|  H             Q      S S  E
|
|  E.     S E E +E    Q      E
|---------------------5--------|
|--2------2-3-5-(5)---5--------|
|--0------0-2-4-(4)---4--------|
|--0------0-0-0-(0)---0------0-|
|
| +H.                   Q
|------------------------------|
|------------------------------|
|-(0)--------------------------|
|--0---------------------------|
|------------------------------|
|------------------------------|
   H.                   Q


  Dadd11/GC/G            C/G       G       C/G Dadd11/GGmaj7
  S S S S E E  S  E.     S S S S   S S S S E E  S  S E S E.
|-0-0-0-0-2-0--0--0------2-2-2-2-|-0-0-0-0-2-0--0--0-4-4-4-----|
|-3-3-3-3-1-0--0--0------1-1-1-1-|-0-0-0-0-1S3--3--3-0-0-0-----|
|-0-0-0-0-0-0--0--0------0-0-0-0-|-0-0-0-0-0-0--0--0-0-0-0-----|
|-4-4-4-4-2-0--0--0------2-2-2-2-|-0-0-0-0-2S4--4--4-0-0-0-----|
|-0-0-0-0-0-0--0--0--0---0-0-0-0-|-0-0-0-0-0-0--0--0-0-0-0--0--|
|--------------------------------|-----------------------------|
| H            S  S  E   Q         H            Q      S S  E
|
| S E   S E E +E     E a Q         E   E   E E +E    Q      E
|--------------------------------|-------------------5---------|
|-5-5---5-3-2-(2)------0h3-------|-2---2---3-5-(5)---5---------|
|-4-4---4-2-0-(0)------0h2-------|-0---0---2-4-(4)---4---------|
|-0-0---0-0-0-(0)----0-----------|-0---0---0-0-(0)---0------0--|
|
| W                                W
|--------------------------------|-----------------------------|
|--------------------------------|-----------------------------|
|--------------------------------|-----------------------------|
|--------------------------------|-----------------------------|
|--------------------------------|-----------------------------|
|--------------------------------|-----------------------------|


  Dadd11/G C/G            C/G       G       C/G Dadd11/GGmaj7
  S  S S S E E  S  E.     S S S S   S S S S E E  S  S E S E.
|-0--0-0-0-2-0--0--0------2-2-2-2-|-0-0-0-0-2-0--0--0-4-4-4----|
|-3--3-3-3-1-0--0--0------1-1-1-1-|-0-0-0-0-1S3--3--3-0-0-0----|
|-0--0-0-0-0-0--0--0------0-0-0-0-|-0-0-0-0-0-0--0--0-0-0-0----|
|-4--4-4-4-2-0--0--0------2-2-2-2-|-0-0-0-0-2S4--4--4-0-0-0----|
|-0--0-0-0-0-0--0--0--0---0-0-0-0-|-0-0-0-0-0-0--0--0-0-0-0--0-|
|---------------------------------|----------------------------|
| H             S  S  E   Q         H            Q      S S  E
|
| E.     S E E +E     E a Q         E   S S E E +E    Q      E
|---------------------------------|-------------------5--------|
|-5------5-3-2-(2)------0h3-------|-2---2-2-3-5-(5)---5--------|
|-4------4-2-0-(0)------0h2-------|-0---0-0-2-4-(4)---4--------|
|-0------0-0-0-(0)----0-----------|-0---0-0-0-0-(0)---0------0-|
|
| W                                 W
|---------------------------------|----------------------------|
|---------------------------------|----------------------------|
|---------------------------------|----------------------------|
|---------------------------------|----------------------------|
|---------------------------------|----------------------------|
|---------------------------------|----------------------------|


  Dadd11/G C/G            C/G
  S  S S S E E  S  E.     S S S S
|-0--0-0-0-2-0--0--0------2-2-2-2---|
|-3--3-3-3-1-0--0--0------1-1-1-1---|
|-0--0-0-0-0-0--0--0------0-0-0-0---|
|-4--4-4-4-2-0--0--0------2-2-2-2---|
|-0--0-0-0-0-0--0--0--0---0-0-0-0---|
|-----------------------------------|
| H             S  S  E   Q
|
| E.     S E E +E     E a Q
|-----------------------------------|
|-5------5-3-2-(2)------0h3---------|
|-4------4-2-0-(0)------0h2---------|
|-0------0-0-0-(0)----0-------------|
|
| H             H
|-----------------------------------|
|-----------------------------------|
|-----------------------------------|
|-----------------------------------|
|-----------------------------2-----|
|---------------------3s==5---------|
  H             E     E   E   E


  G         C/G Dadd11/GGmaj7    Dadd11/G  C/G            C/G
   S  S S S E E  S  S E S E.      S  S S S E E  S  E.     S S S S
|--0--0-0-0-2-0--0--0-4-4-4----|--0--0-0-0-2-0--0--0------2-2-2-2-|
|--0--0-0-0-1S3--3--3-0-0-0----|--3--3-3-3-1-0--0--0------1-1-1-1-|
|--0--0-0-0-0-0--0--0-0-0-0----|--0--0-0-0-0-0--0--0------0-0-0-0-|
|--0--0-0-0-2S4--4--4-0-0-0----|--4--4-4-4-2-0--0--0------2-2-2-2-|
|--0--0-0-0-0-0--0--0-0-0-0--0-|--0--0-0-0-0-0--0--0--0---0-0-0-0-|
|------------------------------|----------------------------------|
|  H             Q      S S  E    H             S  S  E   Q
|
|  S  S S S E E +E    Q      E    S  S S S E E +E     E a S S S S
|---------------------5--------|----------------------------------|
|--2--2-2-2-3-5-(5)---5--------|--5--5-5-5-3-2-(2)------0h3-3-3-3-|
|--0--0-0-0-2-4-(4)---4--------|--4--4-4-4-2-0-(0)------0h2-2-2-2-|
|--0--0-0-0-0-0-(0)---0------0-|--0--0-0-0-0-0-(0)----0-----0-0-0-|
|
|  Q        E E  E    E Q         Q        E E  Q         E   E
|------------------------------|----------------------------------|
|------------------------------|----------------------------------|
|-----------0----0------0------|----------------------------------|
|--0----------4-------0--------|--4--------4-5--0---------0---2---|
|-(2)-----------(2)------------|--5-------------------------------|
|---------------------3s5----7-|-(7)------------------------------|
  +H            +E    E E    E   +H.                      Q


  G        C/G Dadd11/G  Gmaj7
  S  S S S E E  S  S E    S  E.
|-0--0-0-0-2-0--0--0-4----4--4--------|
|-0--0-0-0-1S3--3--3-0----0--0--------|
|-0--0-0-0-0-0--0--0-0----0--0--------|
|-0--0-0-0-2S4--4--4-0----0--0--------|
|-0--0-0-0-0-0--0--0-0----0--0----0---|
|-------------------------------------|
| H             Q         S  S    E
|
| E.     S E E +E    Q            E
|--------------------5----------------|
|-2------2-3-5-(5)---5----------------|
|-0------0-2-4-(4)---4----------------|
|-0------0-0-0-(0)---0------------0---|
|
| H             E    S S +E     a E
|-------------------------------------|
|-------------------------------------|
|-------------------------------------|
|-2-------------4----5-0-(0)----0-2---|
|-------------------------------------|
|-------------------------------------|


  Dadd11/G   C/G G            C/G       G        C/G Dadd11/G  Gmaj7
   S  S  S S  E  E  S  E.     S S S S   S S S  S E E  S  S   E  S  E.
|--0--0--0-0--2--0--0--0------2-2-2-2-|-0-0-0--0-2-0--0--0---4--4--4------|
|--3--3--3-3--1--0--0--0------1-1-1-1-|-0-0-0--0-1S3--3--3---0--0--0------|
|--0--0--0-0--0--0--0--0------0-0-0-0-|-0-0-0--0-0-0--0--0---0--0--0------|
|--4--4--4-4--2--0--0--0------2-2-2-2-|-0-0-0--0-2S4--4--4---0--0--0------|
|--0--0--0-0--0--0--0--0--0---0-0-0-0-|-0-0-0--0-0-0--0--0---0--0--0--0---|
|-------------------------------------|-----------------------------------|
|  H                S  S  E   Q         H             Q         S  S  E
|
|  S  E    S  E  E +E     E a Q         E   E    E E +E      Q        E
|-------------------------------------|----------------------5------------|
|--5--5----5--3--2-(2)------0h3-------|-2---2----3-5-(5)-----5------------|
|--4--4----4--2--0-(0)------0h2-------|-0---0----2-4-(4)-----4------------|
|--0--0----0--0--0-(0)----0-----------|-0---0----0-0-(0)-----0--------0---|
|
| +S  E.     +Q    +E     E   S E   S   H             Q         S  E.
|-------------------------------------|-----------------------------------|
|-------------------------------------|-----------------------------------|
|-------------------------7-----7---7-|-7--------------------------3------|
|-(2)s0------(0)---(0)s===7-----7---7-|-7---9--------------3-5-(5)-5----3-|
|-------------------------------------|-----------------------------------|
|-------------------------------------|-----------------------------------|
                                        E   Q.        E    a E +S  E    S


  Dadd11/GC/G G              C/G
  S S S S  E  E  S  E.       S S S   S
|-0-0-0-0--2--0--0--0--------2-2-2---2---|
|-3-3-3-3--1--0--0--0--------1-1-1---1---|
|-0-0-0-0--0--0--0--0--------0-0-0---0---|
|-4-4-4-4--2--0--0--0--------2-2-2---2---|
|-0-0-0-0--0--0--0--0----0---0-0-0---0---|
|----------------------------------------|
| H              S  S    E   Q
|
| Q        E  E +E       E a S S S   S
|-5--------------------------------------|
|-5--------3--2-(2)--------0h3-3-3---3---|
|-4--------2--0-(0)--------0h2-2-2---2---|
|-0--------0--0-(0)------0-----0-0---0---|
|
|                                |--3--|
| S S E   +Q    +E     a Q       S S   S
|----------------------------------------|
|----------------------------------------|
|--------------------------------3-------|
|-5-3-5---(5)---(5)----3-5---------5---3-|
|----------------------------------------|
|----------------------------------------|


  G       C/G   Dadd11/GGmaj7
  S S S S  E  E  S  S E S E.
|-0-0-0-0--2--0--0--0-4-4-4----|
|-0-0-0-0--1S=3--3--3-0-0-0----|
|-0-0-0-0--0--0--0--0-0-0-0----|
|-0-0-0-0--2S=4--4--4-0-0-0----|
|-0-0-0-0--0--0--0--0-0-0-0--0-|
|------------------------------|
| H              Q      S S  E
|
| Q        E  E +E    Q      E
|---------------------5--------|
|-2--------3--5-(5)---5--------|
|-0--------2--4-(4)---4--------|
|-0--------0--0-(0)---0------0-|
|
| S E   S +H            E    E
|------------------------------|
|------------------------------|
|------------------------------|
|-5-3---0-(0)-----------0----2-|
|------------------------------|
|------------------------------|


                                      Verse 5
  Dadd11/G  C/G G            C/G       G       C/G Dadd11/GGmaj7
   S  S S S  E  E  S  E.     S S S S   S S S S E E  S  S E S E.
|--0--0-0-0--2--0--0--0------2-2-2-2-|-0-0-0-0-2-0--0--0-4-4-4-----|
|--3--3-3-3--1--0--0--0------1-1-1-1-|-0-0-0-0-1S3--3--3-0-0-0-----|
|--0--0-0-0--0--0--0--0------0-0-0-0-|-0-0-0-0-0-0--0--0-0-0-0-----|
|--4--4-4-4--2--0--0--0------2-2-2-2-|-0-0-0-0-2S4--4--4-0-0-0-----|
|--0--0-0-0--0--0--0--0--0---0-0-0-0-|-0-0-0-0-0-0--0--0-0-0-0--0--|
|------------------------------------|-----------------------------|
|  H               S  S  E   Q         H            Q      S S  E
|
|  E.     S  E  E +E     E a Q         Q       E E +E    Q      E
|------------------------------------|-------------------5---------|
|--5------5--3--2-(2)------0h3-------|-2-------3-5-(5)---5---------|
|--4------4--2--0-(0)------0h2-------|-0-------2-4-(4)---4---------|
|--0------0--0--0-(0)----0-----------|-0-------0-0-(0)---0------0--|
|
| +E.     S +Q    +E     Q.            W
|------------------------------------|-----------------------------|
|------------------------------------|-----------------------------|
|------------------------------------|-----------------------------|
|-(2)-----0-(0)---(0)----------------|-----------------------------|
|------------------------5s==========|=2---------------------------|
|------------------------------------|-----------------------------|


  Dadd11/G  C/G            C/G
   S  S S S E E  S  E.     S S S S
|--0--0-0-0-2-0--0--0------2-2-2-2-|
|--3--3-3-3-1-0--0--0------1-1-1-1-|
|--0--0-0-0-0-0--0--0------0-0-0-0-|
|--4--4-4-4-2-0--0--0------2-2-2-2-|
|--0--0-0-0-0-0--0--0--0---0-0-0-0-|
|----------------------------------|
|  H             S  S  E   Q
|
|  E.     S E E +E     E a Q
|----------------------------------|
|--5------5-3-2-(2)------0h3-------|
|--4------4-2-0-(0)------0h2-------|
|--0------0-0-0-(0)----0-----------|
|
| +W
|----------------------------------|
|----------------------------------|
|----------------------------------|
|----------------------------------|
|-(2)------------------------------|
|----------------------------------|


  G       C/G Dadd11/GGmaj7      Dadd11/G C/G          C/G
  S S S S E E  S  S E  S  E.     S  S S S E E S E.     S S   S S
|-0-0-0-0-2-0--0--0-4--4--4----|-0--0-0-0-2-0-0-0------2-2---2-2--|
|-0-0-0-0-1S3--3--3-0--0--0----|-3--3-3-3-1-0-0-0------1-1---1-1--|
|-0-0-0-0-0-0--0--0-0--0--0----|-0--0-0-0-0-0-0-0------0-0---0-0--|
|-0-0-0-0-2S4--4--4-0--0--0----|-4--4-4-4-2-0-0-0------2-2---2-2--|
|-0-0-0-0-0-0--0--0-0--0--0--0-|-0--0-0-0-0-0-0-0--0---0-0---0-0--|
|------------------------------|----------------------------------|
| H            Q       S  S  E   H            S S  E   Q
|
| E   S S E E +S  S E +E     E   E.     S E E S S  S S Q
|-------------------5-(5)------|----------------------------------|
|-2---2-2-3-5-(5)-5-5-(5)------|-5------5-3-2-2-2--2-2-3----------|
|-0---0-0-2-4-(4)-4-4-(4)------|-4------4-2-0-0-0--0-0-2----------|
|-0---0-0-0-0-(0)-0-0-(0)----0-|-0------0-0-0-0-0--0-0-0----------|
|
| W                              E    E   E E E    Q       a E
|------------------------------|------3s==2s3s2s===3--------------|
|------------------------------|---------------------------3-5----|
|------------------------------|----------------------------------|
|------------------------------|----------------------------------|
|------------------------------|----------------------------------|
|------------------------------|----------------------------------|


  G       C/G Dadd11/GGmaj7
  S S S S E E  S  S E S E.
|-0-0-0-0-2-0--0--0-4-4-4----|
|-0-0-0-0-1S3--3--3-0-0-0----|
|-0-0-0-0-0-0--0--0-0-0-0----|
|-0-0-0-0-2S4--4--4-0-0-0----|
|-0-0-0-0-0-0--0--0-0-0-0--0-|
|----------------------------|
| H            Q      S S  E
|
| S S S S E E +E    Q      E
|-------------------5--------|
|-2-2-2-2-3-5-(5)---5--------|
|-0-0-0-0-2-4-(4)---4--------|
|-0-0-0-0-0-0-(0)---0------0-|
|
| W
|----------------------------|
|-3--------------------------|
|----------------------------|
|----------------------------|
|----------------------------|
|----------------------------|


  Dadd11/G  C/G            C/G       G       C/G Dadd11/GGmaj7
   S  S S S E E  S  E.     S S S S   S S S S E E  S  S E S E.
|--0--0-0-0-2-0--0--0------2-2-2-2-|-0-0-0-0-2-0--0--0-4-4-4-----|
|--3--3-3-3-1-0--0--0------1-1-1-1-|-0-0-0-0-1S3--3--3-0-0-0-----|
|--0--0-0-0-0-0--0--0------0-0-0-0-|-0-0-0-0-0-0--0--0-0-0-0-----|
|--4--4-4-4-2-0--0--0------2-2-2-2-|-0-0-0-0-2S4--4--4-0-0-0-----|
|--0--0-0-0-0-0--0--0--0---0-0-0-0-|-0-0-0-0-0-0--0--0-0-0-0--0--|
|----------------------------------|-----------------------------|
|  H             S  S  E   Q         H            Q      S S  E
|
|  S  E   S E E +E     E a Q         S S S S E E +E    Q      E
|----------------------------------|-------------------5---------|
|--5--5---5-3-2-(2)------0h3-------|-2-2-2-2-3-5-(5)---5---------|
|--4--4---4-2-0-(0)------0h2-------|-0-0-0-0-2-4-(4)---4---------|
|--0--0---0-0-0-(0)----0-----------|-0-0-0-0-0-0-(0)---0------0--|
|
| +H.                      Q         W
|----------------------------------|-----------------------------|
|-(3)------------------------------|-----------------------------|
|----------------------------------|-----------------------------|
|----------------------------------|-----------------------------|
|----------------------------------|-----------------------------|
|----------------------------------|-----------------------------|


  Dadd11/GC/G          C/G       G             C/G   Dadd11/GGmaj7
  S S S S E E  S  E.   S S S S    S  S   S   S  E  E  S  S E  S  E.
|-0-0-0-0-2-0--0--0----2-2-2-2-|--0--0---0---0--2--0--0--0-4--4--4----|
|-3-3-3-3-1-0--0--0----1-1-1-1-|--0--0---0---0--1S=3--3--3-0--0--0----|
|-0-0-0-0-0-0--0--0----0-0-0-0-|--0--0---0---0--0--0--0--0-0--0--0----|
|-4-4-4-4-2-0--0--0----2-2-2-2-|--0--0---0---0--2S=4--4--4-0--0--0----|
|-0-0-0-0-0-0--0--0--0-0-0-0-0-|--0--0---0---0--0--0--0--0-0--0--0--0-|
|------------------------------|--------------------------------------|
| H            S  S  E Q          H                   Q       S  S  E
|
| S E   S E E +S  S  E Q          E.         S  E  E +E    E +S  S  E
|------------------------------|---------------------------5-(5)-5----|
|-5-5---5-3-2-(2)-2----3-------|--2----------2--3--5-(5)---5-(5)-5----|
|-4-4---4-2-0-(0)-0----2-------|--0----------0--2--4-(4)---4-(4)-4----|
|-0-0---0-0-0-(0)-0--0-0-------|--0----------0--0--0-(0)---0-(0)-0--0-|
|
|                                 |---3----|
| H            E     E E   E      E    E   E   +Q     H
|------------------------------|--3----2---3---(3)--------------------|
|--------------------------3---|-(3)-----------------(3)------------3s|
|--------------------2s4-------|--------------------------------------|
|------------------------------|--------------------------------------|
|------------------------------|--------------------------------------|
|------------------------------|--------------------------------------|
                                 +H                  +Q.            E


  Dadd11/G C/G            C/G
  S  S S S E E  S  E.     S S S S
|-0--0-0-0-2-0--0--0------2-2-2-2--|
|-3--3-3-3-1-0--0--0------1-1-1-1--|
|-0--0-0-0-0-0--0--0------0-0-0-0--|
|-4--4-4-4-2-0--0--0------2-2-2-2--|
|-0--0-0-0-0-0--0--0--0---0-0-0-0--|
|----------------------------------|
| H             S  S  E   Q
|
| E.     S E E +S  S  E a Q
|----------------------------------|
|-5------5-3-2-(2)-2----0h3--------|
|-4------4-2-0-(0)-0----0h2--------|
|-0------0-0-0-(0)-0--0------------|
|
| E    Q     E  E     E   Q
|------3-----3--2-----3---3--------|
|-5------------(5)------------5----|
|----------------------------------|
|----------------------------------|
|----------------------------------|
|----------------------------------|
  H            +Q.            E


  G        C/G Dadd11/G  Gmaj7
  S S S  S E E  S  S E   S E.
|-0-0-0--0-2-0--0--0-4---4-4------|
|-0-0-0--0-1S3--3--3-0---0-0------|
|-0-0-0--0-0-0--0--0-0---0-0------|
|-0-0-0--0-2S4--4--4-0---0-0------|
|-0-0-0--0-0-0--0--0-0---0-0--0---|
|---------------------------------|
| H             Q        S S  E
|
| Q        E E  E    S S S S  S S
|--------------------5-5----------|
|-2--------3-5--5----5-5-5-5--5-5-|
|-0--------2-4--4----4-4-4-4--4-4-|
|-0--------0-0--0----0-0-0-0--0-0-|
|
| E   Q.       +Q.            E
|---------------------------------|
|-5---3--------(3)------------3---|
|--------------------2s==4--------|
|---------------7-----------------|
|---------------------------------|
|---------------------------------|
  H             E    E   Q


  Dadd11/G  C/G G               C/G       G       C/G   Dadd11/GGmaj7
   S  S S S  E  E    S  E.      S S S S   S S S S E E    S  S E  S  E.
|--0--0-0-0--2--0----0--0-------2-2-2-2-|-0-0-0-0-2-0----0--0-4--4--4----|
|--3--3-3-3--1--0----0--0-------1-1-1-1-|-0-0-0-0-1S3----3--3-0--0--0----|
|--0--0-0-0--0--0----0--0-------0-0-0-0-|-0-0-0-0-0-0----0--0-0--0--0----|
|--4--4-4-4--2--0----0--0-------2-2-2-2-|-0-0-0-0-2S4----4--4-0--0--0----|
|--0--0-0-0--0--0----0--0--0----0-0-0-0-|-0-0-0-0-0-0----0--0-0--0--0--0-|
|---------------------------------------|--------------------------------|
|  H                 S  S  E    Q         H              Q       S  S  E
|
|  E.     S  E  E   +S  S  E  a Q         S S S S E S S  S  S E +E     E
|---------------------------------------|---------------------5-(5)------|
|--5------5--3--2---(2)-2-----0h3-------|-2-2-2-2-3-5-5--5--5-5-(5)------|
|--4------4--2--0---(0)-0-----0h2-------|-0-0-0-0-2-4-4--4--4-4-(4)------|
|--0------0--0--0---(0)-0--0------------|-0-0-0-0-0-0-0--0--0-0-(0)----0-|
|
|  E    E    E  S S +E     Q        E     Q       Q     +E    Q        E
|--3----2----3----------------------3---|-3-------3-----(3)---3--------3-|
|---------------3s5-(5)----3------------|-3-------------(3)---5--3-----3-|
|-(4)-------(4)-4s5-(5)----4------------|--------------------------------|
|---------------------------------------|--------------------------------|
|---------------------------------------|--------------------------------|
|---------------------------------------|--------------------------------|
  +Q        +E  S S +E     Q.             H             +E    E  E     E


  Dadd11/GC/GG            C/G
  S S S S E  E  S  E.     S S S S
|-0-0-0-0-2--0--0--0------2-2-2-2-|
|-3-3-3-3-1--0--0--0------1-1-1-1-|
|-0-0-0-0-0--0--0--0------0-0-0-0-|
|-4-4-4-4-2--0--0--0------2-2-2-2-|
|-0-0-0-0-0--0--0--0--0---0-0-0-0-|
|---------------------------------|
| H             S  S  E   Q
|
| S S S S E  E +E     E a Q
|---------------------------------|
|-5-5-5-5-3--2-(2)------0h3-------|
|-4-4-4-4-2--0-(0)------0h2-------|
|-0-0-0-0-0--0-(0)----0-----------|
|
| Q       E  E +E     E   E   E
|-3-------3--3-(3)----3---2---3---|
|-5---3---5-----------------------|
|---------------------------------|
|---------------------------------|
|---------------------------------|
|---------------------------------|
  E   E   H.


  G        C/G Dadd11/G  Gmaj7        Dadd11/G C/G            C/G
  S S S  S E E  S  S E    S  E.       S S S  S E E  S  E.     S S S S
|-0-0-0--0-2-0--0--0-4----4--4------|-0-0-0--0-2-0--0--0------2-2-2-2-|
|-0-0-0--0-1S3--3--3-0----0--0------|-3-3-3--3-1-0--0--0------1-1-1-1-|
|-0-0-0--0-0-0--0--0-0----0--0------|-0-0-0--0-0-0--0--0------0-0-0-0-|
|-0-0-0--0-2S4--4--4-0----0--0------|-4-4-4--4-2-0--0--0------2-2-2-2-|
|-0-0-0--0-0-0--0--0-0----0--0--0---|-0-0-0--0-0-0--0--0--0---0-0-0-0-|
|-----------------------------------|---------------------------------|
| H             Q         S  S  E     H             S  S  E   Q
|
| E   S  S E E +E    E   +S  E    S   S S S  S E E +E     E a Q
|--------------------5---(5)-5----5-|---------------------------------|
|-2---2--2-3-5-(5)---5---(5)-5----5-|-5-5-5--5-3-2-(2)------0h3-------|
|-0---0--0-2-4-(4)---4---(4)-4----4-|-4-4-4--4-2-0-(0)------0h2-------|
|-0---0--0-0-0-(0)---0---(0)-0----0-|-0-0-0--0-0-0-(0)----0-----------|
|
| H            +E    S S +S  E.       E   Q.       +H
|-----------------------------------|---------------------------------|
|-3------------(3)---5-3-(3)-3------|---------------------------------|
|-----4--------(4)---5-4-(4)-4------|-2s==4--------(4)----------------|
|-----------------------------------|---------------------------------|
|-----------------------------------|---------------------------------|
|-----------------------------------|---------------------------------|
  E   Q.       +E    S S +S  E.


 Verse 6
  G        C/G Dadd11/G  Gmaj7
  S S S  S E E  S  S E    S  E.
|-0-0-0--0-2-0--0--0-4----4--4------|
|-0-0-0--0-1S3--3--3-0----0--0------|
|-0-0-0--0-0-0--0--0-0----0--0------|
|-0-0-0--0-2S4--4--4-0----0--0------|
|-0-0-0--0-0-0--0--0-0----0--0--0---|
|-----------------------------------|
| H             Q         S  S  E
|
| E   S  S E E +E    S S +E     S S
|--------------------5-5-(5)----5-5-|
|-2---2--2-3-5-(5)---5-5-(5)----5-5-|
|-0---0--0-2-4-(4)---4-4-(4)----4-4-|
|-0---0--0-0-0-(0)---0-0-(0)----0-0-|
|
| E   Q.       +H
|-----------------------------------|
|-----------------------------------|
|-2s==4--------(4)------------------|
|-----------------------------------|
|-----------------------------------|
|-----------------------------------|


  Dadd11/G  C/G          C/G       G        C/G Dadd11/G Gmaj7
   S  S S S E E S E.     S S S S   S  S S S E E  S  S E  S E.
|--0--0-0-0-2-0-0-0------2-2-2-2-|-0--0-0-0-2-0--0--0-4--4-4------|
|--3--3-3-3-1-0-0-0------1-1-1-1-|-0--0-0-0-1S3--3--3-0--0-0------|
|--0--0-0-0-0-0-0-0------0-0-0-0-|-0--0-0-0-0-0--0--0-0--0-0------|
|--4--4-4-4-2-0-0-0------2-2-2-2-|-0--0-0-0-2S4--4--4-0--0-0------|
|--0--0-0-0-0-0-0-0--0---0-0-0-0-|-0--0-0-0-0-0--0--0-0--0-0--0---|
|--------------------------------|--------------------------------|
|  H            S S  E   Q         H             Q       S S  E
|
|  E.     S E E S S  E a S S S S   E.     S E E +E    Q.
|--------------------------------|--------------------5-----------|
|--5------5-3-2-2-2----0h3-3-3-3-|-2------2-3-5-(5)---5-----------|
|--4------4-2-0-0-0----0h2-2-2-2-|-0------0-2-4-(4)---4-----------|
|--0------0-0-0-0-0--0-----0-0-0-|-0------0-0-0-(0)---0-----------|
|
| +W                               W
|--------------------------------|--------------------------------|
|--------------------------------|--------------------------------|
|-(4)----------------------------|--------------------------------|
|--------------------------------|--------------------------------|
|--------------------------------|--------------------------------|
|--------------------------------|--------------------------------|


  Dadd11/G C/G            C/G       G        C/G Dadd11/GGmaj7
  S  S S S E E  S  E.     S S S S   S  S S S E E  S  S E  S  E.
|-0--0-0-0-2-0--0--0------2-2-2-2-|-0--0-0-0-2-0--0--0-4--4--4----|
|-3--3-3-3-1-0--0--0------1-1-1-1-|-0--0-0-0-1S3--3--3-0--0--0----|
|-0--0-0-0-0-0--0--0------0-0-0-0-|-0--0-0-0-0-0--0--0-0--0--0----|
|-4--4-4-4-2-0--0--0------2-2-2-2-|-0--0-0-0-2S4--4--4-0--0--0----|
|-0--0-0-0-0-0--0--0--0---0-0-0-0-|-0--0-0-0-0-0--0--0-0--0--0--0-|
|---------------------------------|-------------------------------|
| H             S  S  E   Q         H             Q       S  S  E
|
| E.     S E E +Q       a S S S S   E.     S E E +E    E +S  S  E
|---------------------------------|--------------------5-(5)-5----|
|-5------5-3-2-(2)------0h3-3-3-3-|-2------2-3-5-(5)---5-(5)-5----|
|-4------4-2-0-(0)------0h2-2-2-2-|-0------0-2-4-(4)---4-(4)-4----|
|-0------0-0-0-(0)----------0-0-0-|-0------0-0-0-(0)---0-(0)-0--0-|
|
| W                                 W
|---------------------------------|-------------------------------|
|---------------------------------|-------------------------------|
|---------------------------------|-------------------------------|
|---------------------------------|-------------------------------|
|---------------------------------|-------------------------------|
|---------------------------------|-------------------------------|


  Dadd11/G C/G            C/G
  S  S S S E E  S  E.     S S S S
|-0--0-0-0-2-0--0--0------2-2-2-2---|
|-3--3-3-3-1-0--0--0------1-1-1-1---|
|-0--0-0-0-0-0--0--0------0-0-0-0---|
|-4--4-4-4-2-0--0--0------2-2-2-2---|
|-0--0-0-0-0-0--0--0--0---0-0-0-0---|
|-----------------------------------|
| H             S  S  E   Q
|
| E.     S E E +S  S  E a Q
|-----------------------------------|
|-5------5-3-2-(2)-2----0h3---------|
|-4------4-2-0-(0)-0----0h2---------|
|-0------0-0-0-(0)-0--0-------------|
|
| W
|-----------------------------------|
|-----------------------------------|
|-----------------------------------|
|-----------------------------------|
|-----------------------------------|
|-----------------------------------|


  G        C/G Dadd11Gmaj7        Dadd11/G C/G            C/G
  S  S S S E E  S  S E  S  E.     S  S S S E E  S  E.     S S S S
|-0--0-0-0-2-0--0--0-4--4--4----|-0--0-0-0-2-0--0--0------2-2-2-2-|
|-0--0-0-0-1S3--3--3-0--0--0----|-3--3-3-3-1-0--0--0------1-1-1-1-|
|-0--0-0-0-0-0--0--0-0--0--0----|-0--0-0-0-0-0--0--0------0-0-0-0-|
|-0--0-0-0-2S4--4--4-0--0--0----|-4--4-4-4-2-0--0--0------2-2-2-2-|
|-0--0-0-0-0-0--0--0-0--0--0--0-|-0--0-0-0-0-0--0--0--0---0-0-0-0-|
|-------------------------------|---------------------------------|
| H             Q       S  S  E   H             S  S  E   Q
|
| E.     S E E +S  S E +E     E   E.     S E E +S  S  E a E   E
|------------------5-5-(5)------|---------------------------------|
|-2------2-3-5-(5)-5-5-(5)------|-5------5-3-2-(2)-2----0h3-------|
|-0------0-2-4-(4)-4-4-(4)------|-4------4-2-0-(0)-0----0h2---0---|
|-0------0-0-0-(0)-0-0-(0)----0-|-0------0-0-0-(0)-0--0-------0---|
|
| W                               W
|-------------------------------|---------------------------------|
|-------------------------------|---------------------------------|
|-------------------------------|---------------------------------|
|-------------------------------|---------------------------------|
|-------------------------------|---------------------------------|
|-------------------------------|---------------------------------|


 Chorus
  Dm/BD5/BDm/Bb   D5/Bb       Dm/Bb D5/Bb Dm/Bb   D5/Bb
  E S S E E  S  S S S S S E    E  S S E   S S S S S S S S E
|-3-3-0-0-3--3--3-0-0-0-0-0-|--3--3-0-0---3-3-3-3-0-0-0-0-0---|
|-3-3-3-3-3--3--3-3-3-3-3-3-|--3--3-3-3---3-3-3-3-3-3-3-3-3---|
|-2-2-2-2-2--2--2-2-2-2-2-2-|--2--2-2-2---2-2-2-2-2-2-2-2-2---|
|-0-0-0-0-0--0--0-0-0-0-0-0-|--0--0-0-0---0-0-0-0-0-0-0-0-0---|
|-3-3-3-3-3--3--3-3-3-3-3-3-|--3--3-3-3---3-3-3-3-3-3-3-3-3---|
|---------------------------|---------------------------------|
|
| Q     E E +H                 E  S S S S S S S S S S S S S S
|---------5-(5)-------------|--5--5-5-5-5-5-5-5-5-5-5-5-5-5-5-|
|---------3-(3)-------------|--3--3-3-3-3-3-3-3-3-3-3-3-3-3-3-|
|---------3-(3)-------------|--3--3-3-3-3-3-3-3-3-3-3-3-3-3-3-|
|---------3-(3)-------------|--3--3-3-3-3-3-3-3-3-3-3-3-3-3-3-|
|
| W                           +W
|---------------------------|---------------------------------|
|---------------------------|---------------------------------|
|---------------------------|---------------------------------|
|-3-------------------------|-(3)-----------------------------|
|---------------------------|---------------------------------|
|---------------------------|---------------------------------|


  G          C/G Dadd11/GGmaj7
   S  S S  S E E  S  S E  S  E.
|--0--0-0--0-2-0--0--0-4--4--4--------|
|--0--0-0--0-1S3--3--3-0--0--0--------|
|--0--0-0--0-0-0--0--0-0--0--0--------|
|--0--0-0--0-2S4--4--4-0--0--0--------|
|--0--0-0--0-0-0--0--0-0--0--0--0-----|
|-------------------------------------|
|  H              Q       S  S  E
|
|  E.      S E E +E    E +E     S S
|----------------------5-(5)----------|
|--2-------2-3-4-(4)---5-(5)----------|
|--0-------0-2-4-(4)---4-(4)----------|
|--0-------0-0-0-(0)---0-(0)----0-0---|
|
| +E    Q.        H
|-------------------------------------|
|-------------------------------------|
|-------------------------------------|
|-(3)s==0---------0-------------------|
|-------------------------------------|
|-------------------------------------|


  Dadd11/G  C/G          C/G   Dm/BD5/BDm/Bb     D5/Bb
   S  S S S E E S E.     E E   E S S E E    S  S S S S S E
|--0--0-0-0-2-0-0-0------2-0-|-3-3-0-0-3----3--3-0-0-0-0-0---|
|--3--3-3-3-1-0-0-0------1-0-|-3-3-3-3-3----3--3-3-3-3-3-3---|
|--0--0-0-0-0-0-0-0------0-0-|-2-2-2-2-2----2--2-2-2-2-2-2---|
|--4--4-4-4-2-0-0-0------2-0-|-0-0-0-0-0----0--0-0-0-0-0-0---|
|--0--0-0-0-0-0-0-0--0---0-0-|-3-3-3-3-3----3--3-3-3-3-3-3---|
|----------------------------|-------------------------------|
|  H            S S  E   Q
|
|  S  S S S E E S S  E a E E   Q     E S S +E    S S S S S S
|----------------------------|-------5-5-5-(5)---5-5-5-5-5-5-|
|--5--5-5-5-3-2-2-2----0h3-2-|-------3-3-3-(3)---3-3-3-3-3-3-|
|--4--4-4-4-2-0-0-0----0h2-0-|-------3-3-3-(3)---3-3-3-3-3-3-|
|--0--0-0-0-0-0-0-0--0-----0-|-------3-3-3-(3)---3-3-3-3-3-3-|
|
| +H            H              W
|----------------------------|-------------------------------|
|----------------------------|-------------------------------|
|----------------------------|-------------------------------|
|-(0)------------------------|-3-----------------------------|
|----------------------------|-------------------------------|
|----------------------------|-------------------------------|


  Dm/Bb     D5/BDm/Bb   D5/Bb
   S  S S S E   S S S S E   S S E
|--3--3-3-3-0---3-3-3-3-0---0-0-0---|
|--3--3-3-3-3---3-3-3-3-3---3-3-3---|
|--2--2-2-2-2---2-2-2-2-2---2-2-2---|
|--0--0-0-0-0---0-0-0-0-0---0-0-0---|
|--3--3-3-3-3---3-3-3-3-3---3-3-3---|
|-----------------------------------|
|
|  E.     S S S E   S S S S S S S S
|--5------5-5-5-5---5-5-5-5-5-5-5-5-|
|--3------3-3-3-3---3-3-3-3-3-3-3-3-|
|--3------3-3-3-3---3-3-3-3-3-3-3-3-|
|--3------3-3-3-3---3-3-3-3-3-3-3-3-|
|
| +W
|-----------------------------------|
|-----------------------------------|
|-----------------------------------|
|-(3)-------------------------------|
|-----------------------------------|
|-----------------------------------|


  D                   C C#  D                 C C#
  E S S E S S S S S S E E   S S S S E E S S E E E
|-0-0-0-0-0-0-0-0-0-0-----|-0-0-0-0-0-0-0-0-0-----|
|-7-7-7-7-7-7-7-7-7-7-5-6-|-7-7-7-7-7-7-7-7-7-5-6-|
|-7-7-7-7-7-7-7-7-7-7-5-6-|-7-7-7-7-7-7-7-7-7-5-6-|
|-0-0-0-0-0-0-0-0-0-0-----|-0-0-0-0-0-0-0-0-0-----|
|-7-7-7-7-7-7-7-7-7-7-5-6-|-7-7-7-7-7-7-7-7-7-5-6-|
|-0-0-0-0-0-0-0-0-0-0-----|-0-0-0-0-0-0-0-0-0-----|
|
| W                         W
|-------------------------|-----------------------|
|-------------------------|-----------------------|
|-------------------------|-----------------------|
|-------------------------|-----------------------|
|
| W                         W
|-------------------------|-----------------------|
|-------------------------|-----------------------|
|-------------------------|-----------------------|
|-4-----------------------|-4---------------------|
|-------------------------|-----------------------|
|-------------------------|-----------------------|


  D               C C#  D                       G
  E S S E E S S E E E    E  S S E E +E  E   +S  S E
|-0-0-0-0-0-0-0-0-----|--0--0-0-0-0-(0)-0---(0)-0-0-|
|-7-7-7-7-7-7-7-7-5-6-|--7--7-7-7-7-(7)-7---(7)-0-0-|
|-7-7-7-7-7-7-7-7-5-6-|--7--7-7-7-7-(7)-7---(7)-0-0-|
|-0-0-0-0-0-0-0-0-----|--0--0-0-0-0-(0)-0---(0)-0-0-|
|-7-7-7-7-7-7-7-7-5-6-|--7--7-7-7-7-(7)-7---(7)-0-0-|
|-0-0-0-0-0-0-0-0-----|--0--0-0-0-0-(0)-0---(0)-----|
|
| W                      W
|---------------------|-----------------------------|
|---------------------|-----------------------------|
|---------------------|-----------------------------|
|---------------------|-----------------------------|
|
| H         Q     E E   +H.                  E    E
|---------------------|-----------------------------|
|-------------------3-|-(3)-----------------------3s|
|-------------------0-|--2----------(2)---4--2------|
|-------------------2-|--4----------(4)-------------|
|---------------------|-----------------------------|
|---------------------|-----------------------------|
  H         Q     E E    H          +E.   S  Q


  G7
  E     S   S   E     S   S   S   S   E     S   S   S   S
|-3-----3---3---3-----3---3---3---3---3-----3---3---3---3-----|
|-0-----0---0---0-----0---0---0---0---0-----0---0---0---0-----|
|-0-----0---0---0-----0---0---0---0---0-----0---0---0---0-----|
|-3-----3---3---3-----3---3---3---3---3-----3---3---3---3-----|
|-0-----0---0---0-----0---0---0---0---0-----0---0---0---0-----|
|-------------------------------------------------------------|
|
| <               <                 <               <
| |-3-| |--3--| |-3-| |--3--| |--3--| |-3-| |--3--| |--3--|
| S S S S S   S S S S S S   S S S   S S S S S S   S S S   S
|-------------------------------------------------------------|
|-------------------------------------------------------------|
|-------------------------------------------------------------|
|-0-0-0-0-0---0-0-0-0-0-0---0-0-0---0-0-0-0-0-0---0-0-0---0---|
|
| W
|-------------------------------------------------------------|
|-8-----------------------------------------------------------|
|-------------------------------------------------------------|
|-------------------------------------------------------------|
|-------------------------------------------------------------|
|-------------------------------------------------------------|


  C/G
  E     S   S   E     E       +E      E     S   S   E
|-2-----2---2---2-----2-------(2)-----2-----2---2---2-----|
|-1-----1---1---1-----1-------(1)-----1-----1---1---1-----|
|-0-----0---0---0-----0-------(0)-----0-----0---0---0-----|
|-2-----2---2---2-----2-------(2)-----2-----2---2---2-----|
|-0-----0---0---0-----0-------(0)-----0-----0---0---0-----|
|---------------------------------------------------------|
|
| <               <                 <       >
| |-3-| |--3--| |-3-| |--3--|  |-3--| |-3-| |--3--| |-3-|
| S S S S S   S S S S S S   S  S  S S S S S S S   S S S S
|---------------------------------------------------------|
|---------------------------------------------------------|
|---------------------------------------------------------|
|-0-0-0-0-0---0-0-0-0-0-0---0--0--0-0-0-0-0-0-0---0-0-0-0-|
|
| Q             E     S   S   +H
|---------------------------------------------------------|
|---------------------------------------------------------|
|-------------------------0---(0)-------------------------|
|---------------------2-----------------------------------|
|---------------------------------------------------------|
|---------------------------------------------------------|


  G
  W                +W
|-0--------------|-(0)----|
|-0--------------|-(0)----|
|-0--------------|-(0)----|
|-0--------------|-(0)----|
|-0--------------|-(0)----|
|----------------|--------|
|
| H         H       W
|----------------|--------|
|----------------|--------|
|----------------|--------|
|-0--------------|--------|
|
| S E. +H.          W
|----------------|--------|
|----------------|--------|
|-2s4--(4)-------|--------|
|----------------|--------|
|----------------|--------|
|----------------|--------|


 Second Phrase
  Q=100
  G     Cadd9/Dadd11EmG/G   D             G
  E S S E S S E S S E S S   E S S E E E E S S S S
|-0-0-0-0-0-0-0-0-0-0-0-0-|-0-0-0-0-0-0-0-0-0-0-0-|
|-0-0-0-1-1-1-3-3-3-5-0-0-|-7-7-7-7-7-7-7-0-0-0-0-|
|-0-0-0-0-0-0-0-0-0-0-0-0-|-7-7-7-7-7-7-7-0-0-0-0-|
|-0-0-0-2-2-2-4-4-4-5-0-0-|-0-0-0-0-0-0-0-0-0-0-0-|
|-0-0-0-0-0-0-0-0-0-0-0-0-|-7-7-7-7-7-7-7-0-0-0-0-|
|-------------------------|-0-0-0-0-0-0-0---------|


  C   G GaddG           C   G GaddG           C   G GaddG
  E E E E E E S S S S   E E E E E E S S S S   E E E E E E S S E
|---0-5-0-0-0-0-0-0-0-|---0-5-0-0-0-0-0-0-0-|---0-5-0-0-0-0-0---|
|-5-7-0-0-0-0-0-0-0-0-|-5-7-0-0-0-0-0-0-0-0-|-5-7-0-0-0-0-0-0---|
|-5-0-0-0-0-0-0-0-0-0-|-5-0-0-0-0-0-0-0-0-0-|-5-0-0-0-0-0-0-0---|
|-5-0-0-7-7-0-0-0-0-0-|-5-0-0-7-7-0-0-0-0-0-|-5-0-0-7-7-0-0-0---|
|-5-0-0-0-0-0-0-0-0-0-|-5-0-0-0-0-0-0-0-0-0-|-5-0-0-0-0-0-0-0---|
|---------------------|---------------------|-----------------0-|


  D                                             G     Cadd9/Dadd11EmG/G
  Gtr IV
  W                     W                       Q     Q     Q     Q
                                                |     |     |     |
                                                /     /     /     /

  E S S E E E E S S E   E S S E E E E +E  S S   E S S E S S E S S E S S
|-0-0-0-0-0-0-0-0-0-0-|-0-0-0-0-0-0-0-(0)-0-0-|-0-0-0-0-0-0-0-0-0-0-0-0--|
|-7-7-7-7-7-7-7-7-7-7-|-7-7-7-7-7-7-7-(7)-7-7-|-0-0-0-1-1-1-3-3-3-5-0-0--|
|-7-7-7-7-7-7-7-7-7-7-|-7-7-7-7-7-7-7-(7)-7-7-|-0-0-0-0-0-0-0-0-0-0-0-0--|
|-0-0-0-0-0-0-0-0-0-0-|-0-0-0-0-0-0-0-(0)-0-0-|-0-0-0-2-2-2-4-4-4-5-0-0--|
|-7-7-7-7-7-7-7-7-7-7-|-7-7-7-7-7-7-7-(7)-7-7-|-0-0-0-0-0-0-0-0-0-0-0-0--|
|-0-0-0-0-0-0-0-0-0-0-|-0-0-0-0-0-0-0-(0)-0-0-|--------------------------|
|
| Gtr III
| W                     W                       W
|---------------------|-----------------------|--------------------------|
|---------------------|-----------------------|--------------------------|
|---------------------|-----------------------|--------------------------|
|---------------------|-----------------------|--------------------------|
|---------------------|-----------------------|--------------------------|
|---------------------|-----------------------|--------------------------|


  D             G         C   G GaddG           C   G GaddG
  Q     Q   Q   Q         E E E E E E Q         E E E E E E Q
  |     |   |   |         | | | |   |           | | | |   |
  /     /   /   /         / / / /   /           / / / /   /

  E S S E E E E S S S S   E E E E E E S S S S   E E E E E E S S S S
|-0-0-0-0-0-0-0-0-0-0-0-|---0-5-0-0-0-0-0-0-0-|---0-5-0-0-0-0-0-0-0-|
|-7-7-7-7-7-7-7-0-0-0-0-|-5-7-0-0-0-0-0-0-0-0-|-5-7-0-0-0-0-0-0-0-0-|
|-7-7-7-7-7-7-7-0-0-0-0-|-5-0-0-0-0-0-0-0-0-0-|-5-0-0-0-0-0-0-0-0-0-|
|-0-0-0-0-0-0-0-0-0-0-0-|-5-0-0-7-7-0-0-0-0-0-|-5-0-0-7-7-0-0-0-0-0-|
|-7-7-7-7-7-7-7-0-0-0-0-|-5-0-0-0-0-0-0-0-0-0-|-5-0-0-0-0-0-0-0-0-0-|
|-0-0-0-0-0-0-0---------|---------------------|---------------------|
|
| W                       W                     W
|-----------------------|---------------------|---------------------|
|-----------------------|---------------------|---------------------|
|-----------------------|---------------------|---------------------|
|-----------------------|---------------------|---------------------|
|-----------------------|---------------------|---------------------|
|-----------------------|---------------------|---------------------|


  C   G GaddG         D                 Dsus2 D       Dsus2 D Dsus2G
  E E E E E E E   E   E E   Q   Q     Q       Q     Q   E   E E    E
  | | | |   |     |   | |   |   |     |       |     |   |   | |    |
  / / / /   /     /   / /   /   /     /       /     /   /   / /    /

  E E E E E E S S E   E S S E E S S E S S E   E S S E E S S E S S  S S
|---0-5-0-0-0-0-0---|-0-0-0-0-0-0-0-0-0-0-0-|-0-0-0-0-0-0-0-0-0-0--0-0--|
|-5-7-0-0-0-0-0-0---|-7-7-7-7-7-7-7-7-7-5-5-|-7-7-7-7-5-5-5-7-5-5--0-0--|
|-5-0-0-0-0-0-0-0---|-7-7-7-7-7-7-7-7-7-7-7-|-7-7-7-7-7-7-7-7-7-7--0-0--|
|-5-0-0-7-7-0-0-0---|-0-0-0-0-0-0-0-0-0-0-0-|-0-0-0-0-0-0-0-0-0-0--0-0--|
|-5-0-0-0-0-0-0-0---|-7-7-7-7-7-7-7-7-7-7-7-|-7-7-7-7-7-7-7-7-7-7--0-0--|
|-----------------0-|-0-0-0-0-0-0-0-0-0-0-0-|-0-0-0-0-0-0-0-0-0-0-------|
|
| W                   W                       H         Q     S E.
|-------------------|-----------------------|---------------------------|
|-------------------|-----------------------|---------------------------|
|-------------------|-----------------------|---------------------------|
|-------------------|-----------------------|-----------------2-4-------|
|-------------------|-----------------------|-----------------0---------|
|-------------------|-----------------------|---------------------------|
                                              H         Q     Q


    G        Cadd9/G Dadd11Em7/G   D                  G
    Q         Q      Q     Q       E    E    E  E E E Q
    |         |      |     |       |    |    |  |   |
    /         /      /     /       /    /    /  /   /

    E    S S  E  S S E S S E S S   E    S S  E  E E E S S S S
|---0----0-0--0--0-0-0-0-0-0-0-0-|-0----0-0--0--0-0-0-0-0-0-0-|
|---0----0-0--1--1-1-3-3-3-5-0-0-|-7----7-7--7--7-7-7-0-0-0-0-|
|---0----0-0--0--0-0-0-0-0-0-0-0-|-7----7-7--7--7-7-7-0-0-0-0-|
|---0----0-0--2--2-2-4-4-4-5-0-0-|-0----0-0--0--0-0-0-0-0-0-0-|
|---0----0-0--0--0-0-0-0-0-0-0-0-|-7----7-7--7--7-7-7-0-0-0-0-|
|--------------------------------|-0----0-0--0--0-0-0---------|
|
| a W                              W
|--------------------------------|----------------------------|
|--------------------------------|----------------------------|
|--------------------------------|-2--------------------------|
|-4-5----------------------------|-2s4------(4)---------------|
|---7s5------(5)-----------------|----------------------------|
|--------------------------------|----------------------------|
    S E.     +H.                   S E.     +H.


  C     G   Gadd9  G
  E E   E   E   E  E    Q
  | |   |   |      |
  / /   /   /      /

  E E   E   E   E  E    S  S S S
|---0---5---0---0--0----0--0-0-0---|
|-5-7---0---0---0--0----0--0-0-0---|
|-5-0---0---0---0--0----0--0-0-0---|
|-5-0---0---7---7--0----0--0-0-0---|
|-5-0---0---0---0--0----0--0-0-0---|
|----------------------------------|
|
| |---3---|
| Q   Q   Q   a E.   S +E    E
|----------------------------------|
|----------------------------------|
|----------------------------------|
|-5s==4s==5---0-2----0-(0)---5-----|
|----------------------------------|
|----------------------------------|


  C     G   Gadd9 G           C   G   Gadd9   G
   E  E E   E  E  E Q         E E E   E  E  E Q
   |  | |   |     |           | | |   |     |
   /  / /   /     /           / / /   /     /

   E  E E   E  E  E S S S S   E E E   E  E  E S  S E
|-----0-5---0--0--0-0-0-0-0-|---0-5---0--0--0-0--0-----|
|--5--7-0---0--0--0-0-0-0-0-|-5-7-0---0--0--0-0--0-----|
|--5--0-0---0--0--0-0-0-0-0-|-5-0-0---0--0--0-0--0-----|
|--5--0-0---7--7--0-0-0-0-0-|-5-0-0---7--7--0-0--0-----|
|--5--0-0---0--0--0-0-0-0-0-|-5-0-0---0--0--0-0--0-----|
|---------------------------|----------------------0---|
|
| +E  E E a E +E  Q     E     E E E a E +E  E E.     S
|---------------------------|--------------------------|
|---------------------------|--------------------------|
|---------------------------|--------------------------|
|-(5)s4s5-0-2-(2)-0-----0---|-5s4s5-0-2-(2)-0-0--------|
|---------------------------|------------------------0-|
|---------------------------|--------------------------|


  D                      Dsus2
  Q       Q    Q      Q
  |       |    |      |
  /       /    /      /

  E  S S  E  E S S E  S  S E
|-0--0-0--0--0-0-0-0--0--0-0---|
|-7--7-7--7--7-7-7-7--7--5-5---|
|-7--7-7--7--7-7-7-7--7--7-7---|
|-0--0-0--0--0-0-0-0--0--0-0---|
|-7--7-7--7--7-7-7-7--7--7-7---|
|-0--0-0--0--0-0-0-0--0--0-0---|
|
| E.   S +H          +E.     S
|------------------------------|
|------------------------------|
|------------------------------|
|-2----5-(5)---------(5)-----5-|
|-0----------------------------|
|------------------------------|
  W


  D         Dsus2     D   DsusG
  Q       Q      Q        Q
  |       |      |        |
  /       /      /        /

  E   S S E E    S  S E   S S S S
|-0---0-0-0-0----0--0-0---0-0-0-0-|
|-7---7-7-7-5----5--5-7---5-5-0-0-|
|-7---7-7-7-7----7--7-7---7-7-0-0-|
|-0---0-0-0-0----0--0-0---0-0-0-0-|
|-7---7-7-7-7----7--7-7---7-7-0-0-|
|-0---0-0-0-0----0--0-0---0-0-----|
|
| S E   S E S S +S  S S S S S S S
|---------------------------------|
|---------------------------------|
|-------5-----------5-------------|
|-5-7-----7-5-7-(7)---7-5-7-5-7-5-|
|---------------------------------|
|---------------------------------|


 Outro
  G      Cadd9/Dadd11/GEm7/G   D                G
  E E    Q      Q      Q       E E    Q    Q    Q
  | |    |      |      |       | |    |    |    |
  / /    /      /      /       / /    /    /    /

  E S  S E S S  E  S S E S S   E S  S E E  E  E S S S S
|-0-0--0-0-0-0--0--0-0-0-0-0-|-0-0--0-0-0--0--0-0-0-0-0--|
|-0-0--0-1-1-1--3--3-3-5-0-0-|-7-7--7-7-7--7--7-0-0-0-0--|
|-0-0--0-0-0-0--0--0-0-0-0-0-|-7-7--7-7-7--7--7-0-0-0-0--|
|-0-0--0-2-2-2--4--4-4-5-0-0-|-0-0--0-0-0--0--0-0-0-0-0--|
|-0-0--0-0-0-0--0--0-0-0-0-0-|-7-7--7-7-7--7--7-0-0-0-0--|
|----------------------------|-0-0--0-0-0--0--0----------|
|
| E Q.         +H              E Q.       +H
|----------------------------|---------------------------|
|----------------------------|---------------------------|
|----------------------------|---------------------------|
|-7-5----------(5)-----------|---7--------(7)------------|
|----------------------------|---------------------------|
|----------------------------|---------------------------|


  C   G   Gadd9 G            C   G   Gadd9 G            C   G   Gadd9 G
  E E E   E  E  E  Q         E E E   E  E  E  Q         E E E   E  E  E Q
  | | |   |     |            | | |   |     |            | | |   |     |
  / / /   /     /            / / /   /     /            / / /   /     /

  E E E   E  E  E  S S S S   E E E   E  E  E  S S S S   E E E   E  E  E S S E
|---0-5---0--0--0--0-0-0-0-|---0-5---0--0--0--0-0-0-0-|---0-5---0--0--0-0-0----|
|-5-7-0---0--0--0--0-0-0-0-|-5-7-0---0--0--0--0-0-0-0-|-5-7-0---0--0--0-0-0----|
|-5-0-0---0--0--0--0-0-0-0-|-5-0-0---0--0--0--0-0-0-0-|-5-0-0---0--0--0-0-0----|
|-5-0-0---7--7--0--0-0-0-0-|-5-0-0---7--7--0--0-0-0-0-|-5-0-0---7--7--0-0-0----|
|-5-0-0---0--0--0--0-0-0-0-|-5-0-0---0--0--0--0-0-0-0-|-5-0-0---0--0--0-0-0----|
|--------------------------|--------------------------|---------------------0--|
|
| E E E a E +E  Q.           E E E a E +E  Q.           E E E a E +E  Q     E
|--------------------------|--------------------------|------------------------|
|--------------------------|--------------------------|------------------------|
|--------------------------|--------------------------|------------------------|
|-5s4s5-0-2-(2)-0----------|-5s4s5-0-2-(2)-0----------|-5s4s5-0-2-(2)-0-----5--|
|--------------------------|--------------------------|------------------------|
|--------------------------|--------------------------|------------------------|


    D                    C#
    Q     Q   Q     Q
    |     |   |     |
    /     /   /     /

    E S S E E S S E S  S E
|---0-0-0-0-0-0-0-0-0--0-----|
|---7-7-7-7-7-7-7-7-7--7-6---|
|---7-7-7-7-7-7-7-7-7--7-6---|
|---0-0-0-0-0-0-0-0-0--0-----|
|---7-7-7-7-7-7-7-7-7--7-6---|
|---0-0-0-0-0-0-0-0-0--0-----|
|
| a H         Q     E.     S
|----------------------------|
|----------------------------|
|----------------------------|
|-2-4---------4-----4------4s|
|----------------------------|
|----------------------------|


  D            Dsus2   D Dsus2 G     G      Cadd9/Dadd11/GEm7/G
  Q         Q      Q      Q          Q      Q      Q      Q
  |         |      |      |          |      |      |      |
  /         /      /      /          /      /      /      /

  E     S S E  E   S S E  S  S S S   E S  S E S S  E  S S E S S
|-0-----0-0-0--0---0-0-0--0--0-0-0-|-0-0--0-0-0-0--0--0-0-0-0-0-*|
|-7-----7-7-7--5---5-5-7--5--5-0-0-|-0-0--0-1-1-1--3--3-3-5-0-0-*|
|-7-----7-7-7--7---7-7-7--7--7-0-0-|-0-0--0-0-0-0--0--0-0-0-0-0-*|
|-0-----0-0-0--0---0-0-0--0--0-0-0-|-0-0--0-2-2-2--4--4-4-5-0-0-*|
|-7-----7-7-7--7---7-7-7--7--7-0-0-|-0-0--0-0-0-0--0--0-0-0-0-0-*|
|-0-----0-0-0--0---0-0-0--0--0-----|----------------------------*|
|
| S  E.     Q      Q      Q          W
|----------------------------------|----------------------------*|
|----------------------------------|----------------------------*|
|----5------5------5------5--------|----------------------------*|
|-7-------5s7----5s7-----(7)---7-5s|=7s5----------(5)-----------*|
|----------------------------------|----------------------------*|
|----------------------------------|----------------------------*|
  E.      S E.   S Q     +E    S S   E Q.         +H


Duration Legend
---------------
W - whole; H - half; Q - quarter; E - 8th; S - 16th; T - 32nd; X - 64th; a - acciaccatura
+ - note tied to previous; . - note dotted; .. - note double dotted
Uncapitalized letters represent notes that are staccato (1/2 duration)
Irregular groupings are notated above the duration line
Duration letters will always appear directly above the note/fret number it represents the
duration for.  Duration letters with no fret number below them represent rests.  Multi-
bar rests are notated in the form Wxn, where n is the number of bars to rest for.  Low
melody durations appear below the staff

Tablature Legend
----------------
 h   - hammer-on
 p   - pull-off
 b   - bend
 pb  - pre-bend
 r   - bend release (if no number after the r, then release immediately)
 /\  - slide into or out of (from/to "nowhere")
 s   - legato slide
 S   - shift slide
  - natural harmonic
[n]  - artificial harmonic
n(n) - tapped harmonic
 ~   - vibrato
 tr  - trill
 T   - tap
 TP  - trem. picking
 PM  - palm muting
\n/  - tremolo bar dip; n = amount to dip
 \n  - tremolo bar down
 n/  - tremolo bar up
/n\  - tremolo bar inverted dip
 =   - hold bend; also acts as connecting device for hammers/pulls
 <>  - volume swell (louder/softer)
 x   - on rhythm slash represents muted slash
 o   - on rhythm slash represents single note slash

Misc Legend
-----------
 |  - bar
||  - double bar
||o - repeat start
o|| - repeat end
*|  - double bar (ending)
 :  - bar (freetime)
 $  - Segno
 &  - Coda
Tempo markers -  = BPM(8/16=s8/s16), where s8 = swing 8ths, s16 = swing 16ths


***************************************************************************************
* Generated using Power Tab Editor by Brad Larsen - http://powertab.guitarnetwork.org *
***************************************************************************************
comments
print report bad tab
8 comments total. Showing first comments.
+2 reply
jasonguitars wrote on October 4 2008, 08:31 am

well done 5 stars

+1 reply
Ninboy3913 wrote on October 28 2008, 05:32 pm

great job on acoustic guitar part 5 stars

0 reply
_person_ wrote on March 18 2009, 10:27 pm

100%. perfect! 5 stars.

I want to post or [tab]
guest
You may want to rate the tab now too:
select rating
Please do not post tabs as comments. Select "correction" instead!